  0
SECTION
  2
HEADER
  9
$ACADVER
  1
AC1009
  9
$INSBASE
 10
5.2977292379999978
 20
29.564985182360989
 30
0.0
  9
$EXTMIN
 10
-12.517231391899999
 20
11.75002455246098
 30
0.0
  9
$EXTMAX
 10
23.112689867899999
 20
47.379945812260992
 30
0.0
  9
$LIMMIN
 10
0.0
 20
0.0
  9
$LIMMAX
 10
11.692913385800001
 20
8.2677165353999982
  9
$ORTHOMODE
 70
     1
  9
$REGENMODE
 70
     1
  9
$FILLMODE
 70
     1
  9
$QTEXTMODE
 70
     0
  9
$MIRRTEXT
 70
     0
  9
$DRAGMODE
 70
     2
  9
$LTSCALE
 40
0.6431102362
  9
$OSMODE
 70
  3071
  9
$ATTMODE
 70
     1
  9
$TEXTSIZE
 40
0.2
  9
$TRACEWID
 40
0.05
  9
$TEXTSTYLE
  7
STANDARD
  9
$CLAYER
  8
0
  9
$CELTYPE
  6
BYLAYER
  9
$CECOLOR
 62
   256
  9
$DIMSCALE
 40
1.0
  9
$DIMASZ
 40
0.1875
  9
$DIMEXO
 40
0.0625
  9
$DIMDLI
 40
0.4443307087
  9
$DIMRND
 40
0.0
  9
$DIMDLE
 40
0.0
  9
$DIMEXE
 40
0.125
  9
$DIMTP
 40
0.0
  9
$DIMTM
 40
0.0
  9
$DIMTXT
 40
0.15625
  9
$DIMCEN
 40
0.1052362205
  9
$DIMTSZ
 40
0.0
  9
$DIMTOL
 70
     0
  9
$DIMLIM
 70
     0
  9
$DIMTIH
 70
     1
  9
$DIMTOH
 70
     1
  9
$DIMSE1
 70
     0
  9
$DIMSE2
 70
     0
  9
$DIMTAD
 70
     0
  9
$DIMZIN
 70
     0
  9
$DIMBLK
  1

  9
$DIMASO
 70
     1
  9
$DIMSHO
 70
     1
  9
$DIMPOST
  1

  9
$DIMAPOST
  1

  9
$DIMALT
 70
     0
  9
$DIMALTD
 70
     2
  9
$DIMALTF
 40
25.399999999999999
  9
$DIMLFAC
 40
1.0
  9
$DIMTOFL
 70
     0
  9
$DIMTVP
 40
0.0
  9
$DIMTIX
 70
     0
  9
$DIMSOXD
 70
     0
  9
$DIMSAH
 70
     0
  9
$DIMBLK1
  1

  9
$DIMBLK2
  1

  9
$DIMSTYLE
  2
STANDARD
  9
$DIMCLRD
 70
     0
  9
$DIMCLRE
 70
     0
  9
$DIMCLRT
 70
     0
  9
$DIMTFAC
 40
1.0
  9
$DIMGAP
 40
0.09
  9
$LUNITS
 70
     4
  9
$LUPREC
 70
     4
  9
$SKETCHINC
 40
0.1
  9
$FILLETRAD
 40
0.0
  9
$AUNITS
 70
     0
  9
$AUPREC
 70
     2
  9
$MENU
  1
.
  9
$ELEVATION
 40
0.0
  9
$PELEVATION
 40
0.0
  9
$THICKNESS
 40
0.0
  9
$LIMCHECK
 70
     0
  9
$BLIPMODE
 70
     0
  9
$CHAMFERA
 40
0.0
  9
$CHAMFERB
 40
0.0
  9
$SKPOLY
 70
     0
  9
$TDCREATE
 40
2458505.5919647221
  9
$TDUPDATE
 40
2458505.678582096
  9
$TDINDWG
 40
0.0162596412
  9
$TDUSRTIMER
 40
0.0162596412
  9
$USRTIMER
 70
     1
  9
$ANGBASE
 50
0.0
  9
$ANGDIR
 70
     0
  9
$PDMODE
 70
     0
  9
$PDSIZE
 40
0.3125
  9
$PLINEWID
 40
0.0
  9
$COORDS
 70
     1
  9
$SPLFRAME
 70
     0
  9
$SPLINETYPE
 70
     6
  9
$SPLINESEGS
 70
     8
  9
$ATTDIA
 70
     1
  9
$ATTREQ
 70
     1
  9
$HANDLING
 70
     1
  9
$HANDSEED
  5
E35
  9
$SURFTAB1
 70
     6
  9
$SURFTAB2
 70
     6
  9
$SURFTYPE
 70
     6
  9
$SURFU
 70
     6
  9
$SURFV
 70
     6
  9
$UCSNAME
  2

  9
$UCSORG
 10
0.0
 20
0.0
 30
0.0
  9
$UCSXDIR
 10
1.0
 20
0.0
 30
0.0
  9
$UCSYDIR
 10
0.0
 20
1.0
 30
0.0
  9
$PUCSNAME
  2

  9
$PUCSORG
 10
0.0
 20
0.0
 30
0.0
  9
$PUCSXDIR
 10
1.0
 20
0.0
 30
0.0
  9
$PUCSYDIR
 10
0.0
 20
1.0
 30
0.0
  9
$USERI1
 70
     0
  9
$USERI2
 70
     0
  9
$USERI3
 70
     0
  9
$USERI4
 70
     0
  9
$USERI5
 70
     0
  9
$USERR1
 40
0.0
  9
$USERR2
 40
0.0
  9
$USERR3
 40
0.0
  9
$USERR4
 40
0.0
  9
$USERR5
 40
0.0
  9
$WORLDVIEW
 70
     1
  9
$SHADEDGE
 70
     3
  9
$SHADEDIF
 70
    70
  9
$TILEMODE
 70
     1
  9
$MAXACTVP
 70
    48
  9
$PLIMCHECK
 70
     0
  9
$PEXTMIN
 10
1.0000000000000000E+020
 20
1.0000000000000000E+020
 30
1.0000000000000000E+020
  9
$PEXTMAX
 10
-1.0000000000000000E+020
 20
-1.0000000000000000E+020
 30
-1.0000000000000000E+020
  9
$PLIMMIN
 10
0.0
 20
0.0
  9
$PLIMMAX
 10
12.0
 20
9.0
  9
$UNITMODE
 70
     0
  9
$VISRETAIN
 70
     1
  9
$PLINEGEN
 70
     0
  9
$PSLTSCALE
 70
     1
  0
ENDSEC
  0
SECTION
  2
TABLES
  0
TABLE
  2
VPORT
 70
     1
  0
VPORT
  2
*ACTIVE
 70
     0
 10
0.0
 20
0.0
 11
1.0
 21
1.0
 12
0.0
 22
0.0
 13
0.0
 23
0.0
 14
1.0
 24
1.0
 15
0.0
 25
0.0
 16
-0.000000000000032
 26
0.0
 36
145.19375174016071
 17
5.2977294921875
 27
29.564986228942871
 37
0.0
 40
50.388318795866802
 41
2.1638418079096038
 42
50.0
 43
0.0
 44
0.0
 50
0.0
 51
0.0
 71
     0
 72
   100
 73
     1
 74
     1
 75
     0
 76
     0
 77
     0
 78
     0
  0
ENDTAB
  0
TABLE
  2
LTYPE
 70
     2
  0
LTYPE
  2
CONTINUOUS
 70
     0
  3
Solid line
 72
    65
 73
     0
 40
0.0
  0
LTYPE
  2
PHANTOM2
 70
     0
  3
___ _ _ ___ _ _ ___ _ _ ___ _ _
 72
    65
 73
     6
 40
1.25
 49
0.625
 49
-0.125
 49
0.125
 49
-0.125
 49
0.125
 49
-0.125
  0
ENDTAB
  0
TABLE
  2
LAYER
 70
     1
  0
LAYER
  2
0
 70
     0
 62
     7
  6
CONTINUOUS
  0
ENDTAB
  0
TABLE
  2
STYLE
 70
     1
  0
STYLE
  2
STANDARD
 70
     0
 40
0.0
 41
0.8
 50
0.0
 71
     0
 42
0.2
  3
txt
  4

  0
ENDTAB
  0
TABLE
  2
VIEW
 70
     0
  0
ENDTAB
  0
TABLE
  2
UCS
 70
     0
  0
ENDTAB
  0
TABLE
  2
APPID
 70
     4
  0
APPID
  2
ACAD
 70
     0
  0
APPID
  2
ACAD_MLEADERVER
 70
     0
  0
APPID
  2
ACAD_EXEMPT_FROM_CAD_STANDARDS
 70
     0
  0
APPID
  2
ACAD_NAV_VCDISPLAY
 70
     0
  0
ENDTAB
  0
TABLE
  2
DIMSTYLE
 70
     2
  0
DIMSTYLE
  2
STANDARD
 70
     0
  3

  4

  5

  6

  7

 40
1.0
 41
0.1875
 42
0.0625
 43
0.38
 44
0.125
 45
0.0
 46
0.0
 47
1.5
 48
1.5
140
0.15625
141
0.09
142
0.0
143
25.399999999999999
144
1.0
145
0.0
146
1.0
147
0.09
 71
     0
 72
     0
 73
     1
 74
     1
 75
     0
 76
     0
 77
     0
 78
     4
170
     0
171
     2
172
     0
173
     0
174
     0
175
     0
176
     0
177
     0
178
     0
  0
ENDTAB
  0
ENDSEC
  0
SECTION
  2
BLOCKS
  0
BLOCK
  8
0
  2
$MODEL_SPACE
 70
     0
 10
0.0
 20
0.0
 30
0.0
  3
$MODEL_SPACE
  1

  0
ENDBLK
  5
21
  8
0
  0
BLOCK
 67
     1
  8
0
  2
$PAPER_SPACE
 70
     0
 10
0.0
 20
0.0
 30
0.0
  3
$PAPER_SPACE
  1

  0
ENDBLK
  5
1D
 67
     1
  8
0
  0
ENDSEC
  0
SECTION
  2
ENTITIES
  0
LINE
  5
732
  8
0
 10
1.4591465609884531
 20
47.379945812260992
 30
0.0
 11
-12.418821185660979
 21
47.379945812260978
 31
0.0
  0
ARC
  5
733
  8
0
 10
-12.418821185848159
 20
47.281535606209147
 30
0.0
 40
0.0984102060518311
 50
89.999999891021204
 51
179.9999999092162
  0
LINE
  5
734
  8
0
 10
-12.517231391899999
 20
47.281535606365082
 30
0.0
 11
-12.517231391899999
 21
11.84843389801693
 31
0.0
  0
ARC
  5
735
  8
0
 10
-12.418821560696429
 20
11.84843438366504
 30
0.0
 40
0.0984098312047614
 50
180.00028275210099
 51
270.00021831824898
  0
LINE
  5
736
  8
0
 10
-12.41882118571834
 20
11.750024552460991
 30
0.0
 11
23.01427966178829
 21
11.75002455246098
 31
0.0
  0
ARC
  5
737
  8
0
 10
23.014285868228491
 20
11.8484285521325
 30
0.0
 40
0.0984039998672362
 50
269.99638629699581
 51
0.0036137771190568
  0
LINE
  5
738
  8
0
 10
23.112689867899999
 20
11.8484347587
 30
0.0
 11
23.112689867899999
 21
25.726397982383439
 31
0.0
  0
ARC
  5
739
  8
0
 10
1.4591465608662859
 20
25.726402505226812
 30
0.0
 40
21.65354330703418
 50
359.99998803245109
 51
89.999999999837797
  0
LINE
  5
92F
  8
0
 10
-9.2332342491159807
 20
43.978868963378822
 30
0.0
 11
-9.2334402118000014
 21
15.15600391105
 31
0.0
  0
LINE
  5
930
  8
0
 10
-9.0281713658500138
 20
33.988954997249991
 30
0.0
 11
-9.0281713658500138
 21
25.14099494065
 31
0.0
  0
ARC
  5
931
  8
0
 10
-8.8313293991814135
 20
25.14099494065
 30
0.0
 40
0.1968419666685719
 50
180.0
 51
269.99999821370602
  0
LINE
  5
932
  8
0
 10
-8.8313294053183142
 20
24.944152973981421
 30
0.0
 11
-8.3691708137730814
 21
24.94415295957284
 31
0.0
  0
ARC
  5
933
  8
0
 10
-8.3691708076364648
 20
25.140986482641029
 30
0.0
 40
0.1968335230681853
 50
269.99999821370278
 51
0.0024620207467421
  0
LINE
  5
934
  8
0
 10
-8.1723372847500002
 20
25.14099494065
 30
0.0
 11
-8.1723372847500002
 21
33.988954989081343
 31
0.0
  0
ARC
  5
935
  8
0
 10
-8.369186739176655
 20
33.98895594146525
 30
0.0
 40
0.1968494544289516
 50
359.99972279537258
 51
89.995364711534876
  0
LINE
  5
936
  8
0
 10
-8.3691708138499905
 20
34.18580539525
 30
0.0
 11
-8.8313378367500093
 21
34.18580539525
 31
0.0
  0
ARC
  5
937
  8
0
 10
-8.8314101826583151
 20
33.98904420513594
 30
0.0
 40
0.1967612034142682
 50
89.978933269191415
 51
180.02597684629939
  0
ARC
  5
938
  8
0
 10
-9.1536515289062947
 20
24.7004683907297
 30
0.0
 40
0.0898631942591145
 50
207.4846006116903
 51
270.42678294372467
  0
LINE
  5
939
  8
0
 10
-9.1529821650500054
 20
24.610607689449989
 30
0.0
 11
-7.9975210266446757
 21
24.619214610076941
 31
0.0
  0
ARC
  5
93A
  8
0
 10
-8.0000549472607076
 20
24.681078781121158
 30
0.0
 40
0.0619160432575996
 50
272.34549087459538
 51
335.74299976633603
  0
ARC
  5
93B
  8
0
 10
-8.0153674824291556
 20
24.708165308962101
 30
0.0
 40
0.088929870881396
 50
323.79918134291768
 51
0.2184060615783633
  0
LINE
  5
93C
  8
0
 10
-7.9264382576500054
 20
24.70850430035
 30
0.0
 11
-7.9264382569499778
 21
34.421445637549994
 31
0.0
  0
ARC
  5
93D
  8
0
 10
-454.24003232769252
 20
25.881246019924259
 30
0.0
 40
446.2981098245196
 50
359.47308246000478
 51
359.84265665483571
  0
ARC
  5
93E
  8
0
 10
-29.104810763789771
 20
21.378827730852102
 30
0.0
 40
21.147763404013219
 50
351.7675728891611
 51
1.0786921222561829
  0
ARC
  5
93F
  8
0
 10
-18.882502905342619
 20
19.882209913352622
 30
0.0
 40
10.81650762634618
 50
333.36309843301052
 51
351.86012750070682
  0
ARC
  5
940
  8
0
 10
-8.9053314027692352
 20
15.167265341760469
 30
0.0
 40
0.3283020109369411
 50
181.9657480913412
 51
188.9386412399416
  0
ARC
  5
941
  8
0
 10
-9.1965926292658313
 20
15.038242772923111
 30
0.0
 40
0.0182388873241393
 50
197.38788460410601
 51
270.42526996835659
  0
ARC
  5
942
  8
0
 10
-8.1825253904505644
 20
15.26937908060218
 30
0.0
 40
1.058257619680848
 50
188.319596843732
 51
192.91836680627711
  0
ARC
  5
943
  8
0
 10
-9.1536515289062947
 20
34.429481547170298
 30
0.0
 40
0.0898631942591145
 50
89.573217056275325
 51
152.4186899695224
  0
LINE
  5
944
  8
0
 10
-9.1529821650500054
 20
34.519342248450002
 30
0.0
 11
-7.9975210266446757
 21
34.510735327823063
 31
0.0
  0
ARC
  5
945
  8
0
 10
-8.0000549472607076
 20
34.448871156778843
 30
0.0
 40
0.0619160432575996
 50
24.257000233663781
 51
87.654509125403024
  0
ARC
  5
946
  8
0
 10
-8.0153674824291556
 20
34.4217846289379
 30
0.0
 40
0.088929870881396
 50
359.78159393842083
 51
36.200818657082237
  0
ARC
  5
947
  8
0
 10
-454.24003232769252
 20
33.248703917975782
 30
0.0
 40
446.2981098245196
 50
0.1573433451638702
 51
0.5269175399948013
  0
ARC
  5
948
  8
0
 10
-29.104810763789771
 20
37.751122207047899
 30
0.0
 40
21.147763404013219
 50
358.9213078777438
 51
8.2324271108389251
  0
ARC
  5
949
  8
0
 10
-18.882502905342619
 20
39.247740024547369
 30
0.0
 40
10.81650762634618
 50
8.1398724992930074
 51
26.636901566989469
  0
ARC
  5
94A
  8
0
 10
-8.9053314027700594
 20
43.962684596139617
 30
0.0
 40
0.3283020109361115
 50
171.06135876005339
 51
177.17433367714801
  0
ARC
  5
94B
  8
0
 10
-9.1969232496431754
 20
44.091938989372039
 30
0.0
 40
0.0178545167070391
 50
87.755688517511643
 51
163.0049961302594
  0
ARC
  5
94C
  8
0
 10
-8.1825253904505502
 20
43.86057085729783
 30
0.0
 40
1.058257619680848
 50
167.08163319372289
 51
171.68040315626769
  0
LINE
  5
98E
  8
0
 10
-9.1962240559000001
 20
44.109779810399999
 30
0.0
 11
1.4591465608000009
 21
44.131911595199988
 31
0.0
  0
ARC
  5
991
  8
0
 10
1.4973005621094031
 20
25.762628316165969
 30
0.0
 40
18.369322902960111
 50
359.88700795156581
 51
90.119006281828973
  0
LINE
  5
A55
  8
0
 10
19.866587744899999
 20
25.726402505199999
 30
0.0
 11
19.849169696679422
 21
15.094671639977349
 31
0.0
  0
ARC
  5
A56
  8
0
 10
19.767879183457669
 20
15.093950469560889
 30
0.0
 40
0.0812937120977058
 50
269.98286162802373
 51
0.5082873212506291
  0
LINE
  5
A57
  8
0
 10
19.7678548668
 20
15.012656761100001
 30
0.0
 11
-9.1964572549000003
 21
15.020004388
 31
0.0
  0
ENDSEC
  0
EOF
