  0
SECTION
  2
HEADER
  9
$ACADVER
  1
AC1009
  9
$INSBASE
 10
5.364920329918565
 20
27.129221200550312
 30
0.0
  9
$EXTMIN
 10
-18.355552085999999
 20
11.28276450764335
 30
0.0
  9
$EXTMAX
 10
29.085392746038291
 20
42.975677893458951
 30
0.0
  9
$LIMMIN
 10
0.0
 20
0.0
  9
$LIMMAX
 10
11.692913385800001
 20
8.2677165353999982
  9
$ORTHOMODE
 70
     1
  9
$REGENMODE
 70
     1
  9
$FILLMODE
 70
     1
  9
$QTEXTMODE
 70
     0
  9
$MIRRTEXT
 70
     0
  9
$DRAGMODE
 70
     2
  9
$LTSCALE
 40
0.6431102362
  9
$OSMODE
 70
  3071
  9
$ATTMODE
 70
     1
  9
$TEXTSIZE
 40
0.2
  9
$TRACEWID
 40
0.05
  9
$TEXTSTYLE
  7
STANDARD
  9
$CLAYER
  8
0
  9
$CELTYPE
  6
BYLAYER
  9
$CECOLOR
 62
   256
  9
$DIMSCALE
 40
1.0
  9
$DIMASZ
 40
0.1875
  9
$DIMEXO
 40
0.0625
  9
$DIMDLI
 40
0.4443307087
  9
$DIMRND
 40
0.0
  9
$DIMDLE
 40
0.0
  9
$DIMEXE
 40
0.125
  9
$DIMTP
 40
0.0
  9
$DIMTM
 40
0.0
  9
$DIMTXT
 40
0.15625
  9
$DIMCEN
 40
0.1052362205
  9
$DIMTSZ
 40
0.0
  9
$DIMTOL
 70
     0
  9
$DIMLIM
 70
     0
  9
$DIMTIH
 70
     1
  9
$DIMTOH
 70
     1
  9
$DIMSE1
 70
     0
  9
$DIMSE2
 70
     0
  9
$DIMTAD
 70
     0
  9
$DIMZIN
 70
     0
  9
$DIMBLK
  1

  9
$DIMASO
 70
     1
  9
$DIMSHO
 70
     1
  9
$DIMPOST
  1

  9
$DIMAPOST
  1

  9
$DIMALT
 70
     0
  9
$DIMALTD
 70
     2
  9
$DIMALTF
 40
25.399999999999999
  9
$DIMLFAC
 40
1.0
  9
$DIMTOFL
 70
     0
  9
$DIMTVP
 40
0.0
  9
$DIMTIX
 70
     0
  9
$DIMSOXD
 70
     0
  9
$DIMSAH
 70
     0
  9
$DIMBLK1
  1

  9
$DIMBLK2
  1

  9
$DIMSTYLE
  2
STANDARD
  9
$DIMCLRD
 70
     0
  9
$DIMCLRE
 70
     0
  9
$DIMCLRT
 70
     0
  9
$DIMTFAC
 40
1.0
  9
$DIMGAP
 40
0.09
  9
$LUNITS
 70
     4
  9
$LUPREC
 70
     4
  9
$SKETCHINC
 40
0.1
  9
$FILLETRAD
 40
0.0
  9
$AUNITS
 70
     0
  9
$AUPREC
 70
     2
  9
$MENU
  1
.
  9
$ELEVATION
 40
0.0
  9
$PELEVATION
 40
0.0
  9
$THICKNESS
 40
0.0
  9
$LIMCHECK
 70
     0
  9
$BLIPMODE
 70
     0
  9
$CHAMFERA
 40
0.0
  9
$CHAMFERB
 40
0.0
  9
$SKPOLY
 70
     0
  9
$TDCREATE
 40
2458506.5183829982
  9
$TDUPDATE
 40
2458506.5909045259
  9
$TDINDWG
 40
0.0659531019
  9
$TDUSRTIMER
 40
0.0659531019
  9
$USRTIMER
 70
     1
  9
$ANGBASE
 50
0.0
  9
$ANGDIR
 70
     0
  9
$PDMODE
 70
     0
  9
$PDSIZE
 40
0.3125
  9
$PLINEWID
 40
0.0
  9
$COORDS
 70
     1
  9
$SPLFRAME
 70
     0
  9
$SPLINETYPE
 70
     6
  9
$SPLINESEGS
 70
     8
  9
$ATTDIA
 70
     1
  9
$ATTREQ
 70
     1
  9
$HANDLING
 70
     1
  9
$HANDSEED
  5
B72
  9
$SURFTAB1
 70
     6
  9
$SURFTAB2
 70
     6
  9
$SURFTYPE
 70
     6
  9
$SURFU
 70
     6
  9
$SURFV
 70
     6
  9
$UCSNAME
  2

  9
$UCSORG
 10
0.0
 20
0.0
 30
0.0
  9
$UCSXDIR
 10
1.0
 20
0.0
 30
0.0
  9
$UCSYDIR
 10
0.0
 20
1.0
 30
0.0
  9
$PUCSNAME
  2

  9
$PUCSORG
 10
0.0
 20
0.0
 30
0.0
  9
$PUCSXDIR
 10
1.0
 20
0.0
 30
0.0
  9
$PUCSYDIR
 10
0.0
 20
1.0
 30
0.0
  9
$USERI1
 70
     0
  9
$USERI2
 70
     0
  9
$USERI3
 70
     0
  9
$USERI4
 70
     0
  9
$USERI5
 70
     0
  9
$USERR1
 40
0.0
  9
$USERR2
 40
0.0
  9
$USERR3
 40
0.0
  9
$USERR4
 40
0.0
  9
$USERR5
 40
0.0
  9
$WORLDVIEW
 70
     1
  9
$SHADEDGE
 70
     3
  9
$SHADEDIF
 70
    70
  9
$TILEMODE
 70
     1
  9
$MAXACTVP
 70
    48
  9
$PLIMCHECK
 70
     0
  9
$PEXTMIN
 10
1.0000000000000000E+020
 20
1.0000000000000000E+020
 30
1.0000000000000000E+020
  9
$PEXTMAX
 10
-1.0000000000000000E+020
 20
-1.0000000000000000E+020
 30
-1.0000000000000000E+020
  9
$PLIMMIN
 10
0.0
 20
0.0
  9
$PLIMMAX
 10
12.0
 20
9.0
  9
$UNITMODE
 70
     0
  9
$VISRETAIN
 70
     1
  9
$PLINEGEN
 70
     0
  9
$PSLTSCALE
 70
     1
  0
ENDSEC
  0
SECTION
  2
TABLES
  0
TABLE
  2
VPORT
 70
     1
  0
VPORT
  2
*ACTIVE
 70
     0
 10
0.0
 20
0.0
 11
1.0
 21
1.0
 12
0.0
 22
0.0
 13
0.0
 23
0.0
 14
1.0
 24
1.0
 15
0.0
 25
0.0
 16
-0.0000000000000364
 26
0.0
 36
164.39899455240911
 17
5.364919662475585
 27
27.129220962524411
 37
0.0
 40
57.0882662119865
 41
2.1638418079096038
 42
50.0
 43
0.0
 44
0.0
 50
0.0
 51
0.0
 71
     0
 72
   100
 73
     1
 74
     1
 75
     0
 76
     0
 77
     0
 78
     0
  0
ENDTAB
  0
TABLE
  2
LTYPE
 70
     2
  0
LTYPE
  2
CONTINUOUS
 70
     0
  3
Solid line
 72
    65
 73
     0
 40
0.0
  0
LTYPE
  2
PHANTOM2
 70
     0
  3
___ _ _ ___ _ _ ___ _ _ ___ _ _
 72
    65
 73
     6
 40
1.25
 49
0.625
 49
-0.125
 49
0.125
 49
-0.125
 49
0.125
 49
-0.125
  0
ENDTAB
  0
TABLE
  2
LAYER
 70
     1
  0
LAYER
  2
0
 70
     0
 62
     7
  6
CONTINUOUS
  0
ENDTAB
  0
TABLE
  2
STYLE
 70
     1
  0
STYLE
  2
STANDARD
 70
     0
 40
0.0
 41
0.8
 50
0.0
 71
     0
 42
0.2
  3
txt
  4

  0
ENDTAB
  0
TABLE
  2
VIEW
 70
     0
  0
ENDTAB
  0
TABLE
  2
UCS
 70
     0
  0
ENDTAB
  0
TABLE
  2
APPID
 70
     4
  0
APPID
  2
ACAD
 70
     0
  0
APPID
  2
ACAD_MLEADERVER
 70
     0
  0
APPID
  2
ACAD_EXEMPT_FROM_CAD_STANDARDS
 70
     0
  0
APPID
  2
ACAD_NAV_VCDISPLAY
 70
     0
  0
ENDTAB
  0
TABLE
  2
DIMSTYLE
 70
     2
  0
DIMSTYLE
  2
STANDARD
 70
     0
  3

  4

  5

  6

  7

 40
1.0
 41
0.1875
 42
0.0625
 43
0.38
 44
0.125
 45
0.0
 46
0.0
 47
1.5
 48
1.5
140
0.15625
141
0.09
142
0.0
143
25.399999999999999
144
1.0
145
0.0
146
1.0
147
0.09
 71
     0
 72
     0
 73
     1
 74
     1
 75
     0
 76
     0
 77
     0
 78
     4
170
     0
171
     2
172
     0
173
     0
174
     0
175
     0
176
     0
177
     0
178
     0
  0
ENDTAB
  0
ENDSEC
  0
SECTION
  2
BLOCKS
  0
BLOCK
  8
0
  2
$MODEL_SPACE
 70
     0
 10
0.0
 20
0.0
 30
0.0
  3
$MODEL_SPACE
  1

  0
ENDBLK
  5
21
  8
0
  0
BLOCK
 67
     1
  8
0
  2
$PAPER_SPACE
 70
     0
 10
0.0
 20
0.0
 30
0.0
  3
$PAPER_SPACE
  1

  0
ENDBLK
  5
1D
 67
     1
  8
0
  0
ENDSEC
  0
SECTION
  2
ENTITIES
  0
LINE
  5
7A7
  8
0
 10
28.9869825896
 20
42.975677893300002
 30
0.0
 11
-18.257141879804038
 21
42.975677893456712
 31
0.0
  0
ARC
  5
7A8
  8
0
 10
-18.257141879614231
 20
42.87726768707094
 30
0.0
 40
0.0984102063857719
 50
90.000000110518755
 51
179.9999995028962
  0
LINE
  5
7A9
  8
0
 10
-18.355552085999999
 20
42.877267687924757
 30
0.0
 11
-18.355552085999999
 21
11.38117371625221
 31
0.0
  0
ARC
  5
7AA
  8
0
 10
-18.257142213554982
 20
11.381174380090609
 30
0.0
 40
0.0984098724472568
 50
180.00038649718789
 51
270.00019420519442
  0
LINE
  5
7AB
  8
0
 10
-18.257141879992741
 20
11.28276450764392
 30
0.0
 11
28.986982589506638
 21
11.28276450764392
 31
0.0
  0
ARC
  5
7AC
  8
0
 10
28.986821785108582
 20
11.38133546829132
 30
0.0
 40
0.0985710918119782
 50
270.09346977144389
 51
359.90655915029851
  0
LINE
  5
7AD
  8
0
 10
29.08539274583713
 20
11.38117471364987
 30
0.0
 11
29.08539274583713
 21
42.877267687100002
 31
0.0
  0
ARC
  5
7AE
  8
0
 10
28.98698883158313
 20
42.877273979003789
 30
0.0
 40
0.0984039144551542
 50
359.99633653259872
 51
90.003634374205575
  0
LINE
  5
8B3
  8
0
 10
-15.086843634599999
 20
39.658597690599997
 30
0.0
 11
-15.10249818505355
 21
14.530796003500001
 31
0.0
  0
LINE
  5
8B4
  8
0
 10
9.7889003831999943
 20
39.486329029250022
 30
0.0
 11
0.9409403266000069
 21
39.486329029250022
 31
0.0
  0
ARC
  5
8B5
  8
0
 10
0.9409403266000069
 20
39.289487062581429
 30
0.0
 40
0.1968419666685719
 50
90.0
 51
179.9999982137056
  0
LINE
  5
8B6
  8
0
 10
0.7440983599314209
 20
39.28948706871833
 30
0.0
 11
0.7440983455228363
 21
38.827328477173097
 31
0.0
  0
ARC
  5
8B7
  8
0
 10
0.9409318685910292
 20
38.827328471036481
 30
0.0
 40
0.1968335230681853
 50
179.99999821370341
 51
270.0024620207468
  0
LINE
  5
8B8
  8
0
 10
0.9409403266000069
 20
38.630494948150009
 30
0.0
 11
9.7889003750313393
 21
38.630494948150009
 31
0.0
  0
ARC
  5
8B9
  8
0
 10
9.7889013274152532
 20
38.827344402576657
 30
0.0
 40
0.1968494544289516
 50
269.99972279537258
 51
359.99536471153527
  0
LINE
  5
8BA
  8
0
 10
9.9857507812000037
 20
38.827328477250013
 30
0.0
 11
9.9857507812000037
 21
39.289495500150011
 31
0.0
  0
ARC
  5
8BB
  8
0
 10
9.7889895910859437
 20
39.289567846058333
 30
0.0
 40
0.1967612034142682
 50
359.9789332691924
 51
90.025976846299415
  0
ARC
  5
8BC
  8
0
 10
0.5004137766797001
 20
39.611809192306303
 30
0.0
 40
0.0898631942591145
 50
117.43347033984929
 51
180.42678294372391
  0
LINE
  5
8BD
  8
0
 10
0.4105530753999958
 20
39.611139828450007
 30
0.0
 11
0.4191599960269415
 21
38.455678690044692
 31
0.0
  0
ARC
  5
8BE
  8
0
 10
0.481024167071162
 20
38.458212610660709
 30
0.0
 40
0.0619160432575996
 50
182.34549087459609
 51
245.742999766336
  0
ARC
  5
8BF
  8
0
 10
0.508110694912098
 20
38.473525145829157
 30
0.0
 40
0.088929870881396
 50
233.79918134291771
 51
270.21840606157832
  0
LINE
  5
8C0
  8
0
 10
0.5084496863000041
 20
38.384595921050007
 30
0.0
 11
10.22139102349999
 21
38.384595920349987
 31
0.0
  0
ARC
  5
8C1
  8
0
 10
5.435656475881629
 20
1038.1387092656789
 30
0.0
 40
999.74934997675177
 50
269.20535305372471
 51
269.71459032989151
  0
ARC
  5
8C2
  8
0
 10
-8.5464137869105627
 20
62.632748766497819
 30
0.0
 40
24.147520102234751
 50
262.301770385959
 51
270.27710266068681
  0
ARC
  5
8C3
  8
0
 10
-8.1448641203376013
 20
57.076914972444712
 30
0.0
 40
18.73040557836509
 50
248.28741105950019
 51
258.80574961549928
  0
ARC
  5
8C4
  8
0
 10
-15.06892027789716
 20
39.658274432753757
 30
0.0
 40
0.0179262715345927
 50
107.11100173161761
 51
178.9667503264636
  0
ARC
  5
8C5
  8
0
 10
-14.912125009604191
 20
39.001605304639959
 30
0.0
 40
0.6930191810324531
 50
95.384071200595116
 51
103.5244450465169
  0
ARC
  5
8C6
  8
0
 10
10.229426933120299
 20
39.611809192306303
 30
0.0
 40
0.0898631942591145
 50
359.57321705627612
 51
62.566529660151083
  0
LINE
  5
8C7
  8
0
 10
10.3192876344
 20
39.611139828450007
 30
0.0
 11
10.31068071377306
 21
38.455678690044692
 31
0.0
  0
ARC
  5
8C8
  8
0
 10
10.248816542728839
 20
38.458212610660709
 30
0.0
 40
0.0619160432575996
 50
294.25700023366409
 51
357.65450912540359
  0
ARC
  5
8C9
  8
0
 10
10.2217300148879
 20
38.473525145829157
 30
0.0
 40
0.088929870881396
 50
269.78159393842083
 51
306.20081865708221
  0
LINE
  5
8CA
  8
0
 10
25.706968571762008
 20
39.691566946850017
 30
0.0
 11
-14.97715206211091
 21
39.691566946850003
 31
0.0
  0
LINE
  5
8CB
  8
0
 10
25.832337636711269
 20
14.530796003500001
 30
0.0
 11
-15.10249818505355
 21
14.53079600349999
 31
0.0
  0
LINE
  5
8CC
  8
0
 10
25.81668611066322
 20
39.658595230254889
 30
0.0
 11
25.832337636711269
 21
14.530796003500001
 31
0.0
  0
ARC
  5
8CD
  8
0
 10
5.2946591540489081
 20
1038.1083995573949
 30
0.0
 40
999.71903827884057
 50
270.2853911049595
 51
270.79464391365252
  0
ARC
  5
8CE
  8
0
 10
19.276259026761728
 20
62.632747092965552
 30
0.0
 40
24.14752010223474
 50
269.722890446637
 51
277.69822272136491
  0
ARC
  5
8CF
  8
0
 10
18.874708691822569
 20
57.076913347218863
 30
0.0
 40
18.73040557836508
 50
281.19424349182469
 51
291.71258204782401
  0
ARC
  5
8D0
  8
0
 10
25.798762753921501
 20
39.65827197456484
 30
0.0
 40
0.0179262715345927
 50
1.033242780860063
 51
72.888991375706553
  0
ARC
  5
8D1
  8
0
 10
25.641967406631299
 20
39.001602865313487
 30
0.0
 40
0.693019181032453
 50
76.475548060806943
 51
84.618078534551799
  0
ENDSEC
  0
EOF
