  0
SECTION
  2
HEADER
  9
$ACADVER
  1
AC1009
  9
$INSBASE
 10
5.3089277574499958
 20
26.884085316549989
 30
0.0
  9
$EXTMIN
 10
-14.474536809500041
 20
11.03762862359997
 30
0.0
  9
$EXTMAX
 10
25.092392324588779
 20
42.730542009688783
 30
0.0
  9
$LIMMIN
 10
0.0
 20
0.0
  9
$LIMMAX
 10
11.692913385800001
 20
8.2677165353999982
  9
$ORTHOMODE
 70
     1
  9
$REGENMODE
 70
     1
  9
$FILLMODE
 70
     1
  9
$QTEXTMODE
 70
     0
  9
$MIRRTEXT
 70
     0
  9
$DRAGMODE
 70
     2
  9
$LTSCALE
 40
0.6431102362
  9
$OSMODE
 70
  3071
  9
$ATTMODE
 70
     1
  9
$TEXTSIZE
 40
0.2
  9
$TRACEWID
 40
0.05
  9
$TEXTSTYLE
  7
STANDARD
  9
$CLAYER
  8
0
  9
$CELTYPE
  6
BYLAYER
  9
$CECOLOR
 62
   256
  9
$DIMSCALE
 40
1.0
  9
$DIMASZ
 40
0.1875
  9
$DIMEXO
 40
0.0625
  9
$DIMDLI
 40
0.4443307087
  9
$DIMRND
 40
0.0
  9
$DIMDLE
 40
0.0
  9
$DIMEXE
 40
0.125
  9
$DIMTP
 40
0.0
  9
$DIMTM
 40
0.0
  9
$DIMTXT
 40
1.0
  9
$DIMCEN
 40
0.1052362205
  9
$DIMTSZ
 40
0.0
  9
$DIMTOL
 70
     0
  9
$DIMLIM
 70
     0
  9
$DIMTIH
 70
     1
  9
$DIMTOH
 70
     1
  9
$DIMSE1
 70
     0
  9
$DIMSE2
 70
     0
  9
$DIMTAD
 70
     0
  9
$DIMZIN
 70
     0
  9
$DIMBLK
  1

  9
$DIMASO
 70
     1
  9
$DIMSHO
 70
     1
  9
$DIMPOST
  1
\X
  9
$DIMAPOST
  1

  9
$DIMALT
 70
     1
  9
$DIMALTD
 70
     2
  9
$DIMALTF
 40
25.399999999999999
  9
$DIMLFAC
 40
1.0
  9
$DIMTOFL
 70
     0
  9
$DIMTVP
 40
0.0
  9
$DIMTIX
 70
     0
  9
$DIMSOXD
 70
     0
  9
$DIMSAH
 70
     0
  9
$DIMBLK1
  1

  9
$DIMBLK2
  1

  9
$DIMSTYLE
  2
STANDARD
  9
$DIMCLRD
 70
     0
  9
$DIMCLRE
 70
     0
  9
$DIMCLRT
 70
     0
  9
$DIMTFAC
 40
1.0
  9
$DIMGAP
 40
0.09
  9
$LUNITS
 70
     4
  9
$LUPREC
 70
     4
  9
$SKETCHINC
 40
0.1
  9
$FILLETRAD
 40
0.0
  9
$AUNITS
 70
     0
  9
$AUPREC
 70
     2
  9
$MENU
  1
.
  9
$ELEVATION
 40
0.0
  9
$PELEVATION
 40
0.0
  9
$THICKNESS
 40
0.0
  9
$LIMCHECK
 70
     0
  9
$BLIPMODE
 70
     0
  9
$CHAMFERA
 40
0.0
  9
$CHAMFERB
 40
0.0
  9
$SKPOLY
 70
     0
  9
$TDCREATE
 40
2458501.7390720369
  9
$TDUPDATE
 40
2458501.795732257
  9
$TDINDWG
 40
0.0117557292
  9
$TDUSRTIMER
 40
0.0117557292
  9
$USRTIMER
 70
     1
  9
$ANGBASE
 50
0.0
  9
$ANGDIR
 70
     0
  9
$PDMODE
 70
     0
  9
$PDSIZE
 40
0.3125
  9
$PLINEWID
 40
0.0
  9
$COORDS
 70
     1
  9
$SPLFRAME
 70
     0
  9
$SPLINETYPE
 70
     6
  9
$SPLINESEGS
 70
     8
  9
$ATTDIA
 70
     1
  9
$ATTREQ
 70
     1
  9
$HANDLING
 70
     1
  9
$HANDSEED
  5
B9A
  9
$SURFTAB1
 70
     6
  9
$SURFTAB2
 70
     6
  9
$SURFTYPE
 70
     6
  9
$SURFU
 70
     6
  9
$SURFV
 70
     6
  9
$UCSNAME
  2

  9
$UCSORG
 10
0.0
 20
0.0
 30
0.0
  9
$UCSXDIR
 10
1.0
 20
0.0
 30
0.0
  9
$UCSYDIR
 10
0.0
 20
1.0
 30
0.0
  9
$PUCSNAME
  2

  9
$PUCSORG
 10
0.0
 20
0.0
 30
0.0
  9
$PUCSXDIR
 10
1.0
 20
0.0
 30
0.0
  9
$PUCSYDIR
 10
0.0
 20
1.0
 30
0.0
  9
$USERI1
 70
     0
  9
$USERI2
 70
     0
  9
$USERI3
 70
     0
  9
$USERI4
 70
     0
  9
$USERI5
 70
     0
  9
$USERR1
 40
0.0
  9
$USERR2
 40
0.0
  9
$USERR3
 40
0.0
  9
$USERR4
 40
0.0
  9
$USERR5
 40
0.0
  9
$WORLDVIEW
 70
     1
  9
$SHADEDGE
 70
     3
  9
$SHADEDIF
 70
    70
  9
$TILEMODE
 70
     1
  9
$MAXACTVP
 70
    48
  9
$PLIMCHECK
 70
     0
  9
$PEXTMIN
 10
1.0000000000000000E+020
 20
1.0000000000000000E+020
 30
1.0000000000000000E+020
  9
$PEXTMAX
 10
-1.0000000000000000E+020
 20
-1.0000000000000000E+020
 30
-1.0000000000000000E+020
  9
$PLIMMIN
 10
0.0
 20
0.0
  9
$PLIMMAX
 10
12.0
 20
9.0
  9
$UNITMODE
 70
     0
  9
$VISRETAIN
 70
     1
  9
$PLINEGEN
 70
     0
  9
$PSLTSCALE
 70
     1
  0
ENDSEC
  0
SECTION
  2
TABLES
  0
TABLE
  2
VPORT
 70
     1
  0
VPORT
  2
*ACTIVE
 70
     0
 10
0.0
 20
0.0
 11
1.0
 21
1.0
 12
0.0
 22
0.0
 13
0.0
 23
0.0
 14
1.0
 24
1.0
 15
0.0
 25
0.0
 16
-0.0000000000000329
 26
0.0
 36
146.0774403345068
 17
5.3089275360107422
 27
26.884084701538089
 37
0.0
 40
50.699168283913451
 41
2.1638418079096038
 42
50.0
 43
0.0
 44
0.0
 50
0.0
 51
0.0
 71
     0
 72
   100
 73
     1
 74
     1
 75
     0
 76
     0
 77
     0
 78
     0
  0
ENDTAB
  0
TABLE
  2
LTYPE
 70
     2
  0
LTYPE
  2
CONTINUOUS
 70
     0
  3
Solid line
 72
    65
 73
     0
 40
0.0
  0
LTYPE
  2
PHANTOM2
 70
     0
  3
___ _ _ ___ _ _ ___ _ _ ___ _ _
 72
    65
 73
     6
 40
1.25
 49
0.625
 49
-0.125
 49
0.125
 49
-0.125
 49
0.125
 49
-0.125
  0
ENDTAB
  0
TABLE
  2
LAYER
 70
     2
  0
LAYER
  2
0
 70
     0
 62
     7
  6
CONTINUOUS
  0
LAYER
  2
DEFPOINTS
 70
     0
 62
     7
  6
CONTINUOUS
  0
ENDTAB
  0
TABLE
  2
STYLE
 70
     1
  0
STYLE
  2
STANDARD
 70
     0
 40
0.0
 41
0.8
 50
0.0
 71
     0
 42
0.2
  3
txt
  4

  0
ENDTAB
  0
TABLE
  2
VIEW
 70
     0
  0
ENDTAB
  0
TABLE
  2
UCS
 70
     0
  0
ENDTAB
  0
TABLE
  2
APPID
 70
     6
  0
APPID
  2
ACAD
 70
     0
  0
APPID
  2
ACAD_MLEADERVER
 70
     0
  0
APPID
  2
ACAD_EXEMPT_FROM_CAD_STANDARDS
 70
     0
  0
APPID
  2
ACAD_NAV_VCDISPLAY
 70
     0
  0
APPID
  2
ACAD_DSTYLE_DIMJAG
 70
     0
  0
APPID
  2
ACAD_DSTYLE_DIMTALN
 70
     0
  0
ENDTAB
  0
TABLE
  2
DIMSTYLE
 70
     2
  0
DIMSTYLE
  2
STANDARD
 70
     0
  3

  4

  5

  6

  7

 40
1.0
 41
0.1875
 42
0.0625
 43
0.38
 44
0.125
 45
0.0
 46
0.0
 47
1.5
 48
1.5
140
0.15625
141
0.09
142
0.0
143
25.399999999999999
144
1.0
145
0.0
146
1.0
147
0.09
 71
     0
 72
     0
 73
     1
 74
     1
 75
     0
 76
     0
 77
     0
 78
     4
170
     0
171
     2
172
     0
173
     0
174
     0
175
     0
176
     0
177
     0
178
     0
  0
ENDTAB
  0
ENDSEC
  0
SECTION
  2
BLOCKS
  0
BLOCK
  8
0
  2
$MODEL_SPACE
 70
     0
 10
0.0
 20
0.0
 30
0.0
  3
$MODEL_SPACE
  1

  0
ENDBLK
  5
21
  8
0
  0
BLOCK
 67
     1
  8
0
  2
$PAPER_SPACE
 70
     0
 10
0.0
 20
0.0
 30
0.0
  3
$PAPER_SPACE
  1

  0
ENDBLK
  5
1D
 67
     1
  8
0
  0
ENDSEC
  0
SECTION
  2
ENTITIES
  0
LINE
  5
876
  8
0
 10
24.993982118200002
 20
42.730542009499992
 30
0.0
 11
-14.376126603160969
 21
42.730542009499977
 31
0.0
  0
ARC
  5
877
  8
0
 10
-14.37612660309428
 20
42.632131803094268
 30
0.0
 40
0.0984102064057169
 50
90.000000038833903
 51
179.99999990925761
  0
LINE
  5
878
  8
0
 10
-14.4745368095
 20
42.632131803250132
 30
0.0
 11
-14.4745368095
 21
11.13603882984795
 31
0.0
  0
ARC
  5
879
  8
0
 10
-14.376126687961801
 20
11.136038745138199
 30
0.0
 40
0.0984101215382323
 50
179.9999506807724
 51
270.00003275378617
  0
LINE
  5
87A
  8
0
 10
-14.37612663170454
 20
11.037628623599989
 30
0.0
 11
24.993256651282071
 21
11.03762862359998
 31
0.0
  0
ARC
  5
87B
  8
0
 10
24.993256598237071
 20
11.13676702417589
 30
0.0
 40
0.0991384005759279
 50
270.00003065667971
 51
359.57914558221648
  0
LINE
  5
87C
  8
0
 10
25.092392324400009
 20
11.1360388299
 30
0.0
 11
25.092392324400009
 21
42.632131803250132
 31
0.0
  0
ARC
  5
87D
  8
0
 10
24.993988213550661
 20
42.632137898650647
 30
0.0
 40
0.0984041110381266
 50
359.99645095392373
 51
90.003549046140449
  0
LINE
  5
89B
  8
0
 10
-11.208156923265189
 20
39.411241724959709
 30
0.0
 11
-11.22434095313505
 21
14.285660119699999
 31
0.0
  0
LINE
  5
89C
  8
0
 10
9.7329077857999948
 20
39.240979479900012
 30
0.0
 11
0.8849477292000074
 21
39.240979479900012
 31
0.0
  0
ARC
  5
89D
  8
0
 10
0.8849477292000074
 20
39.044137513231433
 30
0.0
 40
0.1968419666685719
 50
90.0
 51
179.9999982137056
  0
LINE
  5
89E
  8
0
 10
0.6881057625314213
 20
39.044137519368327
 30
0.0
 11
0.6881057481228368
 21
38.581978927823087
 31
0.0
  0
ARC
  5
89F
  8
0
 10
0.8849392711910297
 20
38.581978921686478
 30
0.0
 40
0.1968335230681853
 50
179.99999821370341
 51
270.0024620207468
  0
LINE
  5
8A0
  8
0
 10
0.8849477292000074
 20
38.38514539880002
 30
0.0
 11
9.7329077776313397
 21
38.38514539880002
 31
0.0
  0
ARC
  5
8A1
  8
0
 10
9.7329087300152537
 20
38.581994853226661
 30
0.0
 40
0.1968494544289516
 50
269.99972279537258
 51
359.99536471153527
  0
LINE
  5
8A2
  8
0
 10
9.9297581838000042
 20
38.58197892790001
 30
0.0
 11
9.9297581838000042
 21
39.044145950800008
 31
0.0
  0
ARC
  5
8A3
  8
0
 10
9.7329969936859442
 20
39.04421829670833
 30
0.0
 40
0.1967612034142682
 50
359.9789332691924
 51
90.025976846299415
  0
ARC
  5
8A4
  8
0
 10
0.4444211792797006
 20
39.366459642956301
 30
0.0
 40
0.0898631942591145
 50
117.43347033984929
 51
180.42678294372391
  0
LINE
  5
8A5
  8
0
 10
0.3545604779999962
 20
39.365790279100011
 30
0.0
 11
0.3631673986269419
 21
38.210329140694689
 31
0.0
  0
ARC
  5
8A6
  8
0
 10
0.4250315696711624
 20
38.212863061310713
 30
0.0
 40
0.0619160432575996
 50
182.34549087459609
 51
245.742999766336
  0
ARC
  5
8A7
  8
0
 10
0.4521180975120985
 20
38.228175596479161
 30
0.0
 40
0.088929870881396
 50
233.79918134291771
 51
270.21840606157832
  0
LINE
  5
8A8
  8
0
 10
0.4524570889000046
 20
38.139246371699997
 30
0.0
 11
10.165398426099999
 21
38.139246370999992
 31
0.0
  0
ARC
  5
8A9
  8
0
 10
-32.560458203899941
 20
-1032.3070977647801
 30
0.0
 40
1070.970818447573
 50
88.236394377654577
 51
88.511785585661514
  0
ARC
  5
8AA
  8
0
 10
-4.2361644037803181
 20
66.463900131206501
 30
0.0
 40
28.16604379841392
 50
262.54766798586792
 51
268.9629680200178
  0
ARC
  5
8AB
  8
0
 10
-6.3543850422847621
 20
50.794578053094092
 30
0.0
 40
12.354529888965271
 50
246.93033391418351
 51
262.86301379786778
  0
ARC
  5
8AC
  8
0
 10
-11.05248132941146
 20
38.938477571403411
 30
0.0
 40
0.5078197283726852
 50
88.983591903658166
 51
96.736011934939512
  0
ARC
  5
8AD
  8
0
 10
-11.19026718597126
 20
39.410943985767432
 30
0.0
 40
0.0178922147615109
 50
107.034322336446
 51
179.046513427317
  0
ARC
  5
8AE
  8
0
 10
-11.033662451826579
 20
38.755321564612352
 30
0.0
 40
0.6919244333377989
 50
96.504625251370513
 51
103.5272192734609
  0
ARC
  5
8AF
  8
0
 10
10.1734343357203
 20
39.366459642956301
 30
0.0
 40
0.0898631942591145
 50
359.57321705627612
 51
62.566529660150898
  0
LINE
  5
8B0
  8
0
 10
10.263295037000001
 20
39.365790279100011
 30
0.0
 11
10.25468811637306
 21
38.210329140694689
 31
0.0
  0
ARC
  5
8B1
  8
0
 10
10.19282394532884
 20
38.212863061310713
 30
0.0
 40
0.0619160432575996
 50
294.25700023366409
 51
357.65450912540359
  0
ARC
  5
8B2
  8
0
 10
10.1657374174879
 20
38.228175596479161
 30
0.0
 40
0.088929870881396
 50
269.78159393842083
 51
306.20081865708221
  0
LINE
  5
8B3
  8
0
 10
21.6613287636
 20
39.4462173975
 30
0.0
 11
-11.0434732486
 21
39.4462173975
 31
0.0
  0
LINE
  5
8F5
  8
0
 10
21.84219646813505
 20
14.285660119699999
 30
0.0
 11
-11.22434095313505
 21
14.285660119699999
 31
0.0
  0
LINE
  5
939
  8
0
 10
21.826012438265192
 20
39.411241724959709
 30
0.0
 11
21.84219646813505
 21
14.285660119699999
 31
0.0
  0
ARC
  5
93A
  8
0
 10
43.178313718899929
 20
-1032.3070977647801
 30
0.0
 40
1070.970818447573
 50
91.488214414338444
 51
91.763605622345423
  0
ARC
  5
93B
  8
0
 10
14.85401991878032
 20
66.463900131206501
 30
0.0
 40
28.16604379841392
 50
271.03703197998209
 51
277.4523320141322
  0
ARC
  5
93C
  8
0
 10
16.97224055728476
 20
50.794578053094092
 30
0.0
 40
12.354529888965271
 50
277.13698620213222
 51
293.06966608581649
  0
ARC
  5
93D
  8
0
 10
21.670336844411459
 20
38.938477571403411
 30
0.0
 40
0.5078197283726852
 50
83.263988065060545
 51
91.016408096341848
  0
ARC
  5
93E
  8
0
 10
21.808122700971271
 20
39.410943985767432
 30
0.0
 40
0.0178922147615109
 50
0.9534865726829324
 51
72.965677663553961
  0
ARC
  5
93F
  8
0
 10
21.651517966826582
 20
38.755321564612352
 30
0.0
 40
0.6919244333377989
 50
76.472780726539028
 51
83.495374748629544
  0
ENDSEC
  0
EOF
