  0
SECTION
  2
HEADER
  9
$ACADVER
  1
AC1009
  9
$INSBASE
 10
5.3649192542010802
 20
26.22247774773458
 30
0.0
  9
$EXTMIN
 10
-22.29255996002151
 20
8.4075171176232661
 30
0.0
  9
$EXTMAX
 10
33.022398468785703
 20
44.037438377749687
 30
0.0
  9
$LIMMIN
 10
0.0
 20
0.0
  9
$LIMMAX
 10
11.692913385800001
 20
8.2677165353999982
  9
$ORTHOMODE
 70
     1
  9
$REGENMODE
 70
     1
  9
$FILLMODE
 70
     1
  9
$QTEXTMODE
 70
     0
  9
$MIRRTEXT
 70
     0
  9
$DRAGMODE
 70
     2
  9
$LTSCALE
 40
0.6431102362
  9
$OSMODE
 70
  3071
  9
$ATTMODE
 70
     1
  9
$TEXTSIZE
 40
0.2
  9
$TRACEWID
 40
0.05
  9
$TEXTSTYLE
  7
STANDARD
  9
$CLAYER
  8
0
  9
$CELTYPE
  6
BYLAYER
  9
$CECOLOR
 62
   256
  9
$DIMSCALE
 40
1.0
  9
$DIMASZ
 40
0.1875
  9
$DIMEXO
 40
0.0625
  9
$DIMDLI
 40
0.4443307087
  9
$DIMRND
 40
0.0
  9
$DIMDLE
 40
0.0
  9
$DIMEXE
 40
0.125
  9
$DIMTP
 40
0.0
  9
$DIMTM
 40
0.0
  9
$DIMTXT
 40
0.15625
  9
$DIMCEN
 40
0.1052362205
  9
$DIMTSZ
 40
0.0
  9
$DIMTOL
 70
     0
  9
$DIMLIM
 70
     0
  9
$DIMTIH
 70
     1
  9
$DIMTOH
 70
     1
  9
$DIMSE1
 70
     0
  9
$DIMSE2
 70
     0
  9
$DIMTAD
 70
     0
  9
$DIMZIN
 70
     0
  9
$DIMBLK
  1

  9
$DIMASO
 70
     1
  9
$DIMSHO
 70
     1
  9
$DIMPOST
  1
\X
  9
$DIMAPOST
  1

  9
$DIMALT
 70
     1
  9
$DIMALTD
 70
     2
  9
$DIMALTF
 40
25.399999999999999
  9
$DIMLFAC
 40
1.0
  9
$DIMTOFL
 70
     0
  9
$DIMTVP
 40
0.0
  9
$DIMTIX
 70
     0
  9
$DIMSOXD
 70
     0
  9
$DIMSAH
 70
     0
  9
$DIMBLK1
  1

  9
$DIMBLK2
  1

  9
$DIMSTYLE
  2
STANDARD
  9
$DIMCLRD
 70
     0
  9
$DIMCLRE
 70
     0
  9
$DIMCLRT
 70
     0
  9
$DIMTFAC
 40
1.0
  9
$DIMGAP
 40
0.09
  9
$LUNITS
 70
     4
  9
$LUPREC
 70
     4
  9
$SKETCHINC
 40
0.1
  9
$FILLETRAD
 40
0.0
  9
$AUNITS
 70
     0
  9
$AUPREC
 70
     2
  9
$MENU
  1
.
  9
$ELEVATION
 40
0.0
  9
$PELEVATION
 40
0.0
  9
$THICKNESS
 40
0.0
  9
$LIMCHECK
 70
     0
  9
$BLIPMODE
 70
     0
  9
$CHAMFERA
 40
0.0
  9
$CHAMFERB
 40
0.0
  9
$SKPOLY
 70
     0
  9
$TDCREATE
 40
2458502.7583224308
  9
$TDUPDATE
 40
2458505.4254034031
  9
$TDINDWG
 40
2.6643489004999998
  9
$TDUSRTIMER
 40
2.6643489004999998
  9
$USRTIMER
 70
     1
  9
$ANGBASE
 50
0.0
  9
$ANGDIR
 70
     0
  9
$PDMODE
 70
     0
  9
$PDSIZE
 40
0.3125
  9
$PLINEWID
 40
0.0
  9
$COORDS
 70
     1
  9
$SPLFRAME
 70
     0
  9
$SPLINETYPE
 70
     6
  9
$SPLINESEGS
 70
     8
  9
$ATTDIA
 70
     1
  9
$ATTREQ
 70
     1
  9
$HANDLING
 70
     1
  9
$HANDSEED
  5
D8F
  9
$SURFTAB1
 70
     6
  9
$SURFTAB2
 70
     6
  9
$SURFTYPE
 70
     6
  9
$SURFU
 70
     6
  9
$SURFV
 70
     6
  9
$UCSNAME
  2

  9
$UCSORG
 10
0.0
 20
0.0
 30
0.0
  9
$UCSXDIR
 10
1.0
 20
0.0
 30
0.0
  9
$UCSYDIR
 10
0.0
 20
1.0
 30
0.0
  9
$PUCSNAME
  2

  9
$PUCSORG
 10
0.0
 20
0.0
 30
0.0
  9
$PUCSXDIR
 10
1.0
 20
0.0
 30
0.0
  9
$PUCSYDIR
 10
0.0
 20
1.0
 30
0.0
  9
$USERI1
 70
     0
  9
$USERI2
 70
     0
  9
$USERI3
 70
     0
  9
$USERI4
 70
     0
  9
$USERI5
 70
     0
  9
$USERR1
 40
0.0
  9
$USERR2
 40
0.0
  9
$USERR3
 40
0.0
  9
$USERR4
 40
0.0
  9
$USERR5
 40
0.0
  9
$WORLDVIEW
 70
     1
  9
$SHADEDGE
 70
     3
  9
$SHADEDIF
 70
    70
  9
$TILEMODE
 70
     1
  9
$MAXACTVP
 70
    48
  9
$PLIMCHECK
 70
     0
  9
$PEXTMIN
 10
1.0000000000000000E+020
 20
1.0000000000000000E+020
 30
1.0000000000000000E+020
  9
$PEXTMAX
 10
-1.0000000000000000E+020
 20
-1.0000000000000000E+020
 30
-1.0000000000000000E+020
  9
$PLIMMIN
 10
0.0
 20
0.0
  9
$PLIMMAX
 10
12.0
 20
9.0
  9
$UNITMODE
 70
     0
  9
$VISRETAIN
 70
     1
  9
$PLINEGEN
 70
     0
  9
$PSLTSCALE
 70
     1
  0
ENDSEC
  0
SECTION
  2
TABLES
  0
TABLE
  2
VPORT
 70
     1
  0
VPORT
  2
*ACTIVE
 70
     0
 10
0.0
 20
0.0
 11
1.0
 21
1.0
 12
0.0
 22
0.0
 13
0.0
 23
0.0
 14
1.0
 24
1.0
 15
0.0
 25
0.0
 16
-0.0000000000000417
 26
0.0
 36
189.5936083747477
 17
5.364919662475585
 27
26.222477436065681
 37
0.0
 40
65.806634810410273
 41
2.1638418079096038
 42
50.0
 43
0.0
 44
0.0
 50
0.0
 51
0.0
 71
     0
 72
   100
 73
     1
 74
     1
 75
     0
 76
     0
 77
     0
 78
     0
  0
ENDTAB
  0
TABLE
  2
LTYPE
 70
     2
  0
LTYPE
  2
CONTINUOUS
 70
     0
  3
Solid line
 72
    65
 73
     0
 40
0.0
  0
LTYPE
  2
PHANTOM2
 70
     0
  3
___ _ _ ___ _ _ ___ _ _ ___ _ _
 72
    65
 73
     6
 40
1.25
 49
0.625
 49
-0.125
 49
0.125
 49
-0.125
 49
0.125
 49
-0.125
  0
ENDTAB
  0
TABLE
  2
LAYER
 70
     2
  0
LAYER
  2
0
 70
     0
 62
     7
  6
CONTINUOUS
  0
LAYER
  2
DEFPOINTS
 70
     0
 62
     7
  6
CONTINUOUS
  0
ENDTAB
  0
TABLE
  2
STYLE
 70
     1
  0
STYLE
  2
STANDARD
 70
     0
 40
0.0
 41
0.8
 50
0.0
 71
     0
 42
0.2
  3
txt
  4

  0
ENDTAB
  0
TABLE
  2
VIEW
 70
     0
  0
ENDTAB
  0
TABLE
  2
UCS
 70
     0
  0
ENDTAB
  0
TABLE
  2
APPID
 70
     7
  0
APPID
  2
ACAD
 70
     0
  0
APPID
  2
ACAD_MLEADERVER
 70
     0
  0
APPID
  2
ACAD_EXEMPT_FROM_CAD_STANDARDS
 70
     0
  0
APPID
  2
ACAD_NAV_VCDISPLAY
 70
     0
  0
APPID
  2
ACAD_DSTYLE_DIMJAG
 70
     0
  0
APPID
  2
ACAD_DSTYLE_DIMTALN
 70
     0
  0
APPID
  2
AEC_MEMBER_STYLE_AUTOTRIM_XDATA
 70
     0
  0
ENDTAB
  0
TABLE
  2
DIMSTYLE
 70
     2
  0
DIMSTYLE
  2
STANDARD
 70
     0
  3

  4

  5

  6

  7

 40
1.0
 41
0.1875
 42
0.0625
 43
0.38
 44
0.125
 45
0.0
 46
0.0
 47
1.5
 48
1.5
140
0.15625
141
0.09
142
0.0
143
25.399999999999999
144
1.0
145
0.0
146
1.0
147
0.09
 71
     0
 72
     0
 73
     1
 74
     1
 75
     0
 76
     0
 77
     0
 78
     4
170
     0
171
     2
172
     0
173
     0
174
     0
175
     0
176
     0
177
     0
178
     0
  0
ENDTAB
  0
ENDSEC
  0
SECTION
  2
BLOCKS
  0
BLOCK
  8
0
  2
$MODEL_SPACE
 70
     0
 10
0.0
 20
0.0
 30
0.0
  3
$MODEL_SPACE
  1

  0
ENDBLK
  5
21
  8
0
  0
BLOCK
 67
     1
  8
0
  2
$PAPER_SPACE
 70
     0
 10
0.0
 20
0.0
 30
0.0
  3
$PAPER_SPACE
  1

  0
ENDBLK
  5
1D
 67
     1
  8
0
  0
ENDSEC
  0
SECTION
  2
ENTITIES
  0
LINE
  5
846
  8
0
 10
32.923993370473561
 20
44.037438377684559
 30
0.0
 11
-22.194152660544031
 21
44.037438377684573
 31
0.0
  0
ARC
  5
847
  8
0
 10
-22.194144791229881
 20
43.939023209103937
 30
0.0
 40
0.0984151688952463
 50
90.004581392220146
 51
179.9971110171561
  0
LINE
  5
848
  8
0
 10
-22.292559959999998
 20
43.939028171419437
 30
0.0
 11
-22.292559959999998
 21
8.5059246890541882
 31
0.0
  0
ARC
  5
849
  8
0
 10
-22.1941544460757
 20
8.5059226316698275
 30
0.0
 40
0.0984055139458125
 50
179.99880210532729
 51
270.00201006102128
  0
LINE
  5
84A
  8
0
 10
-22.19415099379545
 20
8.4075171177845789
 30
0.0
 11
32.923989948712553
 21
8.4075171177845753
 31
0.0
  0
ARC
  5
84B
  8
0
 10
32.92399558313253
 20
8.5059200030172022
 30
0.0
 40
0.0984028853939384
 50
269.99671931891419
 51
0.002879903652315
  0
LINE
  5
84C
  8
0
 10
33.022398468402159
 20
8.5059249491202387
 30
0.0
 11
33.022398468402159
 21
43.939028171375369
 31
0.0
  0
ARC
  5
84D
  8
0
 10
32.923996950405147
 20
43.939036859369153
 30
0.0
 40
0.0984015183805413
 50
359.99494128358708
 51
90.002084498772732
  0
LINE
  5
84E
  8
0
 10
-19.0236114474061
 20
40.719533354119442
 30
0.0
 11
-19.04198139079498
 21
11.62664513065082
 31
0.0
  0
LINE
  5
84F
  8
0
 10
9.7889032899438941
 20
40.54811587766946
 30
0.0
 11
0.9409432333439067
 21
40.54811587766946
 31
0.0
  0
ARC
  5
850
  8
0
 10
0.9409432333439067
 20
40.351273911000867
 30
0.0
 40
0.1968419666685719
 50
90.0
 51
179.9999982137056
  0
LINE
  5
851
  8
0
 10
0.7441012666753207
 20
40.351273917137767
 30
0.0
 11
0.7441012522667361
 21
39.889115325592542
 31
0.0
  0
ARC
  5
852
  8
0
 10
0.940934775334929
 20
39.889115319455932
 30
0.0
 40
0.1968335230681853
 50
179.99999821370341
 51
270.0024620207468
  0
LINE
  5
853
  8
0
 10
0.9409432333439067
 20
39.692281796569461
 30
0.0
 11
9.7889032817752391
 21
39.692281796569461
 31
0.0
  0
ARC
  5
854
  8
0
 10
9.788904234159153
 20
39.889131250996101
 30
0.0
 40
0.1968494544289516
 50
269.99972279537258
 51
359.99536471153527
  0
LINE
  5
855
  8
0
 10
9.9857536879439035
 20
39.889115325669451
 30
0.0
 11
9.9857536879439035
 21
40.351282348569448
 31
0.0
  0
ARC
  5
856
  8
0
 10
9.7889924978298293
 20
40.35135469447777
 30
0.0
 40
0.1967612034142682
 50
359.9789332691924
 51
90.0259768462994
  0
ARC
  5
857
  8
0
 10
0.5004166834235857
 20
40.673596040725727
 30
0.0
 40
0.0898631942591145
 50
117.5696461914297
 51
180.42678294372391
  0
LINE
  5
858
  8
0
 10
0.4105559821438956
 20
40.672926676869437
 30
0.0
 11
0.4191629027708271
 21
39.517465538464137
 31
0.0
  0
ARC
  5
859
  8
0
 10
0.4810270738150475
 20
39.519999459080161
 30
0.0
 40
0.0619160432575996
 50
182.34549087459609
 51
245.742999766336
  0
ARC
  5
85A
  8
0
 10
0.5081136016559836
 20
39.535311994248602
 30
0.0
 40
0.088929870881396
 50
233.79918134291771
 51
270.21840606157832
  0
LINE
  5
85B
  8
0
 10
0.5084525930438897
 20
39.446382769469452
 30
0.0
 11
10.221393930243879
 21
39.446382768769439
 31
0.0
  0
ARC
  5
85C
  8
0
 10
3.399599409507422
 20
1476.815831548113
 30
0.0
 40
1437.3552966615121
 50
269.37251616036298
 51
269.8826459768473
  0
ARC
  5
85D
  8
0
 10
-12.47452680608497
 20
63.760761559702182
 30
0.0
 40
24.21439552228021
 50
262.30727917719531
 51
270.31474180329388
  0
ARC
  5
85E
  8
0
 10
-12.04535539915093
 20
58.27762746402118
 30
0.0
 40
18.873694545963001
 50
248.34207765519091
 51
258.78577195670528
  0
ARC
  5
85F
  8
0
 10
-19.005688090703281
 20
40.719210096273201
 30
0.0
 40
0.0179262715345927
 50
107.11100173161761
 51
178.96675032646371
  0
ARC
  5
860
  8
0
 10
-18.871037420738489
 20
40.171488783713379
 30
0.0
 40
0.5819271154142458
 50
90.837079076140526
 51
103.9131653108782
  0
ARC
  5
861
  8
0
 10
10.22942983986419
 20
40.673596040725727
 30
0.0
 40
0.0898631942591145
 50
359.57321705627612
 51
62.361494712615972
  0
LINE
  5
862
  8
0
 10
10.3192905411439
 20
40.672926676869437
 30
0.0
 11
10.31068362051694
 21
39.517465538464137
 31
0.0
  0
ARC
  5
863
  8
0
 10
10.24881944947272
 20
39.519999459080161
 30
0.0
 40
0.0619160432575996
 50
294.25700023366409
 51
357.65450912540359
  0
ARC
  5
864
  8
0
 10
10.221732921631791
 20
39.535311994248602
 30
0.0
 40
0.088929870881396
 50
269.78159393842083
 51
306.20081865708221
  0
LINE
  5
865
  8
0
 10
29.60938733619388
 20
40.753106503119433
 30
0.0
 11
-18.879538948906109
 21
40.753353795269462
 31
0.0
  0
LINE
  5
866
  8
0
 10
29.77025443011167
 20
11.65638339390974
 30
0.0
 11
-19.04198139079498
 21
11.62664513065083
 31
0.0
  0
LINE
  5
867
  8
0
 10
29.753457970693891
 20
40.719533354119442
 30
0.0
 11
29.77025443011167
 21
11.65638339390974
 31
0.0
  0
ARC
  5
868
  8
0
 10
7.3302471137803504
 20
1476.815831548113
 30
0.0
 40
1437.3552966615121
 50
270.11735402315281
 51
270.62748383963623
  0
ARC
  5
869
  8
0
 10
23.204373329372761
 20
63.760761559702182
 30
0.0
 40
24.21439552228021
 50
269.68525819670612
 51
277.69272082280457
  0
ARC
  5
86A
  8
0
 10
22.775201922438718
 20
58.27762746402118
 30
0.0
 40
18.873694545963001
 50
281.21422804329387
 51
291.65792234480921
  0
ARC
  5
86B
  8
0
 10
29.735534613991071
 20
40.719210096273201
 30
0.0
 40
0.0179262715345927
 50
1.0332496735362631
 51
72.888998268382338
  0
ARC
  5
86C
  8
0
 10
29.604290463444009
 20
40.189614114783723
 30
0.0
 40
0.5635154388516065
 50
75.979904505385434
 51
89.481765256070474
  0
ENDSEC
  0
EOF
