  0
SECTION
  2
HEADER
  9
$ACADVER
  1
AC1024
  9
$ACADMAINTVER
 70
     6
  9
$DWGCODEPAGE
  3
ANSI_1252
  9
$INSBASE
 10
0.0
 20
0.0
 30
0.0
  9
$EXTMIN
 10
1.000000000000000E+20
 20
1.000000000000000E+20
 30
1.000000000000000E+20
  9
$EXTMAX
 10
-1.000000000000000E+20
 20
-1.000000000000000E+20
 30
-1.000000000000000E+20
  9
$LIMMIN
 10
0.0
 20
0.0
  9
$LIMMAX
 10
12.0
 20
9.0
  9
$ORTHOMODE
 70
     0
  9
$REGENMODE
 70
     1
  9
$FILLMODE
 70
     1
  9
$QTEXTMODE
 70
     0
  9
$MIRRTEXT
 70
     1
  9
$LTSCALE
 40
1.0
  9
$ATTMODE
 70
     1
  9
$TEXTSIZE
 40
0.2
  9
$TRACEWID
 40
0.05
  9
$TEXTSTYLE
  7
Standard
  9
$CLAYER
  8
0
  9
$CELTYPE
  6
ByLayer
  9
$CECOLOR
 62
   256
  9
$CELTSCALE
 40
1.0
  9
$DISPSILH
 70
     0
  9
$DIMSCALE
 40
1.0
  9
$DIMASZ
 40
0.18
  9
$DIMEXO
 40
0.0625
  9
$DIMDLI
 40
0.38
  9
$DIMRND
 40
0.0
  9
$DIMDLE
 40
0.0
  9
$DIMEXE
 40
0.18
  9
$DIMTP
 40
0.0
  9
$DIMTM
 40
0.0
  9
$DIMTXT
 40
0.18
  9
$DIMCEN
 40
0.09
  9
$DIMTSZ
 40
0.0
  9
$DIMTOL
 70
     0
  9
$DIMLIM
 70
     0
  9
$DIMTIH
 70
     1
  9
$DIMTOH
 70
     1
  9
$DIMSE1
 70
     0
  9
$DIMSE2
 70
     0
  9
$DIMTAD
 70
     0
  9
$DIMZIN
 70
     0
  9
$DIMBLK
  1

  9
$DIMASO
 70
     1
  9
$DIMSHO
 70
     1
  9
$DIMPOST
  1

  9
$DIMAPOST
  1

  9
$DIMALT
 70
     0
  9
$DIMALTD
 70
     2
  9
$DIMALTF
 40
25.4
  9
$DIMLFAC
 40
1.0
  9
$DIMTOFL
 70
     0
  9
$DIMTVP
 40
0.0
  9
$DIMTIX
 70
     0
  9
$DIMSOXD
 70
     0
  9
$DIMSAH
 70
     0
  9
$DIMBLK1
  1

  9
$DIMBLK2
  1

  9
$DIMSTYLE
  2
Standard
  9
$DIMCLRD
 70
     0
  9
$DIMCLRE
 70
     0
  9
$DIMCLRT
 70
     0
  9
$DIMTFAC
 40
1.0
  9
$DIMGAP
 40
0.09
  9
$DIMJUST
 70
     0
  9
$DIMSD1
 70
     0
  9
$DIMSD2
 70
     0
  9
$DIMTOLJ
 70
     1
  9
$DIMTZIN
 70
     0
  9
$DIMALTZ
 70
     0
  9
$DIMALTTZ
 70
     0
  9
$DIMUPT
 70
     0
  9
$DIMDEC
 70
     4
  9
$DIMTDEC
 70
     4
  9
$DIMALTU
 70
     2
  9
$DIMALTTD
 70
     2
  9
$DIMTXSTY
  7
Standard
  9
$DIMAUNIT
 70
     0
  9
$DIMADEC
 70
     0
  9
$DIMALTRND
 40
0.0
  9
$DIMAZIN
 70
     0
  9
$DIMDSEP
 70
    46
  9
$DIMATFIT
 70
     3
  9
$DIMFRAC
 70
     0
  9
$DIMLDRBLK
  1

  9
$DIMLUNIT
 70
     2
  9
$DIMLWD
 70
    -2
  9
$DIMLWE
 70
    -2
  9
$DIMTMOVE
 70
     0
  9
$DIMFXL
 40
1.0
  9
$DIMFXLON
 70
     0
  9
$DIMJOGANG
 40
0.7853981633974483
  9
$DIMTFILL
 70
     0
  9
$DIMTFILLCLR
 70
     0
  9
$DIMARCSYM
 70
     0
  9
$DIMLTYPE
  6

  9
$DIMLTEX1
  6

  9
$DIMLTEX2
  6

  9
$DIMTXTDIRECTION
 70
     0
  9
$LUNITS
 70
     2
  9
$LUPREC
 70
     4
  9
$SKETCHINC
 40
0.1
  9
$FILLETRAD
 40
0.5
  9
$AUNITS
 70
     0
  9
$AUPREC
 70
     0
  9
$MENU
  1
.
  9
$ELEVATION
 40
0.0
  9
$PELEVATION
 40
0.0
  9
$THICKNESS
 40
0.0
  9
$LIMCHECK
 70
     0
  9
$CHAMFERA
 40
0.5
  9
$CHAMFERB
 40
0.5
  9
$CHAMFERC
 40
1.0
  9
$CHAMFERD
 40
0.0
  9
$SKPOLY
 70
     0
  9
$TDCREATE
 40
2458627.378595405
  9
$TDUCREATE
 40
2458627.295262072
  9
$TDUPDATE
 40
2458627.378595463
  9
$TDUUPDATE
 40
2458627.29526213
  9
$TDINDWG
 40
0.0000000116
  9
$TDUSRTIMER
 40
0.0000000116
  9
$USRTIMER
 70
     1
  9
$ANGBASE
 50
0.0
  9
$ANGDIR
 70
     0
  9
$PDMODE
 70
     0
  9
$PDSIZE
 40
0.0
  9
$PLINEWID
 40
0.0
  9
$SPLFRAME
 70
     0
  9
$SPLINETYPE
 70
     6
  9
$SPLINESEGS
 70
     8
  9
$HANDSEED
  5
152
  9
$SURFTAB1
 70
     6
  9
$SURFTAB2
 70
     6
  9
$SURFTYPE
 70
     6
  9
$SURFU
 70
     6
  9
$SURFV
 70
     6
  9
$UCSBASE
  2

  9
$UCSNAME
  2

  9
$UCSORG
 10
0.0
 20
0.0
 30
0.0
  9
$UCSXDIR
 10
1.0
 20
0.0
 30
0.0
  9
$UCSYDIR
 10
0.0
 20
1.0
 30
0.0
  9
$UCSORTHOREF
  2

  9
$UCSORTHOVIEW
 70
     0
  9
$UCSORGTOP
 10
0.0
 20
0.0
 30
0.0
  9
$UCSORGBOTTOM
 10
0.0
 20
0.0
 30
0.0
  9
$UCSORGLEFT
 10
0.0
 20
0.0
 30
0.0
  9
$UCSORGRIGHT
 10
0.0
 20
0.0
 30
0.0
  9
$UCSORGFRONT
 10
0.0
 20
0.0
 30
0.0
  9
$UCSORGBACK
 10
0.0
 20
0.0
 30
0.0
  9
$PUCSBASE
  2

  9
$PUCSNAME
  2

  9
$PUCSORG
 10
0.0
 20
0.0
 30
0.0
  9
$PUCSXDIR
 10
1.0
 20
0.0
 30
0.0
  9
$PUCSYDIR
 10
0.0
 20
1.0
 30
0.0
  9
$PUCSORTHOREF
  2

  9
$PUCSORTHOVIEW
 70
     0
  9
$PUCSORGTOP
 10
0.0
 20
0.0
 30
0.0
  9
$PUCSORGBOTTOM
 10
0.0
 20
0.0
 30
0.0
  9
$PUCSORGLEFT
 10
0.0
 20
0.0
 30
0.0
  9
$PUCSORGRIGHT
 10
0.0
 20
0.0
 30
0.0
  9
$PUCSORGFRONT
 10
0.0
 20
0.0
 30
0.0
  9
$PUCSORGBACK
 10
0.0
 20
0.0
 30
0.0
  9
$USERI1
 70
     0
  9
$USERI2
 70
     0
  9
$USERI3
 70
     0
  9
$USERI4
 70
     0
  9
$USERI5
 70
     0
  9
$USERR1
 40
0.0
  9
$USERR2
 40
0.0
  9
$USERR3
 40
0.0
  9
$USERR4
 40
0.0
  9
$USERR5
 40
0.0
  9
$WORLDVIEW
 70
     1
  9
$SHADEDGE
 70
     3
  9
$SHADEDIF
 70
    70
  9
$TILEMODE
 70
     1
  9
$MAXACTVP
 70
    64
  9
$PINSBASE
 10
0.0
 20
0.0
 30
0.0
  9
$PLIMCHECK
 70
     0
  9
$PEXTMIN
 10
1.000000000000000E+20
 20
1.000000000000000E+20
 30
1.000000000000000E+20
  9
$PEXTMAX
 10
-1.000000000000000E+20
 20
-1.000000000000000E+20
 30
-1.000000000000000E+20
  9
$PLIMMIN
 10
0.0
 20
0.0
  9
$PLIMMAX
 10
12.0
 20
9.0
  9
$UNITMODE
 70
     0
  9
$VISRETAIN
 70
     1
  9
$PLINEGEN
 70
     0
  9
$PSLTSCALE
 70
     1
  9
$TREEDEPTH
 70
  3020
  9
$CMLSTYLE
  2
Standard
  9
$CMLJUST
 70
     0
  9
$CMLSCALE
 40
1.0
  9
$PROXYGRAPHICS
 70
     1
  9
$MEASUREMENT
 70
     0
  9
$CELWEIGHT
370
    -1
  9
$ENDCAPS
280
     0
  9
$JOINSTYLE
280
     0
  9
$LWDISPLAY
290
     1
  9
$INSUNITS
 70
     1
  9
$HYPERLINKBASE
  1

  9
$STYLESHEET
  1

  9
$XEDIT
290
     1
  9
$CEPSNTYPE
380
     0
  9
$PSTYLEMODE
290
     1
  9
$FINGERPRINTGUID
  2
{DE484333-F569-4C69-8B0C-187F49A063E3}
  9
$VERSIONGUID
  2
{FAEB1C32-E019-11D5-929B-00C0DF256EC4}
  9
$EXTNAMES
290
     1
  9
$PSVPSCALE
 40
0.0
  9
$OLESTARTUP
290
     0
  9
$SORTENTS
280
   127
  9
$INDEXCTL
280
     0
  9
$HIDETEXT
280
     1
  9
$XCLIPFRAME
280
     2
  9
$HALOGAP
280
     0
  9
$OBSCOLOR
 70
   257
  9
$OBSLTYPE
280
     0
  9
$INTERSECTIONDISPLAY
280
     0
  9
$INTERSECTIONCOLOR
 70
   257
  9
$DIMASSOC
280
     2
  9
$PROJECTNAME
  1

  9
$CAMERADISPLAY
290
     0
  9
$LENSLENGTH
 40
50.0
  9
$CAMERAHEIGHT
 40
0.0
  9
$STEPSPERSEC
 40
2.0
  9
$STEPSIZE
 40
6.0
  9
$3DDWFPREC
 40
2.0
  9
$PSOLWIDTH
 40
0.25
  9
$PSOLHEIGHT
 40
4.0
  9
$LOFTANG1
 40
1.570796326794897
  9
$LOFTANG2
 40
1.570796326794897
  9
$LOFTMAG1
 40
0.0
  9
$LOFTMAG2
 40
0.0
  9
$LOFTPARAM
 70
     7
  9
$LOFTNORMALS
280
     1
  9
$LATITUDE
 40
37.795
  9
$LONGITUDE
 40
-122.394
  9
$NORTHDIRECTION
 40
0.0
  9
$TIMEZONE
 70
 -8000
  9
$LIGHTGLYPHDISPLAY
280
     1
  9
$TILEMODELIGHTSYNCH
280
     1
  9
$CMATERIAL
347
3C
  9
$SOLIDHIST
280
     1
  9
$SHOWHIST
280
     1
  9
$DWFFRAME
280
     2
  9
$DGNFRAME
280
     2
  9
$REALWORLDSCALE
290
     1
  9
$INTERFERECOLOR
 62
   256
  9
$CSHADOW
280
     0
  9
$SHADOWPLANELOCATION
 40
0.0
  0
ENDSEC
  0
SECTION
  2
CLASSES
  0
CLASS
  1
ACDBDICTIONARYWDFLT
  2
AcDbDictionaryWithDefault
  3
ObjectDBX Classes
 90
        0
 91
        4
280
     0
281
     0
  0
CLASS
  1
VISUALSTYLE
  2
AcDbVisualStyle
  3
ObjectDBX Classes
 90
     4095
 91
        4
280
     0
281
     0
  0
CLASS
  1
MATERIAL
  2
AcDbMaterial
  3
ObjectDBX Classes
 90
     1153
 91
        4
280
     0
281
     0
  0
CLASS
  1
SUN
  2
AcDbSun
  3
SCENEOE
 90
     1024
 91
        4
280
     0
281
     0
  0
ENDSEC
  0
SECTION
  2
TABLES
  0
TABLE
  2
VPORT
  5
8
330
0
100
AcDbSymbolTable
 70
     1
  0
VPORT
  5
29
330
8
100
AcDbSymbolTableRecord
100
AcDbViewportTableRecord
  2
*Active
 70
     0
 10
0.0
 20
0.0
 11
1.0
 21
1.0
 12
0.0
 22
0.0
 13
0.0
 23
0.0
 14
0.5
 24
0.5
 15
0.5
 25
0.5
 16
0.0
 26
0.0
 36
1.0
 17
209.9998002269054
 27
148.5000442133633
 37
0.0
 40
297.0000884267266
 41
1.414139647831889
 42
50.0
 43
0.0
 44
0.0
 50
0.0
 51
0.0
 71
     0
 72
   100
 73
     1
 74
     3
 75
     0
 76
     0
 77
     0
 78
     0
281
     0
 65
     1
110
0.0
120
0.0
130
0.0
111
1.0
121
0.0
131
0.0
112
0.0
122
1.0
132
0.0
 79
     0
146
0.0
 60
     3
 61
     5
292
     1
282
     1
141
0.0
142
0.0
 63
   250
361
3F
  0
ENDTAB
  0
TABLE
  2
LTYPE
  5
5
330
0
100
AcDbSymbolTable
 70
     1
  0
LTYPE
  5
14
330
5
100
AcDbSymbolTableRecord
100
AcDbLinetypeTableRecord
  2
ByBlock
 70
     0
  3

 72
    65
 73
     0
 40
0.0
  0
LTYPE
  5
15
330
5
100
AcDbSymbolTableRecord
100
AcDbLinetypeTableRecord
  2
ByLayer
 70
     0
  3

 72
    65
 73
     0
 40
0.0
  0
LTYPE
  5
16
330
5
100
AcDbSymbolTableRecord
100
AcDbLinetypeTableRecord
  2
Continuous
 70
     0
  3
Solid line
 72
    65
 73
     0
 40
0.0
  0
ENDTAB
  0
TABLE
  2
LAYER
  5
2
330
0
100
AcDbSymbolTable
 70
     2
  0
LAYER
  5
10
330
2
100
AcDbSymbolTableRecord
100
AcDbLayerTableRecord
  2
0
 70
     0
 62
     7
  6
Continuous
370
    -3
390
F
347
3E
  0
LAYER
  5
40
330
2
100
AcDbSymbolTableRecord
100
AcDbLayerTableRecord
  2
Calque 1
 70
     0
 62
     7
  6
Continuous
370
    -3
390
F
347
3E
  0
ENDTAB
  0
TABLE
  2
STYLE
  5
3
330
0
100
AcDbSymbolTable
 70
     1
  0
STYLE
  5
11
330
3
100
AcDbSymbolTableRecord
100
AcDbTextStyleTableRecord
  2
Standard
 70
     0
 40
0.0
 41
1.0
 50
0.0
 71
     0
 42
0.2
  3
txt
  4

  0
ENDTAB
  0
TABLE
  2
VIEW
  5
6
330
0
100
AcDbSymbolTable
 70
     0
  0
ENDTAB
  0
TABLE
  2
UCS
  5
7
330
0
100
AcDbSymbolTable
 70
     0
  0
ENDTAB
  0
TABLE
  2
APPID
  5
9
330
0
100
AcDbSymbolTable
 70
     1
  0
APPID
  5
12
330
9
100
AcDbSymbolTableRecord
100
AcDbRegAppTableRecord
  2
ACAD
 70
     0
  0
ENDTAB
  0
TABLE
  2
DIMSTYLE
  5
A
330
0
100
AcDbSymbolTable
 70
     1
100
AcDbDimStyleTable
  0
DIMSTYLE
105
27
330
A
100
AcDbSymbolTableRecord
100
AcDbDimStyleTableRecord
  2
Standard
 70
     0
178
     0
340
11
  0
ENDTAB
  0
TABLE
  2
BLOCK_RECORD
  5
1
330
0
100
AcDbSymbolTable
 70
     1
  0
BLOCK_RECORD
  5
1F
330
1
100
AcDbSymbolTableRecord
100
AcDbBlockTableRecord
  2
*Model_Space
340
22
 70
     0
280
     1
281
     0
  0
BLOCK_RECORD
  5
1B
330
1
100
AcDbSymbolTableRecord
100
AcDbBlockTableRecord
  2
*Paper_Space
340
1E
 70
     0
280
     1
281
     0
  0
BLOCK_RECORD
  5
23
330
1
100
AcDbSymbolTableRecord
100
AcDbBlockTableRecord
  2
*Paper_Space0
340
26
 70
     0
280
     1
281
     0
  0
ENDTAB
  0
ENDSEC
  0
SECTION
  2
BLOCKS
  0
BLOCK
  5
20
330
1F
100
AcDbEntity
  8
0
100
AcDbBlockBegin
  2
*Model_Space
 70
     0
 10
0.0
 20
0.0
 30
0.0
  3
*Model_Space
  1

  0
ENDBLK
  5
21
330
1F
100
AcDbEntity
  8
0
100
AcDbBlockEnd
  0
BLOCK
  5
1C
330
1B
100
AcDbEntity
 67
     1
  8
0
100
AcDbBlockBegin
  2
*Paper_Space
 70
     0
 10
0.0
 20
0.0
 30
0.0
  3
*Paper_Space
  1

  0
ENDBLK
  5
1D
330
1B
100
AcDbEntity
 67
     1
  8
0
100
AcDbBlockEnd
  0
BLOCK
  5
24
330
23
100
AcDbEntity
  8
0
100
AcDbBlockBegin
  2
*Paper_Space0
 70
     0
 10
0.0
 20
0.0
 30
0.0
  3
*Paper_Space0
  1

  0
ENDBLK
  5
25
330
23
100
AcDbEntity
  8
0
100
AcDbBlockEnd
  0
ENDSEC
  0
SECTION
  2
ENTITIES
  0
POLYLINE
  5
41
330
1F
100
AcDbEntity
  8
Calque 1
 62
     7
420
 16777215
370
    50
100
AcDb2dPolyline
 66
     1
 10
0.0
 20
0.0
 30
0.0
  0
VERTEX
  5
42
330
41
100
AcDbEntity
  8
Calque 1
 62
     7
420
 16777215
370
    50
100
AcDbVertex
100
AcDb2dVertex
 10
0.0
 20
0.0
 30
0.0
  0
VERTEX
  5
43
330
41
100
AcDbEntity
  8
Calque 1
 62
     7
420
 16777215
370
    50
100
AcDbVertex
100
AcDb2dVertex
 10
0.0
 20
297.0000022993394
 30
0.0
  0
SEQEND
  5
44
330
41
100
AcDbEntity
  8
Calque 1
 62
     7
420
 16777215
370
    50
  0
POLYLINE
  5
45
330
1F
100
AcDbEntity
  8
Calque 1
 62
     7
420
 16777215
370
    50
100
AcDb2dPolyline
 66
     1
 10
0.0
 20
0.0
 30
0.0
  0
VERTEX
  5
46
330
45
100
AcDbEntity
  8
Calque 1
 62
     7
420
 16777215
370
    50
100
AcDbVertex
100
AcDb2dVertex
 10
0.0
 20
0.0
 30
0.0
  0
VERTEX
  5
47
330
45
100
AcDbEntity
  8
Calque 1
 62
     7
420
 16777215
370
    50
100
AcDbVertex
100
AcDb2dVertex
 10
419.999988027053
 20
0.0
 30
0.0
  0
SEQEND
  5
48
330
45
100
AcDbEntity
  8
Calque 1
 62
     7
420
 16777215
370
    50
  0
POLYLINE
  5
49
330
1F
100
AcDbEntity
  8
Calque 1
 62
     7
420
 16777215
370
    50
100
AcDb2dPolyline
 66
     1
 10
0.0
 20
0.0
 30
0.0
  0
VERTEX
  5
4A
330
49
100
AcDbEntity
  8
Calque 1
 62
     7
420
 16777215
370
    50
100
AcDbVertex
100
AcDb2dVertex
 10
0.0
 20
297.0000022993394
 30
0.0
  0
VERTEX
  5
4B
330
49
100
AcDbEntity
  8
Calque 1
 62
     7
420
 16777215
370
    50
100
AcDbVertex
100
AcDb2dVertex
 10
419.999988027053
 20
297.0000022993394
 30
0.0
  0
SEQEND
  5
4C
330
49
100
AcDbEntity
  8
Calque 1
 62
     7
420
 16777215
370
    50
  0
POLYLINE
  5
4D
330
1F
100
AcDbEntity
  8
Calque 1
 62
     7
420
 16777215
370
    50
100
AcDb2dPolyline
 66
     1
 10
0.0
 20
0.0
 30
0.0
  0
VERTEX
  5
4E
330
4D
100
AcDbEntity
  8
Calque 1
 62
     7
420
 16777215
370
    50
100
AcDbVertex
100
AcDb2dVertex
 10
419.999988027053
 20
0.0
 30
0.0
  0
VERTEX
  5
4F
330
4D
100
AcDbEntity
  8
Calque 1
 62
     7
420
 16777215
370
    50
100
AcDbVertex
100
AcDb2dVertex
 10
419.999988027053
 20
297.0000022993394
 30
0.0
  0
SEQEND
  5
50
330
4D
100
AcDbEntity
  8
Calque 1
 62
     7
420
 16777215
370
    50
  0
POLYLINE
  5
51
330
1F
100
AcDbEntity
  8
Calque 1
 62
     7
420
 16777215
370
    50
100
AcDb2dPolyline
 66
     1
 10
0.0
 20
0.0
 30
0.0
  0
VERTEX
  5
52
330
51
100
AcDbEntity
  8
Calque 1
 62
     7
420
 16777215
370
    50
100
AcDbVertex
100
AcDb2dVertex
 10
-341.9379139363255
 20
475.3766681754267
 30
0.0
  0
VERTEX
  5
53
330
51
100
AcDbEntity
  8
Calque 1
 62
     7
420
 16777215
370
    50
100
AcDbVertex
100
AcDb2dVertex
 10
-341.7654007799015
 20
470.3796433014589
 30
0.0
  0
SEQEND
  5
54
330
51
100
AcDbEntity
  8
Calque 1
 62
     7
420
 16777215
370
    50
  0
POLYLINE
  5
55
330
1F
100
AcDbEntity
  8
Calque 1
 62
     7
420
 16777215
370
    50
100
AcDb2dPolyline
 66
     1
 10
0.0
 20
0.0
 30
0.0
  0
VERTEX
  5
56
330
55
100
AcDbEntity
  8
Calque 1
 62
     7
420
 16777215
370
    50
100
AcDbVertex
100
AcDb2dVertex
 10
-346.762361058329
 20
470.5541373877869
 30
0.0
  0
VERTEX
  5
57
330
55
100
AcDbEntity
  8
Calque 1
 62
     7
420
 16777215
370
    50
100
AcDbVertex
100
AcDb2dVertex
 10
-347.0884608778546
 20
461.2157323743879
 30
0.0
  0
SEQEND
  5
58
330
55
100
AcDbEntity
  8
Calque 1
 62
     7
420
 16777215
370
    50
  0
POLYLINE
  5
59
330
1F
100
AcDbEntity
  8
Calque 1
 62
     7
420
 16777215
370
    50
100
AcDb2dPolyline
 66
     1
 10
0.0
 20
0.0
 30
0.0
  0
VERTEX
  5
5A
330
59
100
AcDbEntity
  8
Calque 1
 62
     7
420
 16777215
370
    50
100
AcDbVertex
100
AcDb2dVertex
 10
-341.7654007799015
 20
470.3796433014589
 30
0.0
  0
VERTEX
  5
5B
330
59
100
AcDbEntity
  8
Calque 1
 62
     7
420
 16777215
370
    50
100
AcDbVertex
100
AcDb2dVertex
 10
-342.0854286186345
 20
461.2157323743879
 30
0.0
  0
SEQEND
  5
5C
330
59
100
AcDbEntity
  8
Calque 1
 62
     7
420
 16777215
370
    50
  0
POLYLINE
  5
5D
330
1F
100
AcDbEntity
  8
Calque 1
 62
     7
420
 16777215
370
    50
100
AcDb2dPolyline
 66
     1
 10
0.0
 20
0.0
 30
0.0
  0
VERTEX
  5
5E
330
5D
100
AcDbEntity
  8
Calque 1
 62
     7
420
 16777215
370
    50
100
AcDbVertex
100
AcDb2dVertex
 10
-172.0884730438648
 20
461.2157323743879
 30
0.0
  0
VERTEX
  5
5F
330
5D
100
AcDbEntity
  8
Calque 1
 62
     7
420
 16777215
370
    50
100
AcDbVertex
100
AcDb2dVertex
 10
-347.0884608778546
 20
461.2157323743879
 30
0.0
  0
SEQEND
  5
60
330
5D
100
AcDbEntity
  8
Calque 1
 62
     7
420
 16777215
370
    50
  0
POLYLINE
  5
61
330
1F
100
AcDbEntity
  8
Calque 1
 62
     7
420
 16777215
370
    50
100
AcDb2dPolyline
 66
     1
 10
0.0
 20
0.0
 30
0.0
  0
VERTEX
  5
62
330
61
100
AcDbEntity
  8
Calque 1
 62
     7
420
 16777215
370
    50
100
AcDbVertex
100
AcDb2dVertex
 10
-346.762361058329
 20
470.5541373877869
 30
0.0
  0
VERTEX
  5
63
330
61
100
AcDbEntity
  8
Calque 1
 62
     7
420
 16777215
370
    50
100
AcDbVertex
100
AcDb2dVertex
 10
-341.7654007799015
 20
470.3796433014589
 30
0.0
  0
SEQEND
  5
64
330
61
100
AcDbEntity
  8
Calque 1
 62
     7
420
 16777215
370
    50
  0
POLYLINE
  5
65
330
1F
100
AcDbEntity
  8
Calque 1
 62
     7
420
 16777215
370
    50
100
AcDb2dPolyline
 66
     1
 10
0.0
 20
0.0
 30
0.0
  0
VERTEX
  5
66
330
65
100
AcDbEntity
  8
Calque 1
 62
     7
420
 16777215
370
    50
100
AcDbVertex
100
AcDb2dVertex
 10
-341.7654007799015
 20
470.3796433014589
 30
0.0
  0
VERTEX
  5
67
330
65
100
AcDbEntity
  8
Calque 1
 62
     7
420
 16777215
370
    50
100
AcDbVertex
100
AcDb2dVertex
 10
-172.6124613012479
 20
476.2208026967
 30
0.0
  0
SEQEND
  5
68
330
65
100
AcDbEntity
  8
Calque 1
 62
     7
420
 16777215
370
    50
  0
POLYLINE
  5
69
330
1F
100
AcDbEntity
  8
Calque 1
 62
     7
420
 16777215
370
    50
100
AcDb2dPolyline
 66
     1
 10
0.0
 20
0.0
 30
0.0
  0
VERTEX
  5
6A
330
69
100
AcDbEntity
  8
Calque 1
 62
     7
420
 16777215
370
    50
100
AcDbVertex
100
AcDb2dVertex
 10
-341.9379139363255
 20
475.3766681754267
 30
0.0
  0
VERTEX
  5
6B
330
69
100
AcDbEntity
  8
Calque 1
 62
     7
420
 16777215
370
    50
100
AcDbVertex
100
AcDb2dVertex
 10
-177.781902438329
 20
481.0433334843399
 30
0.0
  0
SEQEND
  5
6C
330
69
100
AcDbEntity
  8
Calque 1
 62
     7
420
 16777215
370
    50
  0
POLYLINE
  5
6D
330
1F
100
AcDbEntity
  8
Calque 1
 62
     7
420
 16777215
370
    50
100
AcDb2dPolyline
 66
     1
 10
0.0
 20
0.0
 30
0.0
  0
VERTEX
  5
6E
330
6D
100
AcDbEntity
  8
Calque 1
 62
     7
420
 16777215
370
    50
100
AcDbVertex
100
AcDb2dVertex
 10
-172.0884730438648
 20
461.2157323743879
 30
0.0
  0
VERTEX
  5
6F
330
6D
100
AcDbEntity
  8
Calque 1
 62
     7
420
 16777215
370
    50
100
AcDbVertex
100
AcDb2dVertex
 10
-172.6124613012479
 20
476.2208026967
 30
0.0
  0
SEQEND
  5
70
330
6D
100
AcDbEntity
  8
Calque 1
 62
     7
420
 16777215
370
    50
  0
POLYLINE
  5
71
330
1F
100
AcDbEntity
  8
Calque 1
 62
     7
420
 16777215
370
    50
100
AcDb2dPolyline
 66
     1
 10
0.0
 20
0.0
 30
0.0
  0
VERTEX
  5
72
330
71
100
AcDbEntity
  8
Calque 1
 62
     7
420
 16777215
370
    50
100
AcDbVertex
100
AcDb2dVertex
 10
-177.781902438329
 20
481.0433334843399
 30
0.0
  0
VERTEX
  5
73
330
71
100
AcDbEntity
  8
Calque 1
 62
     7
420
 16777215
370
    50
100
AcDbVertex
100
AcDb2dVertex
 10
-177.0915160690084
 20
461.2157323743879
 30
0.0
  0
SEQEND
  5
74
330
71
100
AcDbEntity
  8
Calque 1
 62
     7
420
 16777215
370
    50
  0
POLYLINE
  5
75
330
1F
100
AcDbEntity
  8
Calque 1
 62
     7
420
 16777215
370
    50
100
AcDb2dPolyline
 66
     1
 10
0.0
 20
0.0
 30
0.0
  0
VERTEX
  5
76
330
75
100
AcDbEntity
  8
Calque 1
 62
     7
420
 16777215
370
    50
100
AcDbVertex
100
AcDb2dVertex
 10
12.1707418199418
 20
461.2157323743879
 30
0.0
  0
VERTEX
  5
77
330
75
100
AcDbEntity
  8
Calque 1
 62
     7
420
 16777215
370
    50
100
AcDbVertex
100
AcDb2dVertex
 10
12.1707418199418
 20
476.0463086103721
 30
0.0
  0
SEQEND
  5
78
330
75
100
AcDbEntity
  8
Calque 1
 62
     7
420
 16777215
370
    50
  0
POLYLINE
  5
79
330
1F
100
AcDbEntity
  8
Calque 1
 62
     7
420
 16777215
370
    50
100
AcDb2dPolyline
 66
     1
 10
0.0
 20
0.0
 30
0.0
  0
VERTEX
  5
7A
330
79
100
AcDbEntity
  8
Calque 1
 62
     7
420
 16777215
370
    50
100
AcDbVertex
100
AcDb2dVertex
 10
17.17074212598686
 20
461.2157323743879
 30
0.0
  0
VERTEX
  5
7B
330
79
100
AcDbEntity
  8
Calque 1
 62
     7
420
 16777215
370
    50
100
AcDbVertex
100
AcDb2dVertex
 10
17.17074212598686
 20
481.0463048791959
 30
0.0
  0
SEQEND
  5
7C
330
79
100
AcDbEntity
  8
Calque 1
 62
     7
420
 16777215
370
    50
  0
POLYLINE
  5
7D
330
1F
100
AcDbEntity
  8
Calque 1
 62
     7
420
 16777215
370
    50
100
AcDb2dPolyline
 66
     1
 10
0.0
 20
0.0
 30
0.0
  0
VERTEX
  5
7E
330
7D
100
AcDbEntity
  8
Calque 1
 62
     7
420
 16777215
370
    50
100
AcDbVertex
100
AcDb2dVertex
 10
12.1707418199418
 20
461.2157323743879
 30
0.0
  0
VERTEX
  5
7F
330
7D
100
AcDbEntity
  8
Calque 1
 62
     7
420
 16777215
370
    50
100
AcDbVertex
100
AcDb2dVertex
 10
412.1707501546613
 20
461.2157323743879
 30
0.0
  0
SEQEND
  5
80
330
7D
100
AcDbEntity
  8
Calque 1
 62
     7
420
 16777215
370
    50
  0
POLYLINE
  5
81
330
1F
100
AcDbEntity
  8
Calque 1
 62
     7
420
 16777215
370
    50
100
AcDb2dPolyline
 66
     1
 10
0.0
 20
0.0
 30
0.0
  0
VERTEX
  5
82
330
81
100
AcDbEntity
  8
Calque 1
 62
     7
420
 16777215
370
    50
100
AcDbVertex
100
AcDb2dVertex
 10
17.17074212598686
 20
470.5541373877869
 30
0.0
  0
VERTEX
  5
83
330
81
100
AcDbEntity
  8
Calque 1
 62
     7
420
 16777215
370
    50
100
AcDbVertex
100
AcDb2dVertex
 10
407.1707538858375
 20
470.5541373877869
 30
0.0
  0
SEQEND
  5
84
330
81
100
AcDbEntity
  8
Calque 1
 62
     7
420
 16777215
370
    50
  0
POLYLINE
  5
85
330
1F
100
AcDbEntity
  8
Calque 1
 62
     7
420
 16777215
370
    50
100
AcDb2dPolyline
 66
     1
 10
0.0
 20
0.0
 30
0.0
  0
VERTEX
  5
86
330
85
100
AcDbEntity
  8
Calque 1
 62
     7
420
 16777215
370
    50
100
AcDbVertex
100
AcDb2dVertex
 10
17.17074212598686
 20
475.3766681754267
 30
0.0
  0
VERTEX
  5
87
330
85
100
AcDbEntity
  8
Calque 1
 62
     7
420
 16777215
370
    50
100
AcDbVertex
100
AcDb2dVertex
 10
407.1707538858375
 20
475.3766681754267
 30
0.0
  0
SEQEND
  5
88
330
85
100
AcDbEntity
  8
Calque 1
 62
     7
420
 16777215
370
    50
  0
POLYLINE
  5
89
330
1F
100
AcDbEntity
  8
Calque 1
 62
     7
420
 16777215
370
    50
100
AcDb2dPolyline
 66
     1
 10
0.0
 20
0.0
 30
0.0
  0
VERTEX
  5
8A
330
89
100
AcDbEntity
  8
Calque 1
 62
     7
420
 16777215
370
    50
100
AcDbVertex
100
AcDb2dVertex
 10
407.1707538858375
 20
481.0433334843399
 30
0.0
  0
VERTEX
  5
8B
330
89
100
AcDbEntity
  8
Calque 1
 62
     7
420
 16777215
370
    50
100
AcDbVertex
100
AcDb2dVertex
 10
17.17074212598686
 20
481.0433334843399
 30
0.0
  0
SEQEND
  5
8C
330
89
100
AcDbEntity
  8
Calque 1
 62
     7
420
 16777215
370
    50
  0
POLYLINE
  5
8D
330
1F
100
AcDbEntity
  8
Calque 1
 62
     7
420
 16777215
370
    50
100
AcDb2dPolyline
 66
     1
 10
0.0
 20
0.0
 30
0.0
  0
VERTEX
  5
8E
330
8D
100
AcDbEntity
  8
Calque 1
 62
     7
420
 16777215
370
    50
100
AcDbVertex
100
AcDb2dVertex
 10
407.1707538858375
 20
481.0463048791959
 30
0.0
  0
VERTEX
  5
8F
330
8D
100
AcDbEntity
  8
Calque 1
 62
     7
420
 16777215
370
    50
100
AcDbVertex
100
AcDb2dVertex
 10
17.17074212598686
 20
481.0463048791959
 30
0.0
  0
SEQEND
  5
90
330
8D
100
AcDbEntity
  8
Calque 1
 62
     7
420
 16777215
370
    50
  0
POLYLINE
  5
91
330
1F
100
AcDbEntity
  8
Calque 1
 62
     7
420
 16777215
370
    50
100
AcDb2dPolyline
 66
     1
 10
0.0
 20
0.0
 30
0.0
  0
VERTEX
  5
92
330
91
100
AcDbEntity
  8
Calque 1
 62
     7
420
 16777215
370
    50
100
AcDbVertex
100
AcDb2dVertex
 10
407.1707538858375
 20
461.2157323743879
 30
0.0
  0
VERTEX
  5
93
330
91
100
AcDbEntity
  8
Calque 1
 62
     7
420
 16777215
370
    50
100
AcDbVertex
100
AcDb2dVertex
 10
407.1707538858375
 20
481.0463048791959
 30
0.0
  0
SEQEND
  5
94
330
91
100
AcDbEntity
  8
Calque 1
 62
     7
420
 16777215
370
    50
  0
POLYLINE
  5
95
330
1F
100
AcDbEntity
  8
Calque 1
 62
     7
420
 16777215
370
    50
100
AcDb2dPolyline
 66
     1
 10
0.0
 20
0.0
 30
0.0
  0
VERTEX
  5
96
330
95
100
AcDbEntity
  8
Calque 1
 62
     7
420
 16777215
370
    50
100
AcDbVertex
100
AcDb2dVertex
 10
412.1707501546613
 20
461.2157323743879
 30
0.0
  0
VERTEX
  5
97
330
95
100
AcDbEntity
  8
Calque 1
 62
     7
420
 16777215
370
    50
100
AcDbVertex
100
AcDb2dVertex
 10
412.1707501546613
 20
476.0463086103721
 30
0.0
  0
SEQEND
  5
98
330
95
100
AcDbEntity
  8
Calque 1
 62
     7
420
 16777215
370
    50
  0
POLYLINE
  5
99
330
1F
100
AcDbEntity
  8
Calque 1
 62
     7
420
 16777215
370
    50
100
AcDb2dPolyline
 66
     1
 10
0.0
 20
0.0
 30
0.0
  0
VERTEX
  5
9A
330
99
100
AcDbEntity
  8
Calque 1
 62
     7
420
 16777215
370
    50
100
AcDbVertex
100
AcDb2dVertex
 10
12.1707418199418
 20
56.2411730307802
 30
0.0
  0
VERTEX
  5
9B
330
99
100
AcDbEntity
  8
Calque 1
 62
     7
420
 16777215
370
    50
100
AcDbVertex
100
AcDb2dVertex
 10
12.1707418199418
 20
221.2350748144829
 30
0.0
  0
SEQEND
  5
9C
330
99
100
AcDbEntity
  8
Calque 1
 62
     7
420
 16777215
370
    50
  0
POLYLINE
  5
9D
330
1F
100
AcDbEntity
  8
Calque 1
 62
     7
420
 16777215
370
    50
100
AcDb2dPolyline
 66
     1
 10
0.0
 20
0.0
 30
0.0
  0
VERTEX
  5
9E
330
9D
100
AcDbEntity
  8
Calque 1
 62
     7
420
 16777215
370
    50
100
AcDbVertex
100
AcDb2dVertex
 10
17.17074212598686
 20
51.23813000563665
 30
0.0
  0
VERTEX
  5
9F
330
9D
100
AcDbEntity
  8
Calque 1
 62
     7
420
 16777215
370
    50
100
AcDbVertex
100
AcDb2dVertex
 10
17.17074212598686
 20
226.2381286055499
 30
0.0
  0
SEQEND
  5
A0
330
9D
100
AcDbEntity
  8
Calque 1
 62
     7
420
 16777215
370
    50
  0
POLYLINE
  5
A1
330
1F
100
AcDbEntity
  8
Calque 1
 62
     7
420
 16777215
370
    50
100
AcDb2dPolyline
 66
     1
 10
0.0
 20
0.0
 30
0.0
  0
VERTEX
  5
A2
330
A1
100
AcDbEntity
  8
Calque 1
 62
     7
420
 16777215
370
    50
100
AcDbVertex
100
AcDb2dVertex
 10
17.17074212598686
 20
51.23813000563665
 30
0.0
  0
VERTEX
  5
A3
330
A1
100
AcDbEntity
  8
Calque 1
 62
     7
420
 16777215
370
    50
100
AcDbVertex
100
AcDb2dVertex
 10
407.1707538858375
 20
51.23813000563665
 30
0.0
  0
SEQEND
  5
A4
330
A1
100
AcDbEntity
  8
Calque 1
 62
     7
420
 16777215
370
    50
  0
POLYLINE
  5
A5
330
1F
100
AcDbEntity
  8
Calque 1
 62
     7
420
 16777215
370
    50
100
AcDb2dPolyline
 66
     1
 10
0.0
 20
0.0
 30
0.0
  0
VERTEX
  5
A6
330
A5
100
AcDbEntity
  8
Calque 1
 62
     7
420
 16777215
370
    50
100
AcDbVertex
100
AcDb2dVertex
 10
17.17074212598686
 20
51.56422982516233
 30
0.0
  0
VERTEX
  5
A7
330
A5
100
AcDbEntity
  8
Calque 1
 62
     7
420
 16777215
370
    50
100
AcDbVertex
100
AcDb2dVertex
 10
407.1707538858375
 20
51.56422982516233
 30
0.0
  0
SEQEND
  5
A8
330
A5
100
AcDbEntity
  8
Calque 1
 62
     7
420
 16777215
370
    50
  0
POLYLINE
  5
A9
330
1F
100
AcDbEntity
  8
Calque 1
 62
     7
420
 16777215
370
    50
100
AcDb2dPolyline
 66
     1
 10
0.0
 20
0.0
 30
0.0
  0
VERTEX
  5
AA
330
A9
100
AcDbEntity
  8
Calque 1
 62
     7
420
 16777215
370
    50
100
AcDbVertex
100
AcDb2dVertex
 10
17.17074212598686
 20
56.38868771308925
 30
0.0
  0
VERTEX
  5
AB
330
A9
100
AcDbEntity
  8
Calque 1
 62
     7
420
 16777215
370
    50
100
AcDbVertex
100
AcDb2dVertex
 10
407.1707538858375
 20
56.38868771308925
 30
0.0
  0
SEQEND
  5
AC
330
A9
100
AcDbEntity
  8
Calque 1
 62
     7
420
 16777215
370
    50
  0
POLYLINE
  5
AD
330
1F
100
AcDbEntity
  8
Calque 1
 62
     7
420
 16777215
370
    50
100
AcDb2dPolyline
 66
     1
 10
0.0
 20
0.0
 30
0.0
  0
VERTEX
  5
AE
330
AD
100
AcDbEntity
  8
Calque 1
 62
     7
420
 16777215
370
    50
100
AcDbVertex
100
AcDb2dVertex
 10
407.1707538858375
 20
220.5446776792388
 30
0.0
  0
VERTEX
  5
AF
330
AD
100
AcDbEntity
  8
Calque 1
 62
     7
420
 16777215
370
    50
100
AcDbVertex
100
AcDb2dVertex
 10
17.17074212598686
 20
220.5446776792388
 30
0.0
  0
SEQEND
  5
B0
330
AD
100
AcDbEntity
  8
Calque 1
 62
     7
420
 16777215
370
    50
  0
POLYLINE
  5
B1
330
1F
100
AcDbEntity
  8
Calque 1
 62
     7
420
 16777215
370
    50
100
AcDb2dPolyline
 66
     1
 10
0.0
 20
0.0
 30
0.0
  0
VERTEX
  5
B2
330
B1
100
AcDbEntity
  8
Calque 1
 62
     7
420
 16777215
370
    50
100
AcDbVertex
100
AcDb2dVertex
 10
407.1707538858375
 20
225.7141295822433
 30
0.0
  0
VERTEX
  5
B3
330
B1
100
AcDbEntity
  8
Calque 1
 62
     7
420
 16777215
370
    50
100
AcDbVertex
100
AcDb2dVertex
 10
17.17074212598686
 20
225.7141295822433
 30
0.0
  0
SEQEND
  5
B4
330
B1
100
AcDbEntity
  8
Calque 1
 62
     7
420
 16777215
370
    50
  0
POLYLINE
  5
B5
330
1F
100
AcDbEntity
  8
Calque 1
 62
     7
420
 16777215
370
    50
100
AcDb2dPolyline
 66
     1
 10
0.0
 20
0.0
 30
0.0
  0
VERTEX
  5
B6
330
B5
100
AcDbEntity
  8
Calque 1
 62
     7
420
 16777215
370
    50
100
AcDbVertex
100
AcDb2dVertex
 10
17.17074212598686
 20
226.2381286055499
 30
0.0
  0
VERTEX
  5
B7
330
B5
100
AcDbEntity
  8
Calque 1
 62
     7
420
 16777215
370
    50
100
AcDbVertex
100
AcDb2dVertex
 10
407.1707538858375
 20
226.2381286055499
 30
0.0
  0
SEQEND
  5
B8
330
B5
100
AcDbEntity
  8
Calque 1
 62
     7
420
 16777215
370
    50
  0
POLYLINE
  5
B9
330
1F
100
AcDbEntity
  8
Calque 1
 62
     7
420
 16777215
370
    50
100
AcDb2dPolyline
 66
     1
 10
0.0
 20
0.0
 30
0.0
  0
VERTEX
  5
BA
330
B9
100
AcDbEntity
  8
Calque 1
 62
     7
420
 16777215
370
    50
100
AcDbVertex
100
AcDb2dVertex
 10
407.1707538858375
 20
51.23813000563665
 30
0.0
  0
VERTEX
  5
BB
330
B9
100
AcDbEntity
  8
Calque 1
 62
     7
420
 16777215
370
    50
100
AcDbVertex
100
AcDb2dVertex
 10
407.1707538858375
 20
226.2381286055499
 30
0.0
  0
SEQEND
  5
BC
330
B9
100
AcDbEntity
  8
Calque 1
 62
     7
420
 16777215
370
    50
  0
POLYLINE
  5
BD
330
1F
100
AcDbEntity
  8
Calque 1
 62
     7
420
 16777215
370
    50
100
AcDb2dPolyline
 66
     1
 10
0.0
 20
0.0
 30
0.0
  0
VERTEX
  5
BE
330
BD
100
AcDbEntity
  8
Calque 1
 62
     7
420
 16777215
370
    50
100
AcDbVertex
100
AcDb2dVertex
 10
412.1707501546613
 20
56.2411730307802
 30
0.0
  0
VERTEX
  5
BF
330
BD
100
AcDbEntity
  8
Calque 1
 62
     7
420
 16777215
370
    50
100
AcDbVertex
100
AcDb2dVertex
 10
412.1707501546613
 20
221.2350748144829
 30
0.0
  0
SEQEND
  5
C0
330
BD
100
AcDbEntity
  8
Calque 1
 62
     7
420
 16777215
370
    50
  0
SPLINE
  5
C1
330
1F
100
AcDbEntity
  8
Calque 1
 62
     7
420
 16777215
370
    50
100
AcDbSpline
210
0.0
220
0.0
230
1.0
 70
     8
 71
     3
 72
     8
 73
     4
 74
     0
 42
0.0000000001
 43
0.0000000001
 12
1.0
 22
0.0
 32
0.0
 13
1.0
 23
0.0
 33
0.0
 40
0.0
 40
0.0
 40
0.0
 40
0.0
 40
1.0
 40
1.0
 40
1.0
 40
1.0
 10
-172.6124613012479
 20
476.2208026967
 30
0.0
 10
-172.7088055496776
 20
478.9797643523688
 30
0.0
 10
-175.0229084848901
 20
481.1385473108135
 30
0.0
 10
-177.781902438329
 20
481.0433334843399
 30
0.0
  0
SPLINE
  5
C2
330
1F
100
AcDbEntity
  8
Calque 1
 62
     7
420
 16777215
370
    50
100
AcDbSpline
210
0.0
220
0.0
230
1.0
 70
     8
 71
     3
 72
     8
 73
     4
 74
     0
 42
0.0000000001
 43
0.0000000001
 12
1.0
 22
0.0
 32
0.0
 13
1.0
 23
0.0
 33
0.0
 40
0.0
 40
0.0
 40
0.0
 40
0.0
 40
1.0
 40
1.0
 40
1.0
 40
1.0
 10
-341.9379139363255
 20
475.3766681754267
 30
0.0
 10
-344.5631843553197
 20
475.286019100471
 30
0.0
 10
-346.6706999865745
 20
473.1793862749344
 30
0.0
 10
-346.762361058329
 20
470.5541373877869
 30
0.0
  0
SPLINE
  5
C3
330
1F
100
AcDbEntity
  8
Calque 1
 62
     7
420
 16777215
370
    50
100
AcDbSpline
210
0.0
220
0.0
230
1.0
 70
     8
 71
     3
 72
     8
 73
     4
 74
     0
 42
0.0000000001
 43
0.0000000001
 12
1.0
 22
0.0
 32
0.0
 13
1.0
 23
0.0
 33
0.0
 40
0.0
 40
0.0
 40
0.0
 40
0.0
 40
1.0
 40
1.0
 40
1.0
 40
1.0
 10
17.17074212598686
 20
481.0432904206463
 30
0.0
 10
15.5399415825035
 20
481.0434626754206
 30
0.0
 10
14.01150478436605
 20
480.2484207648121
 30
0.0
 10
13.07538083067484
 20
478.9130586910356
 30
0.0
  0
SPLINE
  5
C4
330
1F
100
AcDbEntity
  8
Calque 1
 62
     7
420
 16777215
370
    50
100
AcDbSpline
210
0.0
220
0.0
230
1.0
 70
     8
 71
     3
 72
     8
 73
     4
 74
     0
 42
0.0000000001
 43
0.0000000001
 12
1.0
 22
0.0
 32
0.0
 13
1.0
 23
0.0
 33
0.0
 40
0.0
 40
0.0
 40
0.0
 40
0.0
 40
1.0
 40
1.0
 40
1.0
 40
1.0
 10
17.17074212598686
 20
481.0463048791959
 30
0.0
 10
14.4093177653423
 20
481.0463048791959
 30
0.0
 10
12.1707418199418
 20
478.8077248965741
 30
0.0
 10
12.1707418199418
 20
476.0463086103721
 30
0.0
  0
SPLINE
  5
C5
330
1F
100
AcDbEntity
  8
Calque 1
 62
     7
420
 16777215
370
    50
100
AcDbSpline
210
0.0
220
0.0
230
1.0
 70
     8
 71
     3
 72
     8
 73
     4
 74
     0
 42
0.0000000001
 43
0.0000000001
 12
1.0
 22
0.0
 32
0.0
 13
1.0
 23
0.0
 33
0.0
 40
0.0
 40
0.0
 40
0.0
 40
0.0
 40
1.0
 40
1.0
 40
1.0
 40
1.0
 10
412.1709224094356
 20
476.0463086103721
 30
0.0
 10
412.1699750081771
 20
478.8069066863964
 30
0.0
 10
409.9313519618618
 20
481.0440655671305
 30
0.0
 10
407.1707538858375
 20
481.0431612295656
 30
0.0
  0
SPLINE
  5
C6
330
1F
100
AcDbEntity
  8
Calque 1
 62
     7
420
 16777215
370
    50
100
AcDbSpline
210
0.0
220
0.0
230
1.0
 70
     8
 71
     3
 72
     8
 73
     4
 74
     0
 42
0.0000000001
 43
0.0000000001
 12
1.0
 22
0.0
 32
0.0
 13
1.0
 23
0.0
 33
0.0
 40
0.0
 40
0.0
 40
0.0
 40
0.0
 40
1.0
 40
1.0
 40
1.0
 40
1.0
 10
412.1709224094356
 20
470.3796433014589
 30
0.0
 10
412.1699750081771
 20
473.1402413774832
 30
0.0
 10
409.9313519618618
 20
475.3774002582173
 30
0.0
 10
407.1707538858375
 20
475.3764959206524
 30
0.0
  0
SPLINE
  5
C7
330
1F
100
AcDbEntity
  8
Calque 1
 62
     7
420
 16777215
370
    50
100
AcDbSpline
210
0.0
220
0.0
230
1.0
 70
     8
 71
     3
 72
     8
 73
     4
 74
     0
 42
0.0000000001
 43
0.0000000001
 12
1.0
 22
0.0
 32
0.0
 13
1.0
 23
0.0
 33
0.0
 40
0.0
 40
0.0
 40
0.0
 40
0.0
 40
1.0
 40
1.0
 40
1.0
 40
1.0
 10
17.17074212598686
 20
475.3764959206524
 30
0.0
 10
14.41014001274132
 20
475.3774002582173
 30
0.0
 10
12.17148601439623
 20
473.1402413774832
 30
0.0
 10
12.17056821942711
 20
470.3796433014589
 30
0.0
  0
SPLINE
  5
C8
330
1F
100
AcDbEntity
  8
Calque 1
 62
     7
420
 16777215
370
    50
100
AcDbSpline
210
0.0
220
0.0
230
1.0
 70
     8
 71
     3
 72
     8
 73
     4
 74
     0
 42
0.0000000001
 43
0.0000000001
 12
1.0
 22
0.0
 32
0.0
 13
1.0
 23
0.0
 33
0.0
 40
0.0
 40
0.0
 40
0.0
 40
0.0
 40
1.0
 40
1.0
 40
1.0
 40
1.0
 10
13.07539832530035
 20
478.9130586910356
 30
0.0
 10
12.52941797790945
 20
478.1340795381271
 30
0.0
 10
12.21723042288631
 20
477.2154017632917
 30
0.0
 10
12.17553938455309
 20
476.2650291099919
 30
0.0
  0
SPLINE
  5
C9
330
1F
100
AcDbEntity
  8
Calque 1
 62
     7
420
 16777215
370
    50
100
AcDbSpline
210
0.0
220
0.0
230
1.0
 70
     8
 71
     3
 72
     8
 73
     4
 74
     0
 42
0.0000000001
 43
0.0000000001
 12
1.0
 22
0.0
 32
0.0
 13
1.0
 23
0.0
 33
0.0
 40
0.0
 40
0.0
 40
0.0
 40
0.0
 40
1.0
 40
1.0
 40
1.0
 40
1.0
 10
12.17553938455309
 20
476.2650291099919
 30
0.0
 10
12.172339213825
 20
476.1921653404789
 30
0.0
 10
12.1707418199418
 20
476.1192154435788
 30
0.0
 10
12.1707418199418
 20
476.0463086103721
 30
0.0
  0
SPLINE
  5
CA
330
1F
100
AcDbEntity
  8
Calque 1
 62
     7
420
 16777215
370
    50
100
AcDbSpline
210
0.0
220
0.0
230
1.0
 70
     8
 71
     3
 72
     8
 73
     4
 74
     0
 42
0.0000000001
 43
0.0000000001
 12
1.0
 22
0.0
 32
0.0
 13
1.0
 23
0.0
 33
0.0
 40
0.0
 40
0.0
 40
0.0
 40
0.0
 40
1.0
 40
1.0
 40
1.0
 40
1.0
 10
412.1705778998871
 20
56.2411730307802
 30
0.0
 10
412.1714822374519
 20
53.47890623663027
 30
0.0
 10
409.9329883822173
 20
51.23889438619744
 30
0.0
 10
407.1707538858375
 20
51.23795775086239
 30
0.0
  0
SPLINE
  5
CB
330
1F
100
AcDbEntity
  8
Calque 1
 62
     7
420
 16777215
370
    50
100
AcDbSpline
210
0.0
220
0.0
230
1.0
 70
     8
 71
     3
 72
     8
 73
     4
 74
     0
 42
0.0000000001
 43
0.0000000001
 12
1.0
 22
0.0
 32
0.0
 13
1.0
 23
0.0
 33
0.0
 40
0.0
 40
0.0
 40
0.0
 40
0.0
 40
1.0
 40
1.0
 40
1.0
 40
1.0
 10
407.1707538858375
 20
226.2383008603241
 30
0.0
 10
409.9329883822173
 20
226.2373534590657
 30
0.0
 10
412.1714822374519
 20
223.9973308427094
 30
0.0
 10
412.1705778998871
 20
221.2350748144829
 30
0.0
  0
SPLINE
  5
CC
330
1F
100
AcDbEntity
  8
Calque 1
 62
     7
420
 16777215
370
    50
100
AcDbSpline
210
0.0
220
0.0
230
1.0
 70
     8
 71
     3
 72
     8
 73
     4
 74
     0
 42
0.0000000001
 43
0.0000000001
 12
1.0
 22
0.0
 32
0.0
 13
1.0
 23
0.0
 33
0.0
 40
0.0
 40
0.0
 40
0.0
 40
0.0
 40
1.0
 40
1.0
 40
1.0
 40
1.0
 10
17.17074212598686
 20
226.2383008603241
 30
0.0
 10
14.40847802331778
 20
226.2373534590657
 30
0.0
 10
12.16997609364059
 20
223.9973308427094
 30
0.0
 10
12.17091407471606
 20
221.2350748144829
 30
0.0
  0
SPLINE
  5
CD
330
1F
100
AcDbEntity
  8
Calque 1
 62
     7
420
 16777215
370
    50
100
AcDbSpline
210
0.0
220
0.0
230
1.0
 70
     8
 71
     3
 72
     8
 73
     4
 74
     0
 42
0.0000000001
 43
0.0000000001
 12
1.0
 22
0.0
 32
0.0
 13
1.0
 23
0.0
 33
0.0
 40
0.0
 40
0.0
 40
0.0
 40
0.0
 40
1.0
 40
1.0
 40
1.0
 40
1.0
 10
12.17091407471606
 20
56.2411730307802
 30
0.0
 10
12.16997609364059
 20
53.47890623663027
 30
0.0
 10
14.40847802331778
 20
51.23889438619744
 30
0.0
 10
17.17074212598686
 20
51.23795775086239
 30
0.0
  0
SPLINE
  5
CE
330
1F
100
AcDbEntity
  8
Calque 1
 62
     7
420
 16777215
370
    50
100
AcDbSpline
210
0.0
220
0.0
230
1.0
 70
     8
 71
     3
 72
     8
 73
     4
 74
     0
 42
0.0000000001
 43
0.0000000001
 12
1.0
 22
0.0
 32
0.0
 13
1.0
 23
0.0
 33
0.0
 40
0.0
 40
0.0
 40
0.0
 40
0.0
 40
1.0
 40
1.0
 40
1.0
 40
1.0
 10
407.1707538858375
 20
51.56440207993659
 30
0.0
 10
409.9313088981683
 20
51.56346544460154
 30
0.0
 10
412.1699750081771
 20
53.80060279348887
 30
0.0
 10
412.1709224094356
 20
56.56119010358974
 30
0.0
  0
SPLINE
  5
CF
330
1F
100
AcDbEntity
  8
Calque 1
 62
     7
420
 16777215
370
    50
100
AcDbSpline
210
0.0
220
0.0
230
1.0
 70
     8
 71
     3
 72
     8
 73
     4
 74
     0
 42
0.0000000001
 43
0.0000000001
 12
1.0
 22
0.0
 32
0.0
 13
1.0
 23
0.0
 33
0.0
 40
0.0
 40
0.0
 40
0.0
 40
0.0
 40
1.0
 40
1.0
 40
1.0
 40
1.0
 10
12.17056552794626
 20
56.56119010358974
 30
0.0
 10
12.17150754624301
 20
53.80060279348887
 30
0.0
 10
14.41015750736683
 20
51.56346544460154
 30
0.0
 10
17.17074212598686
 20
51.56440207993659
 30
0.0
  0
SPLINE
  5
D0
330
1F
100
AcDbEntity
  8
Calque 1
 62
     7
420
 16777215
370
    50
100
AcDbSpline
210
0.0
220
0.0
230
1.0
 70
     8
 71
     3
 72
     8
 73
     4
 74
     0
 42
0.0000000001
 43
0.0000000001
 12
1.0
 22
0.0
 32
0.0
 13
1.0
 23
0.0
 33
0.0
 40
0.0
 40
0.0
 40
0.0
 40
0.0
 40
1.0
 40
1.0
 40
1.0
 40
1.0
 10
17.17074212598686
 20
225.7139573274691
 30
0.0
 10
14.41015750736683
 20
225.7149047287275
 30
0.0
 10
12.17150754624301
 20
223.4777673798402
 30
0.0
 10
12.17056552794626
 20
220.7171908356627
 30
0.0
  0
SPLINE
  5
D1
330
1F
100
AcDbEntity
  8
Calque 1
 62
     7
420
 16777215
370
    50
100
AcDbSpline
210
0.0
220
0.0
230
1.0
 70
     8
 71
     3
 72
     8
 73
     4
 74
     0
 42
0.0000000001
 43
0.0000000001
 12
1.0
 22
0.0
 32
0.0
 13
1.0
 23
0.0
 33
0.0
 40
0.0
 40
0.0
 40
0.0
 40
0.0
 40
1.0
 40
1.0
 40
1.0
 40
1.0
 10
412.1709224094356
 20
220.7171908356627
 30
0.0
 10
412.1699750081771
 20
223.4777673798402
 30
0.0
 10
409.9313088981683
 20
225.7149047287275
 30
0.0
 10
407.1707538858375
 20
225.7139573274691
 30
0.0
  0
POLYLINE
  5
D2
330
1F
100
AcDbEntity
  8
Calque 1
 62
     7
420
 16777215
370
    50
100
AcDb2dPolyline
 66
     1
 10
0.0
 20
0.0
 30
0.0
  0
VERTEX
  5
D3
330
D2
100
AcDbEntity
  8
Calque 1
 62
     7
420
 16777215
370
    50
100
AcDbVertex
100
AcDb2dVertex
 10
407.1707538858375
 20
470.5541373877869
 30
0.0
  0
VERTEX
  5
D4
330
D2
100
AcDbEntity
  8
Calque 1
 62
     7
420
 16777215
370
    50
100
AcDbVertex
100
AcDb2dVertex
 10
407.6449712793822
 20
470.5533622413026
 30
0.0
  0
VERTEX
  5
D5
330
D2
100
AcDbEntity
  8
Calque 1
 62
     7
420
 16777215
370
    50
100
AcDbVertex
100
AcDb2dVertex
 10
408.1461896087924
 20
470.5507784196887
 30
0.0
  0
VERTEX
  5
D6
330
D2
100
AcDbEntity
  8
Calque 1
 62
     7
420
 16777215
370
    50
100
AcDbVertex
100
AcDb2dVertex
 10
408.582941588935
 20
470.5470318783485
 30
0.0
  0
VERTEX
  5
D7
330
D2
100
AcDbEntity
  8
Calque 1
 62
     7
420
 16777215
370
    50
100
AcDbVertex
100
AcDb2dVertex
 10
409.0841599183453
 20
470.5408737701686
 30
0.0
  0
VERTEX
  5
D8
330
D2
100
AcDbEntity
  8
Calque 1
 62
     7
420
 16777215
370
    50
100
AcDbVertex
100
AcDb2dVertex
 10
409.4474452372649
 20
470.5350171078437
 30
0.0
  0
VERTEX
  5
D9
330
D2
100
AcDbEntity
  8
Calque 1
 62
     7
420
 16777215
370
    50
100
AcDbVertex
100
AcDb2dVertex
 10
409.948577439288
 20
470.5247248850815
 30
0.0
  0
VERTEX
  5
DA
330
D2
100
AcDbEntity
  8
Calque 1
 62
     7
420
 16777215
370
    50
100
AcDbVertex
100
AcDb2dVertex
 10
410.3426963628006
 20
470.5145187897065
 30
0.0
  0
VERTEX
  5
DB
330
D2
100
AcDbEntity
  8
Calque 1
 62
     7
420
 16777215
370
    50
100
AcDbVertex
100
AcDb2dVertex
 10
410.7062831275752
 20
470.5030207835244
 30
0.0
  0
VERTEX
  5
DC
330
D2
100
AcDbEntity
  8
Calque 1
 62
     7
420
 16777215
370
    50
100
AcDbVertex
100
AcDb2dVertex
 10
411.0358065107393
 20
470.4903600576162
 30
0.0
  0
VERTEX
  5
DD
330
D2
100
AcDbEntity
  8
Calque 1
 62
     7
420
 16777215
370
    50
100
AcDbVertex
100
AcDb2dVertex
 10
411.3280797989692
 20
470.4765796756752
 30
0.0
  0
VERTEX
  5
DE
330
D2
100
AcDbEntity
  8
Calque 1
 62
     7
420
 16777215
370
    50
100
AcDbVertex
100
AcDb2dVertex
 10
411.5803469158766
 20
470.4618949561693
 30
0.0
  0
VERTEX
  5
DF
330
D2
100
AcDbEntity
  8
Calque 1
 62
     7
420
 16777215
370
    50
100
AcDbVertex
100
AcDb2dVertex
 10
411.7901532309284
 20
470.4464350901792
 30
0.0
  0
VERTEX
  5
E0
330
D2
100
AcDbEntity
  8
Calque 1
 62
     7
420
 16777215
370
    50
100
AcDbVertex
100
AcDb2dVertex
 10
411.9554316868332
 20
470.4302862050921
 30
0.0
  0
VERTEX
  5
E1
330
D2
100
AcDbEntity
  8
Calque 1
 62
     7
420
 16777215
370
    50
100
AcDbVertex
100
AcDb2dVertex
 10
412.0746750543164
 20
470.4136636193758
 30
0.0
  0
VERTEX
  5
E2
330
D2
100
AcDbEntity
  8
Calque 1
 62
     7
420
 16777215
370
    50
100
AcDbVertex
100
AcDb2dVertex
 10
412.1166190918493
 20
470.4052661991305
 30
0.0
  0
VERTEX
  5
E3
330
D2
100
AcDbEntity
  8
Calque 1
 62
     7
420
 16777215
370
    50
100
AcDbVertex
100
AcDb2dVertex
 10
412.1466775499582
 20
470.3967395878045
 30
0.0
  0
VERTEX
  5
E4
330
D2
100
AcDbEntity
  8
Calque 1
 62
     7
420
 16777215
370
    50
100
AcDbVertex
100
AcDb2dVertex
 10
412.1647212375622
 20
470.3882129764785
 30
0.0
  0
VERTEX
  5
E5
330
D2
100
AcDbEntity
  8
Calque 1
 62
     7
420
 16777215
370
    50
100
AcDbVertex
100
AcDb2dVertex
 10
412.1707501546613
 20
470.3796433014589
 30
0.0
  0
SEQEND
  5
E6
330
D2
100
AcDbEntity
  8
Calque 1
 62
     7
420
 16777215
370
    50
  0
POLYLINE
  5
E7
330
1F
100
AcDbEntity
  8
Calque 1
 62
     7
420
 16777215
370
    50
100
AcDb2dPolyline
 66
     1
 10
0.0
 20
0.0
 30
0.0
  0
VERTEX
  5
E8
330
E7
100
AcDbEntity
  8
Calque 1
 62
     7
420
 16777215
370
    50
100
AcDbVertex
100
AcDb2dVertex
 10
12.1707418199418
 20
470.3796433014589
 30
0.0
  0
VERTEX
  5
E9
330
E7
100
AcDbEntity
  8
Calque 1
 62
     7
420
 16777215
370
    50
100
AcDbVertex
100
AcDb2dVertex
 10
12.17676669981971
 20
470.3882129764785
 30
0.0
  0
VERTEX
  5
EA
330
E7
100
AcDbEntity
  8
Calque 1
 62
     7
420
 16777215
370
    50
100
AcDbVertex
100
AcDb2dVertex
 10
12.19481846186625
 20
470.3967395878045
 30
0.0
  0
VERTEX
  5
EB
330
E7
100
AcDbEntity
  8
Calque 1
 62
     7
420
 16777215
370
    50
100
AcDbVertex
100
AcDb2dVertex
 10
12.22485807960912
 20
470.4052661991305
 30
0.0
  0
VERTEX
  5
EC
330
E7
100
AcDbEntity
  8
Calque 1
 62
     7
420
 16777215
370
    50
100
AcDbVertex
100
AcDb2dVertex
 10
12.2668169202867
 20
470.4136636193758
 30
0.0
  0
VERTEX
  5
ED
330
E7
100
AcDbEntity
  8
Calque 1
 62
     7
420
 16777215
370
    50
100
AcDbVertex
100
AcDb2dVertex
 10
12.38604548462525
 20
470.4302862050921
 30
0.0
  0
VERTEX
  5
EE
330
E7
100
AcDbEntity
  8
Calque 1
 62
     7
420
 16777215
370
    50
100
AcDbVertex
100
AcDb2dVertex
 10
12.55134278089605
 20
470.4464350901792
 30
0.0
  0
VERTEX
  5
EF
330
E7
100
AcDbEntity
  8
Calque 1
 62
     7
420
 16777215
370
    50
100
AcDbVertex
100
AcDb2dVertex
 10
12.76113294706267
 20
470.4618949561693
 30
0.0
  0
VERTEX
  5
F0
330
E7
100
AcDbEntity
  8
Calque 1
 62
     7
420
 16777215
370
    50
100
AcDbVertex
100
AcDb2dVertex
 10
13.01339737248925
 20
470.4765796756752
 30
0.0
  0
VERTEX
  5
F1
330
E7
100
AcDbEntity
  8
Calque 1
 62
     7
420
 16777215
370
    50
100
AcDbVertex
100
AcDb2dVertex
 10
13.30569084682549
 20
470.4903600576162
 30
0.0
  0
VERTEX
  5
F2
330
E7
100
AcDbEntity
  8
Calque 1
 62
     7
420
 16777215
370
    50
100
AcDbVertex
100
AcDb2dVertex
 10
13.63521019276836
 20
470.5030207835244
 30
0.0
  0
VERTEX
  5
F3
330
E7
100
AcDbEntity
  8
Calque 1
 62
     7
420
 16777215
370
    50
100
AcDbVertex
100
AcDb2dVertex
 10
13.99877273421529
 20
470.5145187897065
 30
0.0
  0
VERTEX
  5
F4
330
E7
100
AcDbEntity
  8
Calque 1
 62
     7
420
 16777215
370
    50
100
AcDbVertex
100
AcDb2dVertex
 10
14.39289300346829
 20
470.5247248850815
 30
0.0
  0
VERTEX
  5
F5
330
E7
100
AcDbEntity
  8
Calque 1
 62
     7
420
 16777215
370
    50
100
AcDbVertex
100
AcDb2dVertex
 10
14.75615140757941
 20
470.5324332862298
 30
0.0
  0
VERTEX
  5
F6
330
E7
100
AcDbEntity
  8
Calque 1
 62
     7
420
 16777215
370
    50
100
AcDbVertex
100
AcDb2dVertex
 10
15.25732532755571
 20
470.5408737701686
 30
0.0
  0
VERTEX
  5
F7
330
E7
100
AcDbEntity
  8
Calque 1
 62
     7
420
 16777215
370
    50
100
AcDbVertex
100
AcDb2dVertex
 10
15.6940463556685
 20
470.5463428592515
 30
0.0
  0
VERTEX
  5
F8
330
E7
100
AcDbEntity
  8
Calque 1
 62
     7
420
 16777215
370
    50
100
AcDbVertex
100
AcDb2dVertex
 10
16.19526872230006
 20
470.5507784196887
 30
0.0
  0
VERTEX
  5
F9
330
E7
100
AcDbEntity
  8
Calque 1
 62
     7
420
 16777215
370
    50
100
AcDbVertex
100
AcDb2dVertex
 10
16.66950495621063
 20
470.5532761139155
 30
0.0
  0
VERTEX
  5
FA
330
E7
100
AcDbEntity
  8
Calque 1
 62
     7
420
 16777215
370
    50
100
AcDbVertex
100
AcDb2dVertex
 10
17.17074212598686
 20
470.5541373877869
 30
0.0
  0
SEQEND
  5
FB
330
E7
100
AcDbEntity
  8
Calque 1
 62
     7
420
 16777215
370
    50
  0
POLYLINE
  5
FC
330
1F
100
AcDbEntity
  8
Calque 1
 62
     7
420
 16777215
370
    50
100
AcDb2dPolyline
 66
     1
 10
0.0
 20
0.0
 30
0.0
  0
VERTEX
  5
FD
330
FC
100
AcDbEntity
  8
Calque 1
 62
     7
420
 16777215
370
    50
100
AcDbVertex
100
AcDb2dVertex
 10
407.1707538858375
 20
220.5446776792388
 30
0.0
  0
VERTEX
  5
FE
330
FC
100
AcDbEntity
  8
Calque 1
 62
     7
420
 16777215
370
    50
100
AcDbVertex
100
AcDb2dVertex
 10
407.6450143430757
 20
220.545452825723
 30
0.0
  0
VERTEX
  5
FF
330
FC
100
AcDbEntity
  8
Calque 1
 62
     7
420
 16777215
370
    50
100
AcDbVertex
100
AcDb2dVertex
 10
408.146232672486
 20
220.5479935836434
 30
0.0
  0
VERTEX
  5
100
330
FC
100
AcDbEntity
  8
Calque 1
 62
     7
420
 16777215
370
    50
100
AcDbVertex
100
AcDb2dVertex
 10
408.5829846526286
 20
220.55169706129
 30
0.0
  0
VERTEX
  5
101
330
FC
100
AcDbEntity
  8
Calque 1
 62
     7
420
 16777215
370
    50
100
AcDbVertex
100
AcDb2dVertex
 10
409.0841599183453
 20
220.5578121057763
 30
0.0
  0
VERTEX
  5
102
330
FC
100
AcDbEntity
  8
Calque 1
 62
     7
420
 16777215
370
    50
100
AcDbVertex
100
AcDb2dVertex
 10
409.4474883009585
 20
220.5636041725609
 30
0.0
  0
VERTEX
  5
103
330
FC
100
AcDbEntity
  8
Calque 1
 62
     7
420
 16777215
370
    50
100
AcDbVertex
100
AcDb2dVertex
 10
409.948577439288
 20
220.5737672042424
 30
0.0
  0
VERTEX
  5
104
330
FC
100
AcDbEntity
  8
Calque 1
 62
     7
420
 16777215
370
    50
100
AcDbVertex
100
AcDb2dVertex
 10
410.3426963628006
 20
220.5838441085368
 30
0.0
  0
VERTEX
  5
105
330
FC
100
AcDbEntity
  8
Calque 1
 62
     7
420
 16777215
370
    50
100
AcDbVertex
100
AcDb2dVertex
 10
410.7062831275752
 20
220.5952129236381
 30
0.0
  0
VERTEX
  5
106
330
FC
100
AcDbEntity
  8
Calque 1
 62
     7
420
 16777215
370
    50
100
AcDbVertex
100
AcDb2dVertex
 10
411.0358065107393
 20
220.6077444584657
 30
0.0
  0
VERTEX
  5
107
330
FC
100
AcDbEntity
  8
Calque 1
 62
     7
420
 16777215
370
    50
100
AcDbVertex
100
AcDb2dVertex
 10
411.3280797989692
 20
220.6213525856324
 30
0.0
  0
VERTEX
  5
108
330
FC
100
AcDbEntity
  8
Calque 1
 62
     7
420
 16777215
370
    50
100
AcDbVertex
100
AcDb2dVertex
 10
411.5803469158766
 20
220.6358650503641
 30
0.0
  0
VERTEX
  5
109
330
FC
100
AcDbEntity
  8
Calque 1
 62
     7
420
 16777215
370
    50
100
AcDbVertex
100
AcDb2dVertex
 10
411.7901532309284
 20
220.6511741934266
 30
0.0
  0
VERTEX
  5
10A
330
FC
100
AcDbEntity
  8
Calque 1
 62
     7
420
 16777215
370
    50
100
AcDbVertex
100
AcDb2dVertex
 10
411.9554316868332
 20
220.6671077600459
 30
0.0
  0
VERTEX
  5
10B
330
FC
100
AcDbEntity
  8
Calque 1
 62
     7
420
 16777215
370
    50
100
AcDbVertex
100
AcDb2dVertex
 10
412.0746750543164
 20
220.6835365591412
 30
0.0
  0
VERTEX
  5
10C
330
FC
100
AcDbEntity
  8
Calque 1
 62
     7
420
 16777215
370
    50
100
AcDbVertex
100
AcDb2dVertex
 10
412.1166190918493
 20
220.6918693838462
 30
0.0
  0
VERTEX
  5
10D
330
FC
100
AcDbEntity
  8
Calque 1
 62
     7
420
 16777215
370
    50
100
AcDbVertex
100
AcDb2dVertex
 10
412.1466775499582
 20
220.7002668040914
 30
0.0
  0
VERTEX
  5
10E
330
FC
100
AcDbEntity
  8
Calque 1
 62
     7
420
 16777215
370
    50
100
AcDbVertex
100
AcDb2dVertex
 10
412.1647212375622
 20
220.7087288198771
 30
0.0
  0
VERTEX
  5
10F
330
FC
100
AcDbEntity
  8
Calque 1
 62
     7
420
 16777215
370
    50
100
AcDbVertex
100
AcDb2dVertex
 10
412.1707501546613
 20
220.7171908356627
 30
0.0
  0
SEQEND
  5
110
330
FC
100
AcDbEntity
  8
Calque 1
 62
     7
420
 16777215
370
    50
  0
POLYLINE
  5
111
330
1F
100
AcDbEntity
  8
Calque 1
 62
     7
420
 16777215
370
    50
100
AcDb2dPolyline
 66
     1
 10
0.0
 20
0.0
 30
0.0
  0
VERTEX
  5
112
330
111
100
AcDbEntity
  8
Calque 1
 62
     7
420
 16777215
370
    50
100
AcDbVertex
100
AcDb2dVertex
 10
17.17074212598686
 20
220.5446776792388
 30
0.0
  0
VERTEX
  5
113
330
111
100
AcDbEntity
  8
Calque 1
 62
     7
420
 16777215
370
    50
100
AcDbVertex
100
AcDb2dVertex
 10
16.6964789772678
 20
220.545452825723
 30
0.0
  0
VERTEX
  5
114
330
111
100
AcDbEntity
  8
Calque 1
 62
     7
420
 16777215
370
    50
100
AcDbVertex
100
AcDb2dVertex
 10
16.19526872230006
 20
220.5479935836434
 30
0.0
  0
VERTEX
  5
115
330
111
100
AcDbEntity
  8
Calque 1
 62
     7
420
 16777215
370
    50
100
AcDbVertex
100
AcDb2dVertex
 10
15.75850193901285
 20
220.55169706129
 30
0.0
  0
VERTEX
  5
116
330
111
100
AcDbEntity
  8
Calque 1
 62
     7
420
 16777215
370
    50
100
AcDbVertex
100
AcDb2dVertex
 10
15.25732129033443
 20
220.5578121057763
 30
0.0
  0
VERTEX
  5
117
330
111
100
AcDbEntity
  8
Calque 1
 62
     7
420
 16777215
370
    50
100
AcDbVertex
100
AcDb2dVertex
 10
14.89400232790424
 20
220.5636041725609
 30
0.0
  0
VERTEX
  5
118
330
111
100
AcDbEntity
  8
Calque 1
 62
     7
420
 16777215
370
    50
100
AcDbVertex
100
AcDb2dVertex
 10
14.39289300346829
 20
220.5737672042424
 30
0.0
  0
VERTEX
  5
119
330
111
100
AcDbEntity
  8
Calque 1
 62
     7
420
 16777215
370
    50
100
AcDbVertex
100
AcDb2dVertex
 10
13.99877273421529
 20
220.5838441085368
 30
0.0
  0
VERTEX
  5
11A
330
111
100
AcDbEntity
  8
Calque 1
 62
     7
420
 16777215
370
    50
100
AcDbVertex
100
AcDb2dVertex
 10
13.63521019276836
 20
220.5952129236381
 30
0.0
  0
VERTEX
  5
11B
330
111
100
AcDbEntity
  8
Calque 1
 62
     7
420
 16777215
370
    50
100
AcDbVertex
100
AcDb2dVertex
 10
13.30569084682549
 20
220.6077444584657
 30
0.0
  0
VERTEX
  5
11C
330
111
100
AcDbEntity
  8
Calque 1
 62
     7
420
 16777215
370
    50
100
AcDbVertex
100
AcDb2dVertex
 10
13.01339737248925
 20
220.6213525856324
 30
0.0
  0
VERTEX
  5
11D
330
111
100
AcDbEntity
  8
Calque 1
 62
     7
420
 16777215
370
    50
100
AcDbVertex
100
AcDb2dVertex
 10
12.76113294706267
 20
220.6358650503641
 30
0.0
  0
VERTEX
  5
11E
330
111
100
AcDbEntity
  8
Calque 1
 62
     7
420
 16777215
370
    50
100
AcDbVertex
100
AcDb2dVertex
 10
12.55134278089605
 20
220.6511741934266
 30
0.0
  0
VERTEX
  5
11F
330
111
100
AcDbEntity
  8
Calque 1
 62
     7
420
 16777215
370
    50
100
AcDbVertex
100
AcDb2dVertex
 10
12.38603875592313
 20
220.6671077600459
 30
0.0
  0
VERTEX
  5
120
330
111
100
AcDbEntity
  8
Calque 1
 62
     7
420
 16777215
370
    50
100
AcDbVertex
100
AcDb2dVertex
 10
12.2668169202867
 20
220.6835365591412
 30
0.0
  0
VERTEX
  5
121
330
111
100
AcDbEntity
  8
Calque 1
 62
     7
420
 16777215
370
    50
100
AcDbVertex
100
AcDb2dVertex
 10
12.22485807960912
 20
220.6918693838462
 30
0.0
  0
VERTEX
  5
122
330
111
100
AcDbEntity
  8
Calque 1
 62
     7
420
 16777215
370
    50
100
AcDbVertex
100
AcDb2dVertex
 10
12.19481846186625
 20
220.7002668040914
 30
0.0
  0
VERTEX
  5
123
330
111
100
AcDbEntity
  8
Calque 1
 62
     7
420
 16777215
370
    50
100
AcDbVertex
100
AcDb2dVertex
 10
12.17676669981971
 20
220.7087288198771
 30
0.0
  0
VERTEX
  5
124
330
111
100
AcDbEntity
  8
Calque 1
 62
     7
420
 16777215
370
    50
100
AcDbVertex
100
AcDb2dVertex
 10
12.1707418199418
 20
220.7171908356627
 30
0.0
  0
SEQEND
  5
125
330
111
100
AcDbEntity
  8
Calque 1
 62
     7
420
 16777215
370
    50
  0
POLYLINE
  5
126
330
1F
100
AcDbEntity
  8
Calque 1
 62
     7
420
 16777215
370
    50
100
AcDb2dPolyline
 66
     1
 10
0.0
 20
0.0
 30
0.0
  0
VERTEX
  5
127
330
126
100
AcDbEntity
  8
Calque 1
 62
     7
420
 16777215
370
    50
100
AcDbVertex
100
AcDb2dVertex
 10
17.17074212598686
 20
56.38868771308925
 30
0.0
  0
VERTEX
  5
128
330
126
100
AcDbEntity
  8
Calque 1
 62
     7
420
 16777215
370
    50
100
AcDbVertex
100
AcDb2dVertex
 10
16.6964789772678
 20
56.38946285957343
 30
0.0
  0
VERTEX
  5
129
330
126
100
AcDbEntity
  8
Calque 1
 62
     7
420
 16777215
370
    50
100
AcDbVertex
100
AcDb2dVertex
 10
16.19526872230006
 20
56.3920036174938
 30
0.0
  0
VERTEX
  5
12A
330
126
100
AcDbEntity
  8
Calque 1
 62
     7
420
 16777215
370
    50
100
AcDbVertex
100
AcDb2dVertex
 10
15.75850193901285
 20
56.39570709514044
 30
0.0
  0
VERTEX
  5
12B
330
126
100
AcDbEntity
  8
Calque 1
 62
     7
420
 16777215
370
    50
100
AcDbVertex
100
AcDb2dVertex
 10
15.25732129033443
 20
56.40182213962676
 30
0.0
  0
VERTEX
  5
12C
330
126
100
AcDbEntity
  8
Calque 1
 62
     7
420
 16777215
370
    50
100
AcDbVertex
100
AcDb2dVertex
 10
14.89400232790424
 20
56.40760344048795
 30
0.0
  0
VERTEX
  5
12D
330
126
100
AcDbEntity
  8
Calque 1
 62
     7
420
 16777215
370
    50
100
AcDbVertex
100
AcDb2dVertex
 10
14.39289300346829
 20
56.41775570624604
 30
0.0
  0
VERTEX
  5
12E
330
126
100
AcDbEntity
  8
Calque 1
 62
     7
420
 16777215
370
    50
100
AcDbVertex
100
AcDb2dVertex
 10
13.99877273421529
 20
56.42784337646379
 30
0.0
  0
VERTEX
  5
12F
330
126
100
AcDbEntity
  8
Calque 1
 62
     7
420
 16777215
370
    50
100
AcDbVertex
100
AcDb2dVertex
 10
13.63521019276836
 20
56.43921219156511
 30
0.0
  0
VERTEX
  5
130
330
126
100
AcDbEntity
  8
Calque 1
 62
     7
420
 16777215
370
    50
100
AcDbVertex
100
AcDb2dVertex
 10
13.30569084682549
 20
56.4517544923161
 30
0.0
  0
VERTEX
  5
131
330
126
100
AcDbEntity
  8
Calque 1
 62
     7
420
 16777215
370
    50
100
AcDbVertex
100
AcDb2dVertex
 10
13.01339737248925
 20
56.46535185355945
 30
0.0
  0
VERTEX
  5
132
330
126
100
AcDbEntity
  8
Calque 1
 62
     7
420
 16777215
370
    50
100
AcDbVertex
100
AcDb2dVertex
 10
12.76113294706267
 20
56.47987508421446
 30
0.0
  0
VERTEX
  5
133
330
126
100
AcDbEntity
  8
Calque 1
 62
     7
420
 16777215
370
    50
100
AcDbVertex
100
AcDb2dVertex
 10
12.55134278089605
 20
56.49517346135364
 30
0.0
  0
VERTEX
  5
134
330
126
100
AcDbEntity
  8
Calque 1
 62
     7
420
 16777215
370
    50
100
AcDbVertex
100
AcDb2dVertex
 10
12.38603875592313
 20
56.51110702797292
 30
0.0
  0
VERTEX
  5
135
330
126
100
AcDbEntity
  8
Calque 1
 62
     7
420
 16777215
370
    50
100
AcDbVertex
100
AcDb2dVertex
 10
12.2668169202867
 20
56.52753582706821
 30
0.0
  0
VERTEX
  5
136
330
126
100
AcDbEntity
  8
Calque 1
 62
     7
420
 16777215
370
    50
100
AcDbVertex
100
AcDb2dVertex
 10
12.22485807960912
 20
56.53587941769654
 30
0.0
  0
VERTEX
  5
137
330
126
100
AcDbEntity
  8
Calque 1
 62
     7
420
 16777215
370
    50
100
AcDbVertex
100
AcDb2dVertex
 10
12.19481846186625
 20
56.54427683794184
 30
0.0
  0
VERTEX
  5
138
330
126
100
AcDbEntity
  8
Calque 1
 62
     7
420
 16777215
370
    50
100
AcDbVertex
100
AcDb2dVertex
 10
12.17676669981971
 20
56.5527280878041
 30
0.0
  0
VERTEX
  5
139
330
126
100
AcDbEntity
  8
Calque 1
 62
     7
420
 16777215
370
    50
100
AcDbVertex
100
AcDb2dVertex
 10
12.1707418199418
 20
56.56119010358974
 30
0.0
  0
SEQEND
  5
13A
330
126
100
AcDbEntity
  8
Calque 1
 62
     7
420
 16777215
370
    50
  0
POLYLINE
  5
13B
330
1F
100
AcDbEntity
  8
Calque 1
 62
     7
420
 16777215
370
    50
100
AcDb2dPolyline
 66
     1
 10
0.0
 20
0.0
 30
0.0
  0
VERTEX
  5
13C
330
13B
100
AcDbEntity
  8
Calque 1
 62
     7
420
 16777215
370
    50
100
AcDbVertex
100
AcDb2dVertex
 10
407.1707538858375
 20
56.38868771308925
 30
0.0
  0
VERTEX
  5
13D
330
13B
100
AcDbEntity
  8
Calque 1
 62
     7
420
 16777215
370
    50
100
AcDbVertex
100
AcDb2dVertex
 10
407.6450143430757
 20
56.38946285957343
 30
0.0
  0
VERTEX
  5
13E
330
13B
100
AcDbEntity
  8
Calque 1
 62
     7
420
 16777215
370
    50
100
AcDbVertex
100
AcDb2dVertex
 10
408.146232672486
 20
56.3920036174938
 30
0.0
  0
VERTEX
  5
13F
330
13B
100
AcDbEntity
  8
Calque 1
 62
     7
420
 16777215
370
    50
100
AcDbVertex
100
AcDb2dVertex
 10
408.5829846526286
 20
56.39570709514044
 30
0.0
  0
VERTEX
  5
140
330
13B
100
AcDbEntity
  8
Calque 1
 62
     7
420
 16777215
370
    50
100
AcDbVertex
100
AcDb2dVertex
 10
409.0841599183453
 20
56.40182213962676
 30
0.0
  0
VERTEX
  5
141
330
13B
100
AcDbEntity
  8
Calque 1
 62
     7
420
 16777215
370
    50
100
AcDbVertex
100
AcDb2dVertex
 10
409.4474883009585
 20
56.40760344048795
 30
0.0
  0
VERTEX
  5
142
330
13B
100
AcDbEntity
  8
Calque 1
 62
     7
420
 16777215
370
    50
100
AcDbVertex
100
AcDb2dVertex
 10
409.948577439288
 20
56.41775570624604
 30
0.0
  0
VERTEX
  5
143
330
13B
100
AcDbEntity
  8
Calque 1
 62
     7
420
 16777215
370
    50
100
AcDbVertex
100
AcDb2dVertex
 10
410.3426963628006
 20
56.42784337646379
 30
0.0
  0
VERTEX
  5
144
330
13B
100
AcDbEntity
  8
Calque 1
 62
     7
420
 16777215
370
    50
100
AcDbVertex
100
AcDb2dVertex
 10
410.7062831275752
 20
56.43921219156511
 30
0.0
  0
VERTEX
  5
145
330
13B
100
AcDbEntity
  8
Calque 1
 62
     7
420
 16777215
370
    50
100
AcDbVertex
100
AcDb2dVertex
 10
411.0358065107393
 20
56.4517544923161
 30
0.0
  0
VERTEX
  5
146
330
13B
100
AcDbEntity
  8
Calque 1
 62
     7
420
 16777215
370
    50
100
AcDbVertex
100
AcDb2dVertex
 10
411.3280797989692
 20
56.46535185355945
 30
0.0
  0
VERTEX
  5
147
330
13B
100
AcDbEntity
  8
Calque 1
 62
     7
420
 16777215
370
    50
100
AcDbVertex
100
AcDb2dVertex
 10
411.5803469158766
 20
56.47987508421446
 30
0.0
  0
VERTEX
  5
148
330
13B
100
AcDbEntity
  8
Calque 1
 62
     7
420
 16777215
370
    50
100
AcDbVertex
100
AcDb2dVertex
 10
411.7901532309284
 20
56.49517346135364
 30
0.0
  0
VERTEX
  5
149
330
13B
100
AcDbEntity
  8
Calque 1
 62
     7
420
 16777215
370
    50
100
AcDbVertex
100
AcDb2dVertex
 10
411.9554316868332
 20
56.51110702797292
 30
0.0
  0
VERTEX
  5
14A
330
13B
100
AcDbEntity
  8
Calque 1
 62
     7
420
 16777215
370
    50
100
AcDbVertex
100
AcDb2dVertex
 10
412.0746750543164
 20
56.52753582706821
 30
0.0
  0
VERTEX
  5
14B
330
13B
100
AcDbEntity
  8
Calque 1
 62
     7
420
 16777215
370
    50
100
AcDbVertex
100
AcDb2dVertex
 10
412.1166190918493
 20
56.53587941769654
 30
0.0
  0
VERTEX
  5
14C
330
13B
100
AcDbEntity
  8
Calque 1
 62
     7
420
 16777215
370
    50
100
AcDbVertex
100
AcDb2dVertex
 10
412.1466775499582
 20
56.54427683794184
 30
0.0
  0
VERTEX
  5
14D
330
13B
100
AcDbEntity
  8
Calque 1
 62
     7
420
 16777215
370
    50
100
AcDbVertex
100
AcDb2dVertex
 10
412.1647212375622
 20
56.5527280878041
 30
0.0
  0
VERTEX
  5
14E
330
13B
100
AcDbEntity
  8
Calque 1
 62
     7
420
 16777215
370
    50
100
AcDbVertex
100
AcDb2dVertex
 10
412.1707501546613
 20
56.56119010358974
 30
0.0
  0
SEQEND
  5
14F
330
13B
100
AcDbEntity
  8
Calque 1
 62
     7
420
 16777215
370
    50
  0
ENDSEC
  0
SECTION
  2
OBJECTS
  0
DICTIONARY
  5
C
330
0
100
AcDbDictionary
281
     1
  3
ACAD_GROUP
350
D
  3
ACAD_LAYOUT
350
1A
  3
ACAD_MATERIAL
350
3B
  3
ACAD_MLEADERSTYLE
350
151
  3
ACAD_MLINESTYLE
350
17
  3
ACAD_PLOTSETTINGS
350
19
  3
ACAD_PLOTSTYLENAME
350
E
  3
ACAD_TABLESTYLE
350
150
  3
ACAD_VISUALSTYLE
350
2A
  0
SUN
  5
3F
330
29
100
AcDbSun
 90
        1
290
     0
 63
     7
421
 16777215
 40
1.0
291
     1
 91
  2455826
 92
 54000000
292
     0
 70
     2
 71
   256
280
     1
  0
DICTIONARY
  5
D
102
{ACAD_REACTORS
330
C
102
}
330
C
100
AcDbDictionary
281
     1
  0
DICTIONARY
  5
1A
102
{ACAD_REACTORS
330
C
102
}
330
C
100
AcDbDictionary
281
     1
  3
Layout1
350
1E
  3
Layout2
350
26
  3
Model
350
22
  0
DICTIONARY
  5
3B
102
{ACAD_REACTORS
330
C
102
}
330
C
100
AcDbDictionary
281
     1
  3
ByBlock
350
3D
  3
ByLayer
350
3C
  3
Global
350
3E
  0
DICTIONARY
  5
151
102
{ACAD_REACTORS
330
C
102
}
330
C
100
AcDbDictionary
281
     1
  0
DICTIONARY
  5
17
102
{ACAD_REACTORS
330
C
102
}
330
C
100
AcDbDictionary
281
     1
  3
Standard
350
18
  0
DICTIONARY
  5
19
102
{ACAD_REACTORS
330
C
102
}
330
C
100
AcDbDictionary
281
     1
  0
ACDBDICTIONARYWDFLT
  5
E
102
{ACAD_REACTORS
330
C
102
}
330
C
100
AcDbDictionary
281
     1
  3
Normal
350
F
100
AcDbDictionaryWithDefault
340
F
  0
DICTIONARY
  5
150
102
{ACAD_REACTORS
330
C
102
}
330
C
100
AcDbDictionary
281
     1
  0
DICTIONARY
  5
2A
102
{ACAD_REACTORS
330
C
102
}
330
C
100
AcDbDictionary
281
     1
  3
2dWireframe
350
2F
  3
3D Hidden
350
31
  3
3dWireframe
350
30
  3
Basic
350
32
  3
Brighten
350
36
  3
ColorChange
350
3A
  3
Conceptual
350
34
  3
Dim
350
35
  3
Facepattern
350
39
  3
Flat
350
2B
  3
FlatWithEdges
350
2C
  3
Gouraud
350
2D
  3
GouraudWithEdges
350
2E
  3
Linepattern
350
38
  3
Realistic
350
33
  3
Thicken
350
37
  0
LAYOUT
  5
1E
102
{ACAD_REACTORS
330
1A
102
}
330
1A
100
AcDbPlotSettings
  1

  2
none_device
  4

  6

 40
0.0
 41
0.0
 42
0.0
 43
0.0
 44
0.0
 45
0.0
 46
0.0
 47
0.0
 48
0.0
 49
0.0
140
0.0
141
0.0
142
1.0
143
1.0
 70
   688
 72
     0
 73
     0
 74
     5
  7

 75
    16
 76
     0
 77
     2
 78
   300
147
1.0
148
0.0
149
0.0
100
AcDbLayout
  1
Layout1
 70
     1
 71
     1
 10
0.0
 20
0.0
 11
12.0
 21
9.0
 12
0.0
 22
0.0
 32
0.0
 14
1.000000000000000E+20
 24
1.000000000000000E+20
 34
1.000000000000000E+20
 15
-1.000000000000000E+20
 25
-1.000000000000000E+20
 35
-1.000000000000000E+20
146
0.0
 13
0.0
 23
0.0
 33
0.0
 16
1.0
 26
0.0
 36
0.0
 17
0.0
 27
1.0
 37
0.0
 76
     0
330
1B
  0
LAYOUT
  5
26
102
{ACAD_REACTORS
330
1A
102
}
330
1A
100
AcDbPlotSettings
  1

  2
none_device
  4

  6

 40
0.0
 41
0.0
 42
0.0
 43
0.0
 44
0.0
 45
0.0
 46
0.0
 47
0.0
 48
0.0
 49
0.0
140
0.0
141
0.0
142
1.0
143
1.0
 70
   688
 72
     0
 73
     0
 74
     5
  7

 75
    16
 76
     0
 77
     2
 78
   300
147
1.0
148
0.0
149
0.0
100
AcDbLayout
  1
Layout2
 70
     1
 71
     2
 10
0.0
 20
0.0
 11
0.0
 21
0.0
 12
0.0
 22
0.0
 32
0.0
 14
0.0
 24
0.0
 34
0.0
 15
0.0
 25
0.0
 35
0.0
146
0.0
 13
0.0
 23
0.0
 33
0.0
 16
1.0
 26
0.0
 36
0.0
 17
0.0
 27
1.0
 37
0.0
 76
     0
330
23
  0
LAYOUT
  5
22
102
{ACAD_REACTORS
330
1A
102
}
330
1A
100
AcDbPlotSettings
  1

  2
none_device
  4

  6

 40
0.0
 41
0.0
 42
0.0
 43
0.0
 44
0.0
 45
0.0
 46
0.0
 47
0.0
 48
0.0
 49
0.0
140
0.0
141
0.0
142
1.0
143
1.0
 70
  1712
 72
     0
 73
     0
 74
     0
  7

 75
     0
 76
     0
 77
     2
 78
   300
147
1.0
148
0.0
149
0.0
100
AcDbLayout
  1
Model
 70
     1
 71
     0
 10
0.0
 20
0.0
 11
12.0
 21
9.0
 12
0.0
 22
0.0
 32
0.0
 14
1.000000000000000E+20
 24
1.000000000000000E+20
 34
1.000000000000000E+20
 15
-1.000000000000000E+20
 25
-1.000000000000000E+20
 35
-1.000000000000000E+20
146
0.0
 13
0.0
 23
0.0
 33
0.0
 16
1.0
 26
0.0
 36
0.0
 17
0.0
 27
1.0
 37
0.0
 76
     0
330
1F
331
29
  0
MATERIAL
  5
3D
102
{ACAD_REACTORS
330
3B
102
}
330
3B
100
AcDbMaterial
  1
ByBlock
 72
     1
 94
      127
  0
MATERIAL
  5
3C
102
{ACAD_REACTORS
330
3B
102
}
330
3B
100
AcDbMaterial
  1
ByLayer
 72
     1
 94
      127
  0
MATERIAL
  5
3E
102
{ACAD_REACTORS
330
3B
102
}
330
3B
100
AcDbMaterial
  1
Global
 72
     1
 94
      127
  0
MLINESTYLE
  5
18
102
{ACAD_REACTORS
330
17
102
}
330
17
100
AcDbMlineStyle
  2
Standard
 70
     0
  3

 62
   256
 51
90.0
 52
90.0
 71
     2
 49
0.5
 62
   256
  6
BYLAYER
 49
-0.5
 62
   256
  6
BYLAYER
  0
ACDBPLACEHOLDER
  5
F
102
{ACAD_REACTORS
330
E
102
}
330
E
  0
VISUALSTYLE
  5
2F
102
{ACAD_REACTORS
330
2A
102
}
330
2A
100
AcDbVisualStyle
  2
2dWireframe
 70
     4
177
     2
291
     0
 71
     0
176
     1
 72
     2
176
     1
 73
     0
176
     1
 90
        0
176
     1
 40
-0.6
176
     1
 41
-30.0
176
     1
 62
     5
 63
     7
421
 16777215
176
     1
 74
     1
176
     1
 91
        4
176
     1
 64
     7
176
     1
 65
   257
176
     1
 75
     1
176
     1
175
     1
176
     1
 42
1.0
176
     1
 92
        0
176
     1
 66
   257
176
     1
 43
1.0
176
     1
 76
     1
176
     1
 77
     6
176
     1
 78
     2
176
     1
 67
     7
176
     1
 79
     5
176
     1
170
     0
176
     1
171
     0
176
     1
290
     0
176
     1
 93
        1
176
     1
 44
0.0
176
     1
173
     0
176
     1
  0
VISUALSTYLE
  5
31
102
{ACAD_REACTORS
330
2A
102
}
330
2A
100
AcDbVisualStyle
  2
3D Hidden
 70
     6
177
     2
291
     0
 71
     1
176
     1
 72
     2
176
     1
 73
     2
176
     1
 90
        0
176
     1
 40
-0.6
176
     1
 41
-30.0
176
     1
 62
     5
 63
     7
421
 16777215
176
     1
 74
     2
176
     1
 91
        2
176
     1
 64
     7
176
     1
 65
   257
176
     1
 75
     2
176
     1
175
     1
176
     1
 42
40.0
176
     1
 92
        0
176
     1
 66
   257
176
     1
 43
1.0
176
     1
 76
     1
176
     1
 77
     6
176
     1
 78
     2
176
     1
 67
     7
176
     1
 79
     3
176
     1
170
     0
176
     1
171
     0
176
     1
290
     0
176
     1
 93
        1
176
     1
 44
0.0
176
     1
173
     0
176
     1
  0
VISUALSTYLE
  5
30
102
{ACAD_REACTORS
330
2A
102
}
330
2A
100
AcDbVisualStyle
  2
3dWireframe
 70
     5
177
     2
291
     0
 71
     0
176
     1
 72
     2
176
     1
 73
     0
176
     1
 90
        0
176
     1
 40
-0.6
176
     1
 41
-30.0
176
     1
 62
     5
 63
     7
421
 16777215
176
     1
 74
     1
176
     1
 91
        4
176
     1
 64
     7
176
     1
 65
   257
176
     1
 75
     1
176
     1
175
     1
176
     1
 42
1.0
176
     1
 92
        0
176
     1
 66
   257
176
     1
 43
1.0
176
     1
 76
     1
176
     1
 77
     6
176
     1
 78
     2
176
     1
 67
     7
176
     1
 79
     5
176
     1
170
     0
176
     1
171
     0
176
     1
290
     0
176
     1
 93
        1
176
     1
 44
0.0
176
     1
173
     0
176
     1
  0
VISUALSTYLE
  5
32
102
{ACAD_REACTORS
330
2A
102
}
330
2A
100
AcDbVisualStyle
  2
Basic
 70
     7
177
     2
291
     1
 71
     1
176
     1
 72
     0
176
     1
 73
     1
176
     1
 90
        0
176
     1
 40
-0.6
176
     1
 41
-30.0
176
     1
 62
     5
 63
     7
421
 16777215
176
     1
 74
     0
176
     1
 91
        4
176
     1
 64
     7
176
     1
 65
   257
176
     1
 75
     1
176
     1
175
     1
176
     1
 42
1.0
176
     1
 92
        8
176
     1
 66
     7
176
     1
 43
1.0
176
     1
 76
     1
176
     1
 77
     6
176
     1
 78
     2
176
     1
 67
     7
176
     1
 79
     5
176
     1
170
     0
176
     1
171
     0
176
     1
290
     0
176
     1
 93
        1
176
     1
 44
0.0
176
     1
173
     0
176
     1
  0
VISUALSTYLE
  5
36
102
{ACAD_REACTORS
330
2A
102
}
330
2A
100
AcDbVisualStyle
  2
Brighten
 70
    12
177
     2
291
     1
 71
     2
176
     1
 72
     2
176
     1
 73
     0
176
     1
 90
        0
176
     1
 40
-0.6
176
     1
 41
-30.0
176
     1
 62
     5
 63
     7
421
 16777215
176
     1
 74
     1
176
     1
 91
        4
176
     1
 64
     7
176
     1
 65
   257
176
     1
 75
     1
176
     1
175
     1
176
     1
 42
1.0
176
     1
 92
        8
176
     1
 66
     7
176
     1
 43
1.0
176
     1
 76
     1
176
     1
 77
     6
176
     1
 78
     2
176
     1
 67
     7
176
     1
 79
     5
176
     1
170
     0
176
     1
171
     0
176
     1
290
     0
176
     1
 93
        1
176
     1
 44
50.0
176
     1
173
     0
176
     1
  0
VISUALSTYLE
  5
3A
102
{ACAD_REACTORS
330
2A
102
}
330
2A
100
AcDbVisualStyle
  2
ColorChange
 70
    16
177
     2
291
     1
 71
     2
176
     1
 72
     2
176
     1
 73
     3
176
     1
 90
        0
176
     1
 40
-0.6
176
     1
 41
-30.0
176
     1
 62
     5
 63
     8
421
  8421504
176
     1
 74
     1
176
     1
 91
        4
176
     1
 64
     7
176
     1
 65
   257
176
     1
 75
     1
176
     1
175
     1
176
     1
 42
1.0
176
     1
 92
        8
176
     1
 66
     8
424
  8421504
176
     1
 43
1.0
176
     1
 76
     1
176
     1
 77
     6
176
     1
 78
     2
176
     1
 67
     7
176
     1
 79
     5
176
     1
170
     0
176
     1
171
     0
176
     1
290
     0
176
     1
 93
        1
176
     1
 44
0.0
176
     1
173
     0
176
     1
  0
VISUALSTYLE
  5
34
102
{ACAD_REACTORS
330
2A
102
}
330
2A
100
AcDbVisualStyle
  2
Conceptual
 70
     9
177
     2
291
     0
 71
     3
176
     1
 72
     2
176
     1
 73
     0
176
     1
 90
        0
176
     1
 40
-0.6
176
     1
 41
-30.0
176
     1
 62
     5
 63
     7
421
 16777215
176
     1
 74
     2
176
     1
 91
        2
176
     1
 64
     7
176
     1
 65
   257
176
     1
 75
     1
176
     1
175
     1
176
     1
 42
40.0
176
     1
 92
        8
176
     1
 66
     7
176
     1
 43
1.0
176
     1
 76
     1
176
     1
 77
     6
176
     1
 78
     2
176
     1
 67
     7
176
     1
 79
     3
176
     1
170
     0
176
     1
171
     0
176
     1
290
     0
176
     1
 93
        1
176
     1
 44
0.0
176
     1
173
     0
176
     1
  0
VISUALSTYLE
  5
35
102
{ACAD_REACTORS
330
2A
102
}
330
2A
100
AcDbVisualStyle
  2
Dim
 70
    11
177
     2
291
     1
 71
     2
176
     1
 72
     2
176
     1
 73
     0
176
     1
 90
        0
176
     1
 40
-0.6
176
     1
 41
-30.0
176
     1
 62
     5
 63
     7
421
 16777215
176
     1
 74
     1
176
     1
 91
        4
176
     1
 64
     7
176
     1
 65
   257
176
     1
 75
     1
176
     1
175
     1
176
     1
 42
1.0
176
     1
 92
        8
176
     1
 66
     7
176
     1
 43
1.0
176
     1
 76
     1
176
     1
 77
     6
176
     1
 78
     2
176
     1
 67
     7
176
     1
 79
     5
176
     1
170
     0
176
     1
171
     0
176
     1
290
     0
176
     1
 93
        1
176
     1
 44
-50.0
176
     1
173
     0
176
     1
  0
VISUALSTYLE
  5
39
102
{ACAD_REACTORS
330
2A
102
}
330
2A
100
AcDbVisualStyle
  2
Facepattern
 70
    15
177
     2
291
     1
 71
     2
176
     1
 72
     2
176
     1
 73
     0
176
     1
 90
        0
176
     1
 40
-0.6
176
     1
 41
-30.0
176
     1
 62
     5
 63
     7
421
 16777215
176
     1
 74
     1
176
     1
 91
        4
176
     1
 64
     7
176
     1
 65
   257
176
     1
 75
     1
176
     1
175
     1
176
     1
 42
1.0
176
     1
 92
        8
176
     1
 66
     7
176
     1
 43
1.0
176
     1
 76
     1
176
     1
 77
     6
176
     1
 78
     2
176
     1
 67
     7
176
     1
 79
     5
176
     1
170
     0
176
     1
171
     0
176
     1
290
     0
176
     1
 93
        1
176
     1
 44
0.0
176
     1
173
     0
176
     1
  0
VISUALSTYLE
  5
2B
102
{ACAD_REACTORS
330
2A
102
}
330
2A
100
AcDbVisualStyle
  2
Flat
 70
     0
177
     2
291
     1
 71
     2
176
     1
 72
     1
176
     1
 73
     1
176
     1
 90
        2
176
     1
 40
-0.6
176
     1
 41
30.0
176
     1
 62
     5
 63
     7
421
 16777215
176
     1
 74
     0
176
     1
 91
        4
176
     1
 64
     7
176
     1
 65
   257
176
     1
 75
     1
176
     1
175
     1
176
     1
 42
1.0
176
     1
 92
        8
176
     1
 66
     7
176
     1
 43
1.0
176
     1
 76
     1
176
     1
 77
     6
176
     1
 78
     2
176
     1
 67
     7
176
     1
 79
     5
176
     1
170
     0
176
     1
171
     0
176
     1
290
     0
176
     1
 93
       13
176
     1
 44
0.0
176
     1
173
     0
176
     1
  0
VISUALSTYLE
  5
2C
102
{ACAD_REACTORS
330
2A
102
}
330
2A
100
AcDbVisualStyle
  2
FlatWithEdges
 70
     1
177
     2
291
     1
 71
     2
176
     1
 72
     1
176
     1
 73
     1
176
     1
 90
        2
176
     1
 40
-0.6
176
     1
 41
30.0
176
     1
 62
     5
 63
     7
421
 16777215
176
     1
 74
     1
176
     1
 91
        4
176
     1
 64
     7
176
     1
 65
   257
176
     1
 75
     1
176
     1
175
     1
176
     1
 42
1.0
176
     1
 92
        0
176
     1
 66
   257
176
     1
 43
1.0
176
     1
 76
     1
176
     1
 77
     6
176
     1
 78
     2
176
     1
 67
     7
176
     1
 79
     5
176
     1
170
     0
176
     1
171
     0
176
     1
290
     0
176
     1
 93
       13
176
     1
 44
0.0
176
     1
173
     0
176
     1
  0
VISUALSTYLE
  5
2D
102
{ACAD_REACTORS
330
2A
102
}
330
2A
100
AcDbVisualStyle
  2
Gouraud
 70
     2
177
     2
291
     1
 71
     2
176
     1
 72
     2
176
     1
 73
     1
176
     1
 90
        2
176
     1
 40
-0.6
176
     1
 41
30.0
176
     1
 62
     5
 63
     7
421
 16777215
176
     1
 74
     0
176
     1
 91
        4
176
     1
 64
     7
176
     1
 65
   257
176
     1
 75
     1
176
     1
175
     1
176
     1
 42
1.0
176
     1
 92
        0
176
     1
 66
     7
176
     1
 43
1.0
176
     1
 76
     1
176
     1
 77
     6
176
     1
 78
     2
176
     1
 67
     7
176
     1
 79
     5
176
     1
170
     0
176
     1
171
     0
176
     1
290
     0
176
     1
 93
       13
176
     1
 44
0.0
176
     1
173
     0
176
     1
  0
VISUALSTYLE
  5
2E
102
{ACAD_REACTORS
330
2A
102
}
330
2A
100
AcDbVisualStyle
  2
GouraudWithEdges
 70
     3
177
     2
291
     1
 71
     2
176
     1
 72
     2
176
     1
 73
     1
176
     1
 90
        2
176
     1
 40
-0.6
176
     1
 41
30.0
176
     1
 62
     5
 63
     7
421
 16777215
176
     1
 74
     1
176
     1
 91
        4
176
     1
 64
     7
176
     1
 65
   257
176
     1
 75
     1
176
     1
175
     1
176
     1
 42
1.0
176
     1
 92
        0
176
     1
 66
   257
176
     1
 43
1.0
176
     1
 76
     1
176
     1
 77
     6
176
     1
 78
     2
176
     1
 67
     7
176
     1
 79
     5
176
     1
170
     0
176
     1
171
     0
176
     1
290
     0
176
     1
 93
       13
176
     1
 44
0.0
176
     1
173
     0
176
     1
  0
VISUALSTYLE
  5
38
102
{ACAD_REACTORS
330
2A
102
}
330
2A
100
AcDbVisualStyle
  2
Linepattern
 70
    14
177
     2
291
     1
 71
     2
176
     1
 72
     2
176
     1
 73
     0
176
     1
 90
        0
176
     1
 40
-0.6
176
     1
 41
-30.0
176
     1
 62
     5
 63
     7
421
 16777215
176
     1
 74
     1
176
     1
 91
        4
176
     1
 64
     7
176
     1
 65
   257
176
     1
 75
     7
176
     1
175
     7
176
     1
 42
1.0
176
     1
 92
        8
176
     1
 66
     7
176
     1
 43
1.0
176
     1
 76
     1
176
     1
 77
     6
176
     1
 78
     2
176
     1
 67
     7
176
     1
 79
     5
176
     1
170
     0
176
     1
171
     0
176
     1
290
     0
176
     1
 93
        1
176
     1
 44
0.0
176
     1
173
     0
176
     1
  0
VISUALSTYLE
  5
33
102
{ACAD_REACTORS
330
2A
102
}
330
2A
100
AcDbVisualStyle
  2
Realistic
 70
     8
177
     2
291
     0
 71
     2
176
     1
 72
     2
176
     1
 73
     0
176
     1
 90
        0
176
     1
 40
-0.6
176
     1
 41
-30.0
176
     1
 62
     5
 63
     7
421
 16777215
176
     1
 74
     1
176
     1
 91
        0
176
     1
 64
     7
176
     1
 65
   257
176
     1
 75
     1
176
     1
175
     1
176
     1
 42
1.0
176
     1
 92
        8
176
     1
 66
     8
424
  7895160
176
     1
 43
1.0
176
     1
 76
     1
176
     1
 77
     6
176
     1
 78
     2
176
     1
 67
     7
176
     1
 79
     5
176
     1
170
     0
176
     1
171
     0
176
     1
290
     0
176
     1
 93
       13
176
     1
 44
0.0
176
     1
173
     0
176
     1
  0
VISUALSTYLE
  5
37
102
{ACAD_REACTORS
330
2A
102
}
330
2A
100
AcDbVisualStyle
  2
Thicken
 70
    13
177
     2
291
     1
 71
     2
176
     1
 72
     2
176
     1
 73
     0
176
     1
 90
        0
176
     1
 40
-0.6
176
     1
 41
-30.0
176
     1
 62
     5
 63
     7
421
 16777215
176
     1
 74
     1
176
     1
 91
        4
176
     1
 64
     7
176
     1
 65
   257
176
     1
 75
     1
176
     1
175
     1
176
     1
 42
1.0
176
     1
 92
       12
176
     1
 66
     7
176
     1
 43
1.0
176
     1
 76
     1
176
     1
 77
     6
176
     1
 78
     2
176
     1
 67
     7
176
     1
 79
     5
176
     1
170
     0
176
     1
171
     0
176
     1
290
     0
176
     1
 93
        1
176
     1
 44
0.0
176
     1
173
     0
176
     1
  0
ENDSEC
  0
EOF
