  0
SECTION
  2
HEADER
  9
$ACADVER
  1
AC1018
  9
$ACADMAINTVER
 70
     0
  9
$DWGCODEPAGE
  3
ANSI_936
  9
$INSBASE
 10
0.0
 20
0.0
 30
0.0
  9
$EXTMIN
 10
1.000000000000000E+20
 20
1.000000000000000E+20
 30
1.000000000000000E+20
  9
$EXTMAX
 10
-1.000000000000000E+20
 20
-1.000000000000000E+20
 30
-1.000000000000000E+20
  9
$LIMMIN
 10
0.0
 20
0.0
  9
$LIMMAX
 10
12.0
 20
9.0
  9
$ORTHOMODE
 70
     0
  9
$REGENMODE
 70
     1
  9
$FILLMODE
 70
     1
  9
$QTEXTMODE
 70
     0
  9
$MIRRTEXT
 70
     1
  9
$LTSCALE
 40
1.0
  9
$ATTMODE
 70
     1
  9
$TEXTSIZE
 40
0.2
  9
$TRACEWID
 40
0.05
  9
$TEXTSTYLE
  7
Standard
  9
$CLAYER
  8
0
  9
$CELTYPE
  6
ByLayer
  9
$CECOLOR
 62
   256
  9
$CELTSCALE
 40
1.0
  9
$DISPSILH
 70
     0
  9
$DIMSCALE
 40
1.0
  9
$DIMASZ
 40
0.18
  9
$DIMEXO
 40
0.0625
  9
$DIMDLI
 40
0.38
  9
$DIMRND
 40
0.0
  9
$DIMDLE
 40
0.0
  9
$DIMEXE
 40
0.18
  9
$DIMTP
 40
0.0
  9
$DIMTM
 40
0.0
  9
$DIMTXT
 40
0.18
  9
$DIMCEN
 40
0.09
  9
$DIMTSZ
 40
0.0
  9
$DIMTOL
 70
     0
  9
$DIMLIM
 70
     0
  9
$DIMTIH
 70
     1
  9
$DIMTOH
 70
     1
  9
$DIMSE1
 70
     0
  9
$DIMSE2
 70
     0
  9
$DIMTAD
 70
     0
  9
$DIMZIN
 70
     0
  9
$DIMBLK
  1

  9
$DIMASO
 70
     1
  9
$DIMSHO
 70
     1
  9
$DIMPOST
  1

  9
$DIMAPOST
  1

  9
$DIMALT
 70
     0
  9
$DIMALTD
 70
     2
  9
$DIMALTF
 40
25.4
  9
$DIMLFAC
 40
1.0
  9
$DIMTOFL
 70
     0
  9
$DIMTVP
 40
0.0
  9
$DIMTIX
 70
     0
  9
$DIMSOXD
 70
     0
  9
$DIMSAH
 70
     0
  9
$DIMBLK1
  1

  9
$DIMBLK2
  1

  9
$DIMSTYLE
  2
STANDARD_ACAD
  9
$DIMCLRD
 70
     0
  9
$DIMCLRE
 70
     0
  9
$DIMCLRT
 70
     0
  9
$DIMTFAC
 40
1.0
  9
$DIMGAP
 40
0.09
  9
$DIMJUST
 70
     0
  9
$DIMSD1
 70
     0
  9
$DIMSD2
 70
     0
  9
$DIMTOLJ
 70
     1
  9
$DIMTZIN
 70
     0
  9
$DIMALTZ
 70
     0
  9
$DIMALTTZ
 70
     0
  9
$DIMUPT
 70
     0
  9
$DIMDEC
 70
     4
  9
$DIMTDEC
 70
     4
  9
$DIMALTU
 70
     2
  9
$DIMALTTD
 70
     2
  9
$DIMTXSTY
  7
Standard
  9
$DIMAUNIT
 70
     0
  9
$DIMADEC
 70
     0
  9
$DIMALTRND
 40
0.0
  9
$DIMAZIN
 70
     0
  9
$DIMDSEP
 70
    46
  9
$DIMATFIT
 70
     3
  9
$DIMFRAC
 70
     0
  9
$DIMLDRBLK
  1

  9
$DIMLUNIT
 70
     2
  9
$DIMLWD
 70
    -2
  9
$DIMLWE
 70
    -2
  9
$DIMTMOVE
 70
     2
  9
$LUNITS
 70
     2
  9
$LUPREC
 70
     3
  9
$SKETCHINC
 40
0.1
  9
$FILLETRAD
 40
0.5
  9
$AUNITS
 70
     0
  9
$AUPREC
 70
     0
  9
$MENU
  1
.
  9
$ELEVATION
 40
0.0
  9
$PELEVATION
 40
0.0
  9
$THICKNESS
 40
0.0
  9
$LIMCHECK
 70
     0
  9
$CHAMFERA
 40
0.0
  9
$CHAMFERB
 40
0.0
  9
$CHAMFERC
 40
0.0
  9
$CHAMFERD
 40
0.0
  9
$SKPOLY
 70
     0
  9
$TDCREATE
 40
2458609.037482743
  9
$TDUCREATE
 40
2458608.70414941
  9
$TDUPDATE
 40
2458609.037482766
  9
$TDUUPDATE
 40
2458608.704149433
  9
$TDINDWG
 40
0.0000000116
  9
$TDUSRTIMER
 40
0.0000000116
  9
$USRTIMER
 70
     1
  9
$ANGBASE
 50
0.0
  9
$ANGDIR
 70
     0
  9
$PDMODE
 70
     0
  9
$PDSIZE
 40
0.0
  9
$PLINEWID
 40
0.0
  9
$SPLFRAME
 70
     0
  9
$SPLINETYPE
 70
     6
  9
$SPLINESEGS
 70
     8
  9
$HANDSEED
  5
20C
  9
$SURFTAB1
 70
     6
  9
$SURFTAB2
 70
     6
  9
$SURFTYPE
 70
     6
  9
$SURFU
 70
     6
  9
$SURFV
 70
     6
  9
$UCSBASE
  2

  9
$UCSNAME
  2

  9
$UCSORG
 10
0.0
 20
0.0
 30
0.0
  9
$UCSXDIR
 10
1.0
 20
0.0
 30
0.0
  9
$UCSYDIR
 10
0.0
 20
1.0
 30
0.0
  9
$UCSORTHOREF
  2

  9
$UCSORTHOVIEW
 70
     0
  9
$UCSORGTOP
 10
0.0
 20
0.0
 30
0.0
  9
$UCSORGBOTTOM
 10
0.0
 20
0.0
 30
0.0
  9
$UCSORGLEFT
 10
0.0
 20
0.0
 30
0.0
  9
$UCSORGRIGHT
 10
0.0
 20
0.0
 30
0.0
  9
$UCSORGFRONT
 10
0.0
 20
0.0
 30
0.0
  9
$UCSORGBACK
 10
0.0
 20
0.0
 30
0.0
  9
$PUCSBASE
  2

  9
$PUCSNAME
  2

  9
$PUCSORG
 10
0.0
 20
0.0
 30
0.0
  9
$PUCSXDIR
 10
1.0
 20
0.0
 30
0.0
  9
$PUCSYDIR
 10
0.0
 20
1.0
 30
0.0
  9
$PUCSORTHOREF
  2

  9
$PUCSORTHOVIEW
 70
     0
  9
$PUCSORGTOP
 10
0.0
 20
0.0
 30
0.0
  9
$PUCSORGBOTTOM
 10
0.0
 20
0.0
 30
0.0
  9
$PUCSORGLEFT
 10
0.0
 20
0.0
 30
0.0
  9
$PUCSORGRIGHT
 10
0.0
 20
0.0
 30
0.0
  9
$PUCSORGFRONT
 10
0.0
 20
0.0
 30
0.0
  9
$PUCSORGBACK
 10
0.0
 20
0.0
 30
0.0
  9
$USERI1
 70
     0
  9
$USERI2
 70
     0
  9
$USERI3
 70
     0
  9
$USERI4
 70
     0
  9
$USERI5
 70
     0
  9
$USERR1
 40
0.0
  9
$USERR2
 40
0.0
  9
$USERR3
 40
0.0
  9
$USERR4
 40
0.0
  9
$USERR5
 40
0.0
  9
$WORLDVIEW
 70
     1
  9
$SHADEDGE
 70
     3
  9
$SHADEDIF
 70
    70
  9
$TILEMODE
 70
     1
  9
$MAXACTVP
 70
    64
  9
$PINSBASE
 10
0.0
 20
0.0
 30
0.0
  9
$PLIMCHECK
 70
     0
  9
$PEXTMIN
 10
1.000000000000000E+20
 20
1.000000000000000E+20
 30
1.000000000000000E+20
  9
$PEXTMAX
 10
-1.000000000000000E+20
 20
-1.000000000000000E+20
 30
-1.000000000000000E+20
  9
$PLIMMIN
 10
0.0
 20
0.0
  9
$PLIMMAX
 10
12.0
 20
9.0
  9
$UNITMODE
 70
     0
  9
$VISRETAIN
 70
     1
  9
$PLINEGEN
 70
     0
  9
$PSLTSCALE
 70
     1
  9
$TREEDEPTH
 70
  3020
  9
$CMLSTYLE
  2
Standard
  9
$CMLJUST
 70
     0
  9
$CMLSCALE
 40
1.0
  9
$PROXYGRAPHICS
 70
     1
  9
$MEASUREMENT
 70
     0
  9
$CELWEIGHT
370
    -1
  9
$ENDCAPS
280
     0
  9
$JOINSTYLE
280
     0
  9
$LWDISPLAY
290
     0
  9
$INSUNITS
 70
     4
  9
$HYPERLINKBASE
  1

  9
$STYLESHEET
  1

  9
$XEDIT
290
     1
  9
$CEPSNTYPE
380
     0
  9
$PSTYLEMODE
290
     1
  9
$FINGERPRINTGUID
  2
{e51c4a63-df93-4302-af46-92d48a92fa24}
  9
$VERSIONGUID
  2
{FAEB1C32-E019-11D5-929B-00C0DF256EC4}
  9
$EXTNAMES
290
     1
  9
$PSVPSCALE
 40
0.0
  9
$OLESTARTUP
290
     0
  9
$SORTENTS
280
   127
  9
$INDEXCTL
280
     0
  9
$HIDETEXT
280
     1
  9
$XCLIPFRAME
290
     0
  9
$HALOGAP
280
     0
  9
$OBSCOLOR
 70
   257
  9
$OBSLTYPE
280
     0
  9
$INTERSECTIONDISPLAY
280
     0
  9
$INTERSECTIONCOLOR
 70
   257
  9
$DIMASSOC
280
     2
  9
$PROJECTNAME
  1

  0
ENDSEC
  0
SECTION
  2
CLASSES
  0
CLASS
  1
ACDBDICTIONARYWDFLT
  2
AcDbDictionaryWithDefault
  3
ObjectDBX Classes
 90
        0
 91
        3
280
     0
281
     0
  0
CLASS
  1
VISUALSTYLE
  2
AcDbVisualStyle
  3
ObjectDBX Classes
 90
     4095
 91
        3
280
     0
281
     0
  0
CLASS
  1
MATERIAL
  2
AcDbMaterial
  3
ObjectDBX Classes
 90
     1153
 91
        3
280
     0
281
     0
  0
CLASS
  1
SCALE
  2
AcDbScale
  3
ObjectDBX Classes
 90
     1153
 91
        3
280
     0
281
     0
  0
CLASS
  1
TABLESTYLE
  2
AcDbTableStyle
  3
ObjectDBX Classes
 90
     4095
 91
        3
280
     0
281
     0
  0
CLASS
  1
MLEADERSTYLE
  2
AcDbMLeaderStyle
  3
ACDB_MLEADERSTYLE_CLASS
 90
     4095
 91
        3
280
     0
281
     0
  0
CLASS
  1
SUN
  2
AcDbSun
  3
SCENEOE
 90
     1153
 91
        3
280
     0
281
     0
  0
CLASS
  1
DICTIONARYVAR
  2
AcDbDictionaryVar
  3
ObjectDBX Classes
 90
        0
 91
        3
280
     0
281
     0
  0
CLASS
  1
CELLSTYLEMAP
  2
AcDbCellStyleMap
  3
ObjectDBX Classes
 90
     1152
 91
        3
280
     0
281
     0
  0
ENDSEC
  0
SECTION
  2
TABLES
  0
TABLE
  2
VPORT
  5
8
102
{ACAD_XDICTIONARY
360
1C5
102
}
330
0
100
AcDbSymbolTable
 70
     1
  0
VPORT
  5
29
330
8
100
AcDbSymbolTableRecord
100
AcDbViewportTableRecord
  2
*Active
 70
     0
 10
0.0
 20
0.0
 11
1.0
 21
1.0
 12
10.42990654205607
 22
4.5
 13
0.0
 23
0.0
 14
0.5
 24
0.5
 15
0.5
 25
0.5
 16
0.0
 26
0.0
 36
1.0
 17
0.0
 27
0.0
 37
0.0
 40
9.0
 41
1.972972972850329
 42
50.0
 43
0.0
 44
0.0
 50
0.0
 51
0.0
 71
     0
 72
   100
 73
     1
 74
     3
 75
     0
 76
     0
 77
     0
 78
     0
281
     0
 65
     1
110
0.0
120
0.0
130
0.0
111
1.0
121
0.0
131
0.0
112
0.0
122
1.0
132
0.0
 79
     0
146
0.0
  0
ENDTAB
  0
TABLE
  2
LTYPE
  5
5
330
0
100
AcDbSymbolTable
 70
     1
  0
LTYPE
  5
14
330
5
100
AcDbSymbolTableRecord
100
AcDbLinetypeTableRecord
  2
ByBlock
 70
     0
  3

 72
    65
 73
     0
 40
0.0
  0
LTYPE
  5
15
330
5
100
AcDbSymbolTableRecord
100
AcDbLinetypeTableRecord
  2
ByLayer
 70
     0
  3

 72
    65
 73
     0
 40
0.0
  0
LTYPE
  5
16
330
5
100
AcDbSymbolTableRecord
100
AcDbLinetypeTableRecord
  2
Continuous
 70
     0
  3
Solid line
 72
    65
 73
     0
 40
0.0
  0
ENDTAB
  0
TABLE
  2
LAYER
  5
2
330
0
100
AcDbSymbolTable
 70
     2
  0
LAYER
  5
10
330
2
100
AcDbSymbolTableRecord
100
AcDbLayerTableRecord
  2
0
 70
     0
 62
     7
  6
Continuous
370
    -3
390
F
  0
LAYER
  5
6E
330
2
100
AcDbSymbolTableRecord
100
AcDbLayerTableRecord
  2
Make2D$Visible$Curves
 70
     0
 62
    18
420
        0
  6
Continuous
370
    -3
390
F
  0
ENDTAB
  0
TABLE
  2
STYLE
  5
3
330
0
100
AcDbSymbolTable
 70
     1
  0
STYLE
  5
11
330
3
100
AcDbSymbolTableRecord
100
AcDbTextStyleTableRecord
  2
Standard
 70
     0
 40
0.0
 41
1.0
 50
0.0
 71
     0
 42
0.2
  3
txt
  4

  0
ENDTAB
  0
TABLE
  2
VIEW
  5
6
330
0
100
AcDbSymbolTable
 70
     0
  0
ENDTAB
  0
TABLE
  2
UCS
  5
7
330
0
100
AcDbSymbolTable
 70
     0
  0
ENDTAB
  0
TABLE
  2
APPID
  5
9
330
0
100
AcDbSymbolTable
 70
     2
  0
APPID
  5
12
330
9
100
AcDbSymbolTableRecord
100
AcDbRegAppTableRecord
  2
ACAD
 70
     0
  0
APPID
  5
204
330
9
100
AcDbSymbolTableRecord
100
AcDbRegAppTableRecord
  2
ACAD_MLEADERVER
 70
     0
  0
ENDTAB
  0
TABLE
  2
DIMSTYLE
  5
A
330
0
100
AcDbSymbolTable
 70
     1
100
AcDbDimStyleTable
  0
DIMSTYLE
105
27
330
A
100
AcDbSymbolTableRecord
100
AcDbDimStyleTableRecord
  2
STANDARD_ACAD
 70
     0
178
     0
340
11
  0
ENDTAB
  0
TABLE
  2
BLOCK_RECORD
  5
1
330
0
100
AcDbSymbolTable
 70
     1
  0
BLOCK_RECORD
  5
1F
330
1
100
AcDbSymbolTableRecord
100
AcDbBlockTableRecord
  2
*Model_Space
340
22
  0
BLOCK_RECORD
  5
1B
330
1
100
AcDbSymbolTableRecord
100
AcDbBlockTableRecord
  2
*Paper_Space
340
1E
  0
BLOCK_RECORD
  5
23
330
1
100
AcDbSymbolTableRecord
100
AcDbBlockTableRecord
  2
*Paper_Space0
340
26
  0
ENDTAB
  0
ENDSEC
  0
SECTION
  2
BLOCKS
  0
BLOCK
  5
20
330
1F
100
AcDbEntity
  8
0
100
AcDbBlockBegin
  2
*Model_Space
 70
     0
 10
0.0
 20
0.0
 30
0.0
  3
*Model_Space
  1

  0
ENDBLK
  5
21
330
1F
100
AcDbEntity
  8
0
100
AcDbBlockEnd
  0
BLOCK
  5
1C
330
1B
100
AcDbEntity
 67
     1
  8
0
100
AcDbBlockBegin
  2
*Paper_Space
 70
     0
 10
0.0
 20
0.0
 30
0.0
  3
*Paper_Space
  1

  0
ENDBLK
  5
1D
330
1B
100
AcDbEntity
 67
     1
  8
0
100
AcDbBlockEnd
  0
BLOCK
  5
24
330
23
100
AcDbEntity
  8
0
100
AcDbBlockBegin
  2
*Paper_Space0
 70
     0
 10
0.0
 20
0.0
 30
0.0
  3
*Paper_Space0
  1

  0
ENDBLK
  5
25
330
23
100
AcDbEntity
  8
0
100
AcDbBlockEnd
  0
ENDSEC
  0
SECTION
  2
ENTITIES
  0
LINE
  5
6F
330
1F
100
AcDbEntity
  8
Make2D$Visible$Curves
 62
    18
420
        0
370
    -3
100
AcDbLine
 10
-193.9988816954966
 20
1029.372026489291
 30
0.0
 11
-191.9555718922033
 21
1029.372026489291
 31
0.0
  0
POLYLINE
  5
70
330
1F
100
AcDbEntity
  8
Make2D$Visible$Curves
 62
    18
420
        0
370
    -3
100
AcDb2dPolyline
 66
     1
 10
0.0
 20
0.0
 30
0.0
  0
VERTEX
  5
71
330
70
100
AcDbEntity
  8
Make2D$Visible$Curves
 62
    18
420
        0
370
    -3
100
AcDbVertex
100
AcDb2dVertex
 10
-0.0000002563977546
 20
1079.123892608855
 30
0.0
  0
VERTEX
  5
72
330
70
100
AcDbEntity
  8
Make2D$Visible$Curves
 62
    18
420
        0
370
    -3
100
AcDbVertex
100
AcDb2dVertex
 10
13.8139705677815
 20
1079.120666321367
 30
0.0
  0
VERTEX
  5
73
330
70
100
AcDbEntity
  8
Make2D$Visible$Curves
 62
    18
420
        0
370
    -3
100
AcDbVertex
100
AcDb2dVertex
 10
29.47020461918902
 20
1079.10309770843
 30
0.0
  0
VERTEX
  5
74
330
70
100
AcDbEntity
  8
Make2D$Visible$Curves
 62
    18
420
        0
370
    -3
100
AcDbVertex
100
AcDb2dVertex
 10
45.12636676531775
 20
1079.063572663988
 30
0.0
  0
VERTEX
  5
75
330
70
100
AcDbEntity
  8
Make2D$Visible$Curves
 62
    18
420
        0
370
    -3
100
AcDbVertex
100
AcDb2dVertex
 10
60.78286860324766
 20
1078.994040190941
 30
0.0
  0
VERTEX
  5
76
330
70
100
AcDbEntity
  8
Make2D$Visible$Curves
 62
    18
420
        0
370
    -3
100
AcDbVertex
100
AcDb2dVertex
 10
76.44090950920946
 20
1078.886435486027
 30
0.0
  0
VERTEX
  5
77
330
70
100
AcDbEntity
  8
Make2D$Visible$Curves
 62
    18
420
        0
370
    -3
100
AcDbVertex
100
AcDb2dVertex
 10
92.10258867303804
 20
1078.732671896927
 30
0.0
  0
VERTEX
  5
78
330
70
100
AcDbEntity
  8
Make2D$Visible$Curves
 62
    18
420
        0
370
    -3
100
AcDbVertex
100
AcDb2dVertex
 10
107.7712792701948
 20
1078.524629034335
 30
0.0
  0
VERTEX
  5
79
330
70
100
AcDbEntity
  8
Make2D$Visible$Curves
 62
    18
420
        0
370
    -3
100
AcDbVertex
100
AcDb2dVertex
 10
123.45253914397
 20
1078.254131802008
 30
0.0
  0
VERTEX
  5
7A
330
70
100
AcDbEntity
  8
Make2D$Visible$Curves
 62
    18
420
        0
370
    -3
100
AcDbVertex
100
AcDb2dVertex
 10
130.5077060351659
 20
1078.110003102571
 30
0.0
  0
VERTEX
  5
7B
330
70
100
AcDbEntity
  8
Make2D$Visible$Curves
 62
    18
420
        0
370
    -3
100
AcDbVertex
100
AcDb2dVertex
 10
139.1562548522476
 20
1077.91291032068
 30
0.0
  0
VERTEX
  5
7C
330
70
100
AcDbEntity
  8
Make2D$Visible$Curves
 62
    18
420
        0
370
    -3
100
AcDbVertex
100
AcDb2dVertex
 10
154.9021426649893
 20
1077.492524418398
 30
0.0
  0
VERTEX
  5
7D
330
70
100
AcDbEntity
  8
Make2D$Visible$Curves
 62
    18
420
        0
370
    -3
100
AcDbVertex
100
AcDb2dVertex
 10
162.0943887038779
 20
1077.272592163412
 30
0.0
  0
VERTEX
  5
7E
330
70
100
AcDbEntity
  8
Make2D$Visible$Curves
 62
    18
420
        0
370
    -3
100
AcDbVertex
100
AcDb2dVertex
 10
170.7365420487935
 20
1076.984292407986
 30
0.0
  0
VERTEX
  5
7F
330
70
100
AcDbEntity
  8
Make2D$Visible$Curves
 62
    18
420
        0
370
    -3
100
AcDbVertex
100
AcDb2dVertex
 10
174.6473465906749
 20
1076.845178508956
 30
0.0
  0
VERTEX
  5
80
330
70
100
AcDbEntity
  8
Make2D$Visible$Curves
 62
    18
420
        0
370
    -3
100
AcDbVertex
100
AcDb2dVertex
 10
181.5367451301245
 20
1076.587488942372
 30
0.0
  0
VERTEX
  5
81
330
70
100
AcDbEntity
  8
Make2D$Visible$Curves
 62
    18
420
        0
370
    -3
100
AcDbVertex
100
AcDb2dVertex
 10
184.8727851694372
 20
1076.456661495497
 30
0.0
  0
SEQEND
  5
82
330
70
100
AcDbEntity
  8
Make2D$Visible$Curves
 62
    18
420
        0
370
    -3
  0
LINE
  5
83
330
1F
100
AcDbEntity
  8
Make2D$Visible$Curves
 62
    18
420
        0
370
    -3
100
AcDbLine
 10
191.9555718921998
 20
1029.372026489291
 30
0.0
 11
193.9988816954929
 21
1029.372026489291
 31
0.0
  0
LINE
  5
84
330
1F
100
AcDbEntity
  8
Make2D$Visible$Curves
 62
    18
420
        0
370
    -3
100
AcDbLine
 10
126.0893039810225
 20
1024.554211834271
 30
0.0
 11
126.476847801956
 21
1026.372026489291
 31
0.0
  0
SPLINE
  5
85
330
1F
100
AcDbEntity
  8
Make2D$Visible$Curves
 62
    18
420
        0
370
    -3
100
AcDbSpline
210
0.0
220
0.0
230
1.0
 70
     8
 71
     3
 72
    35
 73
    31
 74
     0
 42
0.000000001
 43
0.0000000001
 40
2.858056561323085
 40
2.858056561323085
 40
2.858056561323085
 40
2.858056561323085
 40
18.49306251718354
 40
18.49306251718354
 40
18.49306251718354
 40
24.65611931214817
 40
24.65611931214817
 40
24.65611931214817
 40
36.93157993063045
 40
36.93157993063045
 40
36.93157993063045
 40
55.30241335427124
 40
55.30241335427124
 40
55.30241335427124
 40
64.43849329400923
 40
64.43849329400923
 40
64.43849329400923
 40
73.56425719043828
 40
73.56425719043828
 40
73.56425719043828
 40
91.87434356198135
 40
91.87434356198135
 40
91.87434356198135
 40
110.2143237586244
 40
110.2143237586244
 40
110.2143237586244
 40
128.5954153363586
 40
128.5954153363586
 40
128.5954153363586
 40
144.1697022997647
 40
144.1697022997647
 40
144.1697022997647
 40
144.1697022997647
 10
122.6344477216402
 20
1014.463358015288
 30
0.0
 10
122.1086328829286
 20
1014.36814465269
 30
0.0
 10
121.4943144306375
 20
1014.270603221725
 30
0.0
 10
120.7590495541019
 20
1014.178372302384
 30
0.0
 10
120.4673625682885
 20
1014.14178336726
 30
0.0
 10
120.1515369092495
 20
1014.105246861931
 30
0.0
 10
119.8061454659076
 20
1014.069234587718
 30
0.0
 10
119.1183380748675
 20
1013.997520279547
 30
0.0
 10
118.3033410407655
 20
1013.926853652985
 30
0.0
 10
117.2981574771385
 20
1013.858045093599
 30
0.0
 10
115.7967389992406
 20
1013.755267405824
 30
0.0
 10
113.8591125810755
 20
1013.655533539073
 30
0.0
 10
111.2631744232988
 20
1013.561451270885
 30
0.0
 10
109.9711499047042
 20
1013.514625580166
 30
0.0
 10
108.5172524920802
 20
1013.469252596027
 30
0.0
 10
106.8940760188893
 20
1013.425726556859
 30
0.0
 10
105.2729037113338
 20
1013.382254260127
 30
0.0
 10
103.4853082822831
 20
1013.34069070511
 30
0.0
 10
101.5456672260735
 20
1013.301240379864
 30
0.0
 10
97.6598446360727
 20
1013.222206702805
 30
0.0
 10
93.17524138026937
 20
1013.151878906472
 30
0.0
 10
88.3071644904839
 20
1013.090566300205
 30
0.0
 10
83.42044330912262
 20
1013.029018872185
 30
0.0
 10
78.14574430324188
 20
1012.976550837106
 30
0.0
 10
72.66548334052737
 20
1012.931573522219
 30
0.0
 10
67.16499354781826
 20
1012.886430186278
 30
0.0
 10
61.45190504409305
 20
1012.848790914461
 30
0.0
 10
55.63899670110214
 20
1012.816697925969
 30
0.0
 10
50.71136811383639
 20
1012.789492555021
 30
0.0
 10
45.70354368100317
 20
1012.766226701206
 30
0.0
 10
40.64887324686396
 20
1012.746585248504
 30
0.0
  0
SPLINE
  5
86
330
1F
100
AcDbEntity
  8
Make2D$Visible$Curves
 62
    18
420
        0
370
    -3
100
AcDbSpline
210
0.0
220
0.0
230
1.0
 70
     8
 71
     3
 72
     8
 73
     4
 74
     0
 42
0.000000001
 43
0.0000000001
 40
50.31543509598059
 40
50.31543509598059
 40
50.31543509598059
 40
50.31543509598059
 40
104.635654514031
 40
104.635654514031
 40
104.635654514031
 40
104.635654514031
 10
122.6270596593019
 20
1015.252194375964
 30
0.0
 10
122.6843136066653
 20
1015.555142639729
 30
0.0
 10
121.8888819819603
 20
1015.858136282943
 30
0.0
 10
120.2406839432002
 20
1016.159824655682
 30
0.0
  0
LINE
  5
87
330
1F
100
AcDbEntity
  8
Make2D$Visible$Curves
 62
    18
420
        0
370
    -3
100
AcDbLine
 10
-187.9988819431442
 20
1026.372026489291
 30
0.0
 11
-186.0562675983032
 21
1026.372026489291
 31
0.0
  0
SPLINE
  5
88
330
1F
100
AcDbEntity
  8
Make2D$Visible$Curves
 62
    18
420
        0
370
    -3
100
AcDbSpline
210
0.0
220
0.0
230
1.0
 70
     8
 71
     3
 72
    26
 73
    22
 74
     0
 42
0.000000001
 43
0.0000000001
 40
-139.0303713240191
 40
-139.0303713240191
 40
-139.0303713240191
 40
-139.0303713240191
 40
-130.3409731162679
 40
-121.6515749085167
 40
-112.9621767007655
 40
-104.2727784930143
 40
-95.58338028526313
 40
-91.23868118138753
 40
-86.89398207751195
 40
-82.54928297363635
 40
-78.20458386976075
 40
-73.85988476588516
 40
-69.51518566200956
 40
-60.82578745425836
 40
-52.13638924650716
 40
-47.79169014263157
 40
-43.44699103875598
 40
-34.75759283100478
 40
-26.06819462325358
 40
-17.37879641550239
 40
0.0
 40
0.0
 40
0.0
 40
0.0
 10
-40.28821618179978
 20
1012.769618356833
 30
0.0
 10
-42.93390519187989
 20
1012.779961184016
 30
0.0
 10
-48.17895915948981
 20
1012.802600290626
 30
0.0
 10
-55.91224425657987
 20
1012.842557550932
 30
0.0
 10
-63.54846039777982
 20
1012.889309445105
 30
0.0
 10
-71.16529038062987
 20
1012.944942055037
 30
0.0
 10
-77.76761717693984
 20
1013.003263892431
 30
0.0
 10
-83.2701578188998
 20
1013.060959807539
 30
0.0
 10
-87.53536166500982
 20
1013.111548257177
 30
0.0
 10
-91.77510220901985
 20
1013.169028744509
 30
0.0
 10
-95.78746130016981
 20
1013.232056637295
 30
0.0
 10
-99.34405492489981
 20
1013.296732466668
 30
0.0
 10
-103.3889539718999
 20
1013.382186188072
 30
0.0
 10
-107.2389345244998
 20
1013.483904128079
 30
0.0
 10
-110.1598948339999
 20
1013.585420496296
 30
0.0
 10
-112.1373093577999
 20
1013.670022408478
 30
0.0
 10
-113.8977948397998
 20
1013.757193130325
 30
0.0
 10
-115.6814923391999
 20
1013.86811464082
 30
0.0
 10
-117.2900014657999
 20
1014.002648684313
 30
0.0
 10
-118.9193115194999
 20
1014.182950611925
 30
0.0
 10
-119.7739362110999
 20
1014.319509183522
 30
0.0
 10
-120.2732523175999
 20
1014.411544810282
 30
0.0
  0
SPLINE
  5
89
330
1F
100
AcDbEntity
  8
Make2D$Visible$Curves
 62
    18
420
        0
370
    -3
100
AcDbSpline
210
0.0
220
0.0
230
1.0
 70
     8
 71
     3
 72
    26
 73
    22
 74
     0
 42
0.000000001
 43
0.0000000001
 40
0.0
 40
0.0
 40
0.0
 40
0.0
 40
8.689398207751196
 40
17.37879641550239
 40
26.06819462325359
 40
34.75759283100479
 40
43.44699103875598
 40
47.79169014263158
 40
52.13638924650718
 40
56.48108835038278
 40
60.82578745425837
 40
65.17048655813397
 40
69.51518566200957
 40
78.20458386976077
 40
86.89398207751196
 40
91.23868118138756
 40
95.58338028526316
 40
104.2727784930144
 40
112.9621767007656
 40
121.6515749085167
 40
139.0303713240191
 40
139.0303713240191
 40
139.0303713240191
 40
139.0303713240191
 10
40.28821618180012
 20
1012.769618356833
 30
0.0
 10
42.93390519188011
 20
1012.779961184016
 30
0.0
 10
48.17895915949015
 20
1012.802600290626
 30
0.0
 10
55.9122442565801
 20
1012.842557550932
 30
0.0
 10
63.54846039778016
 20
1012.889309445105
 30
0.0
 10
71.16529038063021
 20
1012.944942055037
 30
0.0
 10
77.76761717694018
 20
1013.003263892431
 30
0.0
 10
83.27015781890015
 20
1013.060959807539
 30
0.0
 10
87.53536166501016
 20
1013.111548257177
 30
0.0
 10
91.77510220902019
 20
1013.169028744509
 30
0.0
 10
95.78746130017015
 20
1013.232056637295
 30
0.0
 10
99.34405492490015
 20
1013.296732466668
 30
0.0
 10
103.3889539719002
 20
1013.382186188072
 30
0.0
 10
107.2389345245002
 20
1013.483904128079
 30
0.0
 10
110.1598948340001
 20
1013.585420496296
 30
0.0
 10
112.1373093578001
 20
1013.670022408478
 30
0.0
 10
113.8977948398002
 20
1013.757193130325
 30
0.0
 10
115.6814923392001
 20
1013.86811464082
 30
0.0
 10
117.2900014658001
 20
1014.002648684313
 30
0.0
 10
118.9193115195001
 20
1014.182950611925
 30
0.0
 10
119.7739362111002
 20
1014.319509183522
 30
0.0
 10
120.2732523176001
 20
1014.411544810282
 30
0.0
  0
ARC
  5
8A
330
1F
100
AcDbEntity
  8
Make2D$Visible$Curves
 62
    18
420
        0
370
    -3
100
AcDbCircle
 10
-187.0607827138832
 20
1026.564245367432
 30
0.0
 40
0.2428689213354385
210
0.0
220
0.0
230
-1.0
100
AcDbArc
 50
314.1783264603505
 51
348.1259965301878
  0
LINE
  5
8B
330
1F
100
AcDbEntity
  8
Make2D$Visible$Curves
 62
    18
420
        0
370
    -3
100
AcDbLine
 10
186.056267598301
 20
1026.372026489291
 30
0.0
 11
187.9988819431437
 21
1026.372026489291
 31
0.0
  0
LINE
  5
8C
330
1F
100
AcDbEntity
  8
Make2D$Visible$Curves
 62
    18
420
        0
370
    -3
100
AcDbLine
 10
126.476847801906
 20
1026.372026489284
 30
0.0
 11
128.8254894189113
 21
1026.372026489297
 31
0.0
  0
LINE
  5
8D
330
1F
100
AcDbEntity
  8
Make2D$Visible$Curves
 62
    18
420
        0
370
    -3
100
AcDbLine
 10
74.26538041027136
 20
1026.372026489338
 30
0.0
 11
126.3286258040107
 21
1026.372026489337
 31
0.0
  0
LINE
  5
8E
330
1F
100
AcDbEntity
  8
Make2D$Visible$Curves
 62
    18
420
        0
370
    -3
100
AcDbLine
 10
-126.2771459779002
 20
1026.37202648929
 30
0.0
 11
-74.21390058073753
 21
1026.372026489328
 31
0.0
  0
LINE
  5
8F
330
1F
100
AcDbEntity
  8
Make2D$Visible$Curves
 62
    18
420
        0
370
    -3
100
AcDbLine
 10
-187.9449804743907
 20
1029.372026489291
 30
0.0
 11
-191.8731853718166
 21
1029.372026489291
 31
0.0
  0
LINE
  5
90
330
1F
100
AcDbEntity
  8
Make2D$Visible$Curves
 62
    18
420
        0
370
    -3
100
AcDbLine
 10
187.9695626203128
 20
1029.372026489291
 30
0.0
 11
191.8731853718169
 21
1029.372026489291
 31
0.0
  0
LINE
  5
91
330
1F
100
AcDbEntity
  8
Make2D$Visible$Curves
 62
    18
420
        0
370
    -3
100
AcDbLine
 10
74.26706819801001
 20
1026.477307471039
 30
0.0
 11
69.30305328861738
 21
1026.560320338642
 31
0.0
  0
LINE
  5
92
330
1F
100
AcDbEntity
  8
Make2D$Visible$Curves
 62
    18
420
        0
370
    -3
100
AcDbLine
 10
128.7987841312857
 20
1026.303305362177
 30
0.0
 11
128.3914253471059
 21
1024.192049475794
 31
0.0
  0
LINE
  5
93
330
1F
100
AcDbEntity
  8
Make2D$Visible$Curves
 62
    18
420
        0
370
    -3
100
AcDbLine
 10
187.9465164319462
 20
1029.37202648921
 30
0.0
 11
187.9988816268268
 21
1026.372026483658
 31
0.0
  0
LINE
  5
94
330
1F
100
AcDbEntity
  8
Make2D$Visible$Curves
 62
    18
420
        0
370
    -3
100
AcDbLine
 10
-183.9495460648998
 20
1029.372026489291
 30
0.0
 11
-187.9449804743907
 21
1029.372026489291
 31
0.0
  0
LINE
  5
95
330
1F
100
AcDbEntity
  8
Make2D$Visible$Curves
 62
    18
420
        0
370
    -3
100
AcDbLine
 10
183.9495460649002
 20
1029.372026489291
 30
0.0
 11
187.9695626203128
 21
1029.372026489291
 31
0.0
  0
LINE
  5
96
330
1F
100
AcDbEntity
  8
Make2D$Visible$Curves
 62
    18
420
        0
370
    -3
100
AcDbLine
 10
-183.9495460648998
 20
1029.372026489291
 30
0.0
 11
183.9495460649001
 21
1029.372026489291
 31
0.0
  0
LINE
  5
97
330
1F
100
AcDbEntity
  8
Make2D$Visible$Curves
 62
    18
420
        0
370
    -3
100
AcDbLine
 10
179.468459348487
 20
1076.613002461963
 30
0.0
 11
179.3974445735002
 21
1076.615669793333
 31
0.0
  0
LINE
  5
98
330
1F
100
AcDbEntity
  8
Make2D$Visible$Curves
 62
    18
420
        0
370
    -3
100
AcDbLine
 10
-191.8826423695129
 20
1029.372026489407
 30
0.0
 11
-191.9555718921945
 21
1029.372026489291
 31
0.0
  0
LINE
  5
99
330
1F
100
AcDbEntity
  8
Make2D$Visible$Curves
 62
    18
420
        0
370
    -3
100
AcDbLine
 10
191.8731853718459
 20
1029.372026489291
 30
0.0
 11
191.948311365724
 21
1029.372026489291
 31
0.0
  0
LINE
  5
9A
330
1F
100
AcDbEntity
  8
Make2D$Visible$Curves
 62
    18
420
        0
370
    -3
100
AcDbLine
 10
193.3232713680455
 20
1068.077712299056
 30
0.0
 11
193.998881626968
 21
1029.372026488066
 31
0.0
  0
LINE
  5
9B
330
1F
100
AcDbEntity
  8
Make2D$Visible$Curves
 62
    18
420
        0
370
    -3
100
AcDbLine
 10
-193.9988816269665
 20
1029.372026488066
 30
0.0
 11
-193.3232713680445
 21
1068.077712299115
 31
0.0
  0
LINE
  5
9C
330
1F
100
AcDbEntity
  8
Make2D$Visible$Curves
 62
    18
420
        0
370
    -3
100
AcDbLine
 10
-185.1501405625934
 20
1076.449664157873
 30
0.0
 11
-184.9096690843845
 21
1076.459358121385
 31
0.0
  0
POLYLINE
  5
9D
330
1F
100
AcDbEntity
  8
Make2D$Visible$Curves
 62
    18
420
        0
370
    -3
100
AcDb2dPolyline
 66
     1
 10
0.0
 20
0.0
 30
0.0
  0
VERTEX
  5
9E
330
9D
100
AcDbEntity
  8
Make2D$Visible$Curves
 62
    18
420
        0
370
    -3
100
AcDbVertex
100
AcDb2dVertex
 10
-193.3228147739625
 20
1068.077705235744
 30
0.0
  0
VERTEX
  5
9F
330
9D
100
AcDbEntity
  8
Make2D$Visible$Curves
 62
    18
420
        0
370
    -3
100
AcDbVertex
100
AcDb2dVertex
 10
-193.2926664990544
 20
1069.129690888105
 30
0.0
  0
VERTEX
  5
A0
330
9D
100
AcDbEntity
  8
Make2D$Visible$Curves
 62
    18
420
        0
370
    -3
100
AcDbVertex
100
AcDb2dVertex
 10
-193.2769960667197
 20
1069.387742680077
 30
0.0
  0
VERTEX
  5
A1
330
9D
100
AcDbEntity
  8
Make2D$Visible$Curves
 62
    18
420
        0
370
    -3
100
AcDbVertex
100
AcDb2dVertex
 10
-193.2570669927218
 20
1069.637250224521
 30
0.0
  0
VERTEX
  5
A2
330
9D
100
AcDbEntity
  8
Make2D$Visible$Curves
 62
    18
420
        0
370
    -3
100
AcDbVertex
100
AcDb2dVertex
 10
-193.2327757940191
 20
1069.878716496582
 30
0.0
  0
VERTEX
  5
A3
330
9D
100
AcDbEntity
  8
Make2D$Visible$Curves
 62
    18
420
        0
370
    -3
100
AcDbVertex
100
AcDb2dVertex
 10
-193.2040189875698
 20
1070.112644471403
 30
0.0
  0
VERTEX
  5
A4
330
9D
100
AcDbEntity
  8
Make2D$Visible$Curves
 62
    18
420
        0
370
    -3
100
AcDbVertex
100
AcDb2dVertex
 10
-193.1706930903322
 20
1070.339537124129
 30
0.0
  0
VERTEX
  5
A5
330
9D
100
AcDbEntity
  8
Make2D$Visible$Curves
 62
    18
420
        0
370
    -3
100
AcDbVertex
100
AcDb2dVertex
 10
-193.1326946192646
 20
1070.559897429906
 30
0.0
  0
VERTEX
  5
A6
330
9D
100
AcDbEntity
  8
Make2D$Visible$Curves
 62
    18
420
        0
370
    -3
100
AcDbVertex
100
AcDb2dVertex
 10
-193.0899200913254
 20
1070.774228363878
 30
0.0
  0
VERTEX
  5
A7
330
9D
100
AcDbEntity
  8
Make2D$Visible$Curves
 62
    18
420
        0
370
    -3
100
AcDbVertex
100
AcDb2dVertex
 10
-193.0422660234727
 20
1070.983032901189
 30
0.0
  0
VERTEX
  5
A8
330
9D
100
AcDbEntity
  8
Make2D$Visible$Curves
 62
    18
420
        0
370
    -3
100
AcDbVertex
100
AcDb2dVertex
 10
-193.0080735103755
 20
1071.118312909962
 30
0.0
  0
VERTEX
  5
A9
330
9D
100
AcDbEntity
  8
Make2D$Visible$Curves
 62
    18
420
        0
370
    -3
100
AcDbVertex
100
AcDb2dVertex
 10
-192.9718223762674
 20
1071.251494679518
 30
0.0
  0
VERTEX
  5
AA
330
9D
100
AcDbEntity
  8
Make2D$Visible$Curves
 62
    18
420
        0
370
    -3
100
AcDbVertex
100
AcDb2dVertex
 10
-192.9335802311888
 20
1071.38257531688
 30
0.0
  0
VERTEX
  5
AB
330
9D
100
AcDbEntity
  8
Make2D$Visible$Curves
 62
    18
420
        0
370
    -3
100
AcDbVertex
100
AcDb2dVertex
 10
-192.89341468518
 20
1071.511551929071
 30
0.0
  0
VERTEX
  5
AC
330
9D
100
AcDbEntity
  8
Make2D$Visible$Curves
 62
    18
420
        0
370
    -3
100
AcDbVertex
100
AcDb2dVertex
 10
-192.8513933482814
 20
1071.638421623113
 30
0.0
  0
VERTEX
  5
AD
330
9D
100
AcDbEntity
  8
Make2D$Visible$Curves
 62
    18
420
        0
370
    -3
100
AcDbVertex
100
AcDb2dVertex
 10
-192.8075838305333
 20
1071.763181506028
 30
0.0
  0
VERTEX
  5
AE
330
9D
100
AcDbEntity
  8
Make2D$Visible$Curves
 62
    18
420
        0
370
    -3
100
AcDbVertex
100
AcDb2dVertex
 10
-192.7620537419761
 20
1071.88582868484
 30
0.0
  0
VERTEX
  5
AF
330
9D
100
AcDbEntity
  8
Make2D$Visible$Curves
 62
    18
420
        0
370
    -3
100
AcDbVertex
100
AcDb2dVertex
 10
-192.71487069265
 20
1072.00636026657
 30
0.0
  0
VERTEX
  5
B0
330
9D
100
AcDbEntity
  8
Make2D$Visible$Curves
 62
    18
420
        0
370
    -3
100
AcDbVertex
100
AcDb2dVertex
 10
-192.6661022925956
 20
1072.12477335824
 30
0.0
  0
VERTEX
  5
B1
330
9D
100
AcDbEntity
  8
Make2D$Visible$Curves
 62
    18
420
        0
370
    -3
100
AcDbVertex
100
AcDb2dVertex
 10
-192.615816151853
 20
1072.241065066875
 30
0.0
  0
VERTEX
  5
B2
330
9D
100
AcDbEntity
  8
Make2D$Visible$Curves
 62
    18
420
        0
370
    -3
100
AcDbVertex
100
AcDb2dVertex
 10
-192.5109610884648
 20
1072.467272763125
 30
0.0
  0
VERTEX
  5
B3
330
9D
100
AcDbEntity
  8
Make2D$Visible$Curves
 62
    18
420
        0
370
    -3
100
AcDbVertex
100
AcDb2dVertex
 10
-192.4008463828084
 20
1072.684960211498
 30
0.0
  0
VERTEX
  5
B4
330
9D
100
AcDbEntity
  8
Make2D$Visible$Curves
 62
    18
420
        0
370
    -3
100
AcDbVertex
100
AcDb2dVertex
 10
-192.2860129152064
 20
1072.894104268176
 30
0.0
  0
VERTEX
  5
B5
330
9D
100
AcDbEntity
  8
Make2D$Visible$Curves
 62
    18
420
        0
370
    -3
100
AcDbVertex
100
AcDb2dVertex
 10
-192.1670015659817
 20
1073.094681789339
 30
0.0
  0
VERTEX
  5
B6
330
9D
100
AcDbEntity
  8
Make2D$Visible$Curves
 62
    18
420
        0
370
    -3
100
AcDbVertex
100
AcDb2dVertex
 10
-192.0443532154569
 20
1073.286669631165
 30
0.0
  0
VERTEX
  5
B7
330
9D
100
AcDbEntity
  8
Make2D$Visible$Curves
 62
    18
420
        0
370
    -3
100
AcDbVertex
100
AcDb2dVertex
 10
-191.9186087439548
 20
1073.470044649836
 30
0.0
  0
VERTEX
  5
B8
330
9D
100
AcDbEntity
  8
Make2D$Visible$Curves
 62
    18
420
        0
370
    -3
100
AcDbVertex
100
AcDb2dVertex
 10
-191.7903090317983
 20
1073.644783701532
 30
0.0
  0
VERTEX
  5
B9
330
9D
100
AcDbEntity
  8
Make2D$Visible$Curves
 62
    18
420
        0
370
    -3
100
AcDbVertex
100
AcDb2dVertex
 10
-191.65999495931
 20
1073.810863642432
 30
0.0
  0
VERTEX
  5
BA
330
9D
100
AcDbEntity
  8
Make2D$Visible$Curves
 62
    18
420
        0
370
    -3
100
AcDbVertex
100
AcDb2dVertex
 10
-191.5282074068127
 20
1073.968261328717
 30
0.0
  0
VERTEX
  5
BB
330
9D
100
AcDbEntity
  8
Make2D$Visible$Curves
 62
    18
420
        0
370
    -3
100
AcDbVertex
100
AcDb2dVertex
 10
-191.3954872546292
 20
1074.116953616566
 30
0.0
  0
VERTEX
  5
BC
330
9D
100
AcDbEntity
  8
Make2D$Visible$Curves
 62
    18
420
        0
370
    -3
100
AcDbVertex
100
AcDb2dVertex
 10
-191.2623753830822
 20
1074.25691736216
 30
0.0
  0
VERTEX
  5
BD
330
9D
100
AcDbEntity
  8
Make2D$Visible$Curves
 62
    18
420
        0
370
    -3
100
AcDbVertex
100
AcDb2dVertex
 10
-191.1084060062138
 20
1074.410588669064
 30
0.0
  0
VERTEX
  5
BE
330
9D
100
AcDbEntity
  8
Make2D$Visible$Curves
 62
    18
420
        0
370
    -3
100
AcDbVertex
100
AcDb2dVertex
 10
-190.9577440578198
 20
1074.554816650773
 30
0.0
  0
VERTEX
  5
BF
330
9D
100
AcDbEntity
  8
Make2D$Visible$Curves
 62
    18
420
        0
370
    -3
100
AcDbVertex
100
AcDb2dVertex
 10
-190.8103973159586
 20
1074.689925967469
 30
0.0
  0
VERTEX
  5
C0
330
9D
100
AcDbEntity
  8
Make2D$Visible$Curves
 62
    18
420
        0
370
    -3
100
AcDbVertex
100
AcDb2dVertex
 10
-190.6663735586888
 20
1074.816241279338
 30
0.0
  0
VERTEX
  5
C1
330
9D
100
AcDbEntity
  8
Make2D$Visible$Curves
 62
    18
420
        0
370
    -3
100
AcDbVertex
100
AcDb2dVertex
 10
-190.525680564069
 20
1074.934087246563
 30
0.0
  0
VERTEX
  5
C2
330
9D
100
AcDbEntity
  8
Make2D$Visible$Curves
 62
    18
420
        0
370
    -3
100
AcDbVertex
100
AcDb2dVertex
 10
-190.3883261101578
 20
1075.043788529329
 30
0.0
  0
VERTEX
  5
C3
330
9D
100
AcDbEntity
  8
Make2D$Visible$Curves
 62
    18
420
        0
370
    -3
100
AcDbVertex
100
AcDb2dVertex
 10
-190.2543179750137
 20
1075.14566978782
 30
0.0
  0
VERTEX
  5
C4
330
9D
100
AcDbEntity
  8
Make2D$Visible$Curves
 62
    18
420
        0
370
    -3
100
AcDbVertex
100
AcDb2dVertex
 10
-190.1236639366954
 20
1075.24005568222
 30
0.0
  0
VERTEX
  5
C5
330
9D
100
AcDbEntity
  8
Make2D$Visible$Curves
 62
    18
420
        0
370
    -3
100
AcDbVertex
100
AcDb2dVertex
 10
-189.9963717732613
 20
1075.327270872714
 30
0.0
  0
VERTEX
  5
C6
330
9D
100
AcDbEntity
  8
Make2D$Visible$Curves
 62
    18
420
        0
370
    -3
100
AcDbVertex
100
AcDb2dVertex
 10
-189.8724492627701
 20
1075.407640019484
 30
0.0
  0
VERTEX
  5
C7
330
9D
100
AcDbEntity
  8
Make2D$Visible$Curves
 62
    18
420
        0
370
    -3
100
AcDbVertex
100
AcDb2dVertex
 10
-189.7519041832803
 20
1075.481487782718
 30
0.0
  0
VERTEX
  5
C8
330
9D
100
AcDbEntity
  8
Make2D$Visible$Curves
 62
    18
420
        0
370
    -3
100
AcDbVertex
100
AcDb2dVertex
 10
-189.6347443128505
 20
1075.549138822596
 30
0.0
  0
VERTEX
  5
C9
330
9D
100
AcDbEntity
  8
Make2D$Visible$Curves
 62
    18
420
        0
370
    -3
100
AcDbVertex
100
AcDb2dVertex
 10
-189.5209774295393
 20
1075.610917799305
 30
0.0
  0
VERTEX
  5
CA
330
9D
100
AcDbEntity
  8
Make2D$Visible$Curves
 62
    18
420
        0
370
    -3
100
AcDbVertex
100
AcDb2dVertex
 10
-189.4106113114052
 20
1075.667149373028
 30
0.0
  0
VERTEX
  5
CB
330
9D
100
AcDbEntity
  8
Make2D$Visible$Curves
 62
    18
420
        0
370
    -3
100
AcDbVertex
100
AcDb2dVertex
 10
-189.3036537365068
 20
1075.71815820395
 30
0.0
  0
VERTEX
  5
CC
330
9D
100
AcDbEntity
  8
Make2D$Visible$Curves
 62
    18
420
        0
370
    -3
100
AcDbVertex
100
AcDb2dVertex
 10
-189.2001124829027
 20
1075.764268952254
 30
0.0
  0
VERTEX
  5
CD
330
9D
100
AcDbEntity
  8
Make2D$Visible$Curves
 62
    18
420
        0
370
    -3
100
AcDbVertex
100
AcDb2dVertex
 10
-189.0999953286514
 20
1075.805806278126
 30
0.0
  0
VERTEX
  5
CE
330
9D
100
AcDbEntity
  8
Make2D$Visible$Curves
 62
    18
420
        0
370
    -3
100
AcDbVertex
100
AcDb2dVertex
 10
-189.0033100518115
 20
1075.843094841749
 30
0.0
  0
VERTEX
  5
CF
330
9D
100
AcDbEntity
  8
Make2D$Visible$Curves
 62
    18
420
        0
370
    -3
100
AcDbVertex
100
AcDb2dVertex
 10
-188.9100644304416
 20
1075.876459303307
 30
0.0
  0
VERTEX
  5
D0
330
9D
100
AcDbEntity
  8
Make2D$Visible$Curves
 62
    18
420
        0
370
    -3
100
AcDbVertex
100
AcDb2dVertex
 10
-188.8202662426003
 20
1075.906224322985
 30
0.0
  0
VERTEX
  5
D1
330
9D
100
AcDbEntity
  8
Make2D$Visible$Curves
 62
    18
420
        0
370
    -3
100
AcDbVertex
100
AcDb2dVertex
 10
-188.7339232663461
 20
1075.932714560967
 30
0.0
  0
VERTEX
  5
D2
330
9D
100
AcDbEntity
  8
Make2D$Visible$Curves
 62
    18
420
        0
370
    -3
100
AcDbVertex
100
AcDb2dVertex
 10
-188.6510432797375
 20
1075.956254677436
 30
0.0
  0
VERTEX
  5
D3
330
9D
100
AcDbEntity
  8
Make2D$Visible$Curves
 62
    18
420
        0
370
    -3
100
AcDbVertex
100
AcDb2dVertex
 10
-188.4957033876919
 20
1075.995783186577
 30
0.0
  0
VERTEX
  5
D4
330
9D
100
AcDbEntity
  8
Make2D$Visible$Curves
 62
    18
420
        0
370
    -3
100
AcDbVertex
100
AcDb2dVertex
 10
-188.0622413139811
 20
1076.08892918802
 30
0.0
  0
VERTEX
  5
D5
330
9D
100
AcDbEntity
  8
Make2D$Visible$Curves
 62
    18
420
        0
370
    -3
100
AcDbVertex
100
AcDb2dVertex
 10
-188.0144190170509
 20
1076.100824399502
 30
0.0
 42
-0.0555123417164112
  0
VERTEX
  5
D6
330
9D
100
AcDbEntity
  8
Make2D$Visible$Curves
 62
    18
420
        0
370
    -3
100
AcDbVertex
100
AcDb2dVertex
 10
-186.0811132452705
 20
1076.39946596924
 30
0.0
  0
VERTEX
  5
D7
330
9D
100
AcDbEntity
  8
Make2D$Visible$Curves
 62
    18
420
        0
370
    -3
100
AcDbVertex
100
AcDb2dVertex
 10
-185.1956990454126
 20
1076.447765568155
 30
0.0
  0
SEQEND
  5
D8
330
9D
100
AcDbEntity
  8
Make2D$Visible$Curves
 62
    18
420
        0
370
    -3
  0
POLYLINE
  5
D9
330
1F
100
AcDbEntity
  8
Make2D$Visible$Curves
 62
    18
420
        0
370
    -3
100
AcDb2dPolyline
 66
     1
 10
0.0
 20
0.0
 30
0.0
  0
VERTEX
  5
DA
330
D9
100
AcDbEntity
  8
Make2D$Visible$Curves
 62
    18
420
        0
370
    -3
100
AcDbVertex
100
AcDb2dVertex
 10
185.1956990454129
 20
1076.447765568155
 30
0.0
  0
VERTEX
  5
DB
330
D9
100
AcDbEntity
  8
Make2D$Visible$Curves
 62
    18
420
        0
370
    -3
100
AcDbVertex
100
AcDb2dVertex
 10
185.3701031804333
 20
1076.44017522526
 30
0.0
  0
VERTEX
  5
DC
330
D9
100
AcDbEntity
  8
Make2D$Visible$Curves
 62
    18
420
        0
370
    -3
100
AcDbVertex
100
AcDb2dVertex
 10
185.5479364238858
 20
1076.431720734516
 30
0.0
  0
VERTEX
  5
DD
330
D9
100
AcDbEntity
  8
Make2D$Visible$Curves
 62
    18
420
        0
370
    -3
100
AcDbVertex
100
AcDb2dVertex
 10
185.7268671210174
 20
1076.422230004624
 30
0.0
  0
VERTEX
  5
DE
330
D9
100
AcDbEntity
  8
Make2D$Visible$Curves
 62
    18
420
        0
370
    -3
100
AcDbVertex
100
AcDb2dVertex
 10
185.905011619792
 20
1076.411535284948
 30
0.0
  0
VERTEX
  5
DF
330
D9
100
AcDbEntity
  8
Make2D$Visible$Curves
 62
    18
420
        0
370
    -3
100
AcDbVertex
100
AcDb2dVertex
 10
186.081113245271
 20
1076.39946596924
 30
0.0
 42
-0.0555123417164304
  0
VERTEX
  5
E0
330
D9
100
AcDbEntity
  8
Make2D$Visible$Curves
 62
    18
420
        0
370
    -3
100
AcDbVertex
100
AcDb2dVertex
 10
188.0144190170512
 20
1076.100824399502
 30
0.0
  0
VERTEX
  5
E1
330
D9
100
AcDbEntity
  8
Make2D$Visible$Curves
 62
    18
420
        0
370
    -3
100
AcDbVertex
100
AcDb2dVertex
 10
188.0622413139814
 20
1076.08892918802
 30
0.0
  0
VERTEX
  5
E2
330
D9
100
AcDbEntity
  8
Make2D$Visible$Curves
 62
    18
420
        0
370
    -3
100
AcDbVertex
100
AcDb2dVertex
 10
188.495703387692
 20
1075.995783186577
 30
0.0
  0
VERTEX
  5
E3
330
D9
100
AcDbEntity
  8
Make2D$Visible$Curves
 62
    18
420
        0
370
    -3
100
AcDbVertex
100
AcDb2dVertex
 10
188.6510432797377
 20
1075.956254677436
 30
0.0
  0
VERTEX
  5
E4
330
D9
100
AcDbEntity
  8
Make2D$Visible$Curves
 62
    18
420
        0
370
    -3
100
AcDbVertex
100
AcDb2dVertex
 10
188.7339232663462
 20
1075.932714560967
 30
0.0
  0
VERTEX
  5
E5
330
D9
100
AcDbEntity
  8
Make2D$Visible$Curves
 62
    18
420
        0
370
    -3
100
AcDbVertex
100
AcDb2dVertex
 10
188.8202662426005
 20
1075.906224322985
 30
0.0
  0
VERTEX
  5
E6
330
D9
100
AcDbEntity
  8
Make2D$Visible$Curves
 62
    18
420
        0
370
    -3
100
AcDbVertex
100
AcDb2dVertex
 10
188.9100644304418
 20
1075.876459303307
 30
0.0
  0
VERTEX
  5
E7
330
D9
100
AcDbEntity
  8
Make2D$Visible$Curves
 62
    18
420
        0
370
    -3
100
AcDbVertex
100
AcDb2dVertex
 10
189.0033100518117
 20
1075.843094841749
 30
0.0
  0
VERTEX
  5
E8
330
D9
100
AcDbEntity
  8
Make2D$Visible$Curves
 62
    18
420
        0
370
    -3
100
AcDbVertex
100
AcDb2dVertex
 10
189.0999953286516
 20
1075.805806278126
 30
0.0
  0
VERTEX
  5
E9
330
D9
100
AcDbEntity
  8
Make2D$Visible$Curves
 62
    18
420
        0
370
    -3
100
AcDbVertex
100
AcDb2dVertex
 10
189.2001124829029
 20
1075.764268952254
 30
0.0
  0
VERTEX
  5
EA
330
D9
100
AcDbEntity
  8
Make2D$Visible$Curves
 62
    18
420
        0
370
    -3
100
AcDbVertex
100
AcDb2dVertex
 10
189.303653736507
 20
1075.71815820395
 30
0.0
  0
VERTEX
  5
EB
330
D9
100
AcDbEntity
  8
Make2D$Visible$Curves
 62
    18
420
        0
370
    -3
100
AcDbVertex
100
AcDb2dVertex
 10
189.4106113114055
 20
1075.667149373028
 30
0.0
  0
VERTEX
  5
EC
330
D9
100
AcDbEntity
  8
Make2D$Visible$Curves
 62
    18
420
        0
370
    -3
100
AcDbVertex
100
AcDb2dVertex
 10
189.5209774295396
 20
1075.610917799305
 30
0.0
  0
VERTEX
  5
ED
330
D9
100
AcDbEntity
  8
Make2D$Visible$Curves
 62
    18
420
        0
370
    -3
100
AcDbVertex
100
AcDb2dVertex
 10
189.6347443128508
 20
1075.549138822596
 30
0.0
  0
VERTEX
  5
EE
330
D9
100
AcDbEntity
  8
Make2D$Visible$Curves
 62
    18
420
        0
370
    -3
100
AcDbVertex
100
AcDb2dVertex
 10
189.7519041832806
 20
1075.481487782718
 30
0.0
  0
VERTEX
  5
EF
330
D9
100
AcDbEntity
  8
Make2D$Visible$Curves
 62
    18
420
        0
370
    -3
100
AcDbVertex
100
AcDb2dVertex
 10
189.8724492627704
 20
1075.407640019484
 30
0.0
  0
VERTEX
  5
F0
330
D9
100
AcDbEntity
  8
Make2D$Visible$Curves
 62
    18
420
        0
370
    -3
100
AcDbVertex
100
AcDb2dVertex
 10
189.9963717732617
 20
1075.327270872714
 30
0.0
  0
VERTEX
  5
F1
330
D9
100
AcDbEntity
  8
Make2D$Visible$Curves
 62
    18
420
        0
370
    -3
100
AcDbVertex
100
AcDb2dVertex
 10
190.1236639366957
 20
1075.24005568222
 30
0.0
  0
VERTEX
  5
F2
330
D9
100
AcDbEntity
  8
Make2D$Visible$Curves
 62
    18
420
        0
370
    -3
100
AcDbVertex
100
AcDb2dVertex
 10
190.2543179750141
 20
1075.14566978782
 30
0.0
  0
VERTEX
  5
F3
330
D9
100
AcDbEntity
  8
Make2D$Visible$Curves
 62
    18
420
        0
370
    -3
100
AcDbVertex
100
AcDb2dVertex
 10
190.3883261101581
 20
1075.043788529329
 30
0.0
  0
VERTEX
  5
F4
330
D9
100
AcDbEntity
  8
Make2D$Visible$Curves
 62
    18
420
        0
370
    -3
100
AcDbVertex
100
AcDb2dVertex
 10
190.5256805640693
 20
1074.934087246563
 30
0.0
  0
VERTEX
  5
F5
330
D9
100
AcDbEntity
  8
Make2D$Visible$Curves
 62
    18
420
        0
370
    -3
100
AcDbVertex
100
AcDb2dVertex
 10
190.6663735586891
 20
1074.816241279338
 30
0.0
  0
VERTEX
  5
F6
330
D9
100
AcDbEntity
  8
Make2D$Visible$Curves
 62
    18
420
        0
370
    -3
100
AcDbVertex
100
AcDb2dVertex
 10
190.8103973159589
 20
1074.689925967469
 30
0.0
  0
VERTEX
  5
F7
330
D9
100
AcDbEntity
  8
Make2D$Visible$Curves
 62
    18
420
        0
370
    -3
100
AcDbVertex
100
AcDb2dVertex
 10
190.95774405782
 20
1074.554816650773
 30
0.0
  0
VERTEX
  5
F8
330
D9
100
AcDbEntity
  8
Make2D$Visible$Curves
 62
    18
420
        0
370
    -3
100
AcDbVertex
100
AcDb2dVertex
 10
191.1084060062141
 20
1074.410588669064
 30
0.0
  0
VERTEX
  5
F9
330
D9
100
AcDbEntity
  8
Make2D$Visible$Curves
 62
    18
420
        0
370
    -3
100
AcDbVertex
100
AcDb2dVertex
 10
191.2623753830824
 20
1074.25691736216
 30
0.0
  0
VERTEX
  5
FA
330
D9
100
AcDbEntity
  8
Make2D$Visible$Curves
 62
    18
420
        0
370
    -3
100
AcDbVertex
100
AcDb2dVertex
 10
191.3954872546293
 20
1074.116953616566
 30
0.0
  0
VERTEX
  5
FB
330
D9
100
AcDbEntity
  8
Make2D$Visible$Curves
 62
    18
420
        0
370
    -3
100
AcDbVertex
100
AcDb2dVertex
 10
191.5282074068128
 20
1073.968261328717
 30
0.0
  0
VERTEX
  5
FC
330
D9
100
AcDbEntity
  8
Make2D$Visible$Curves
 62
    18
420
        0
370
    -3
100
AcDbVertex
100
AcDb2dVertex
 10
191.65999495931
 20
1073.810863642432
 30
0.0
  0
VERTEX
  5
FD
330
D9
100
AcDbEntity
  8
Make2D$Visible$Curves
 62
    18
420
        0
370
    -3
100
AcDbVertex
100
AcDb2dVertex
 10
191.7903090317984
 20
1073.644783701532
 30
0.0
  0
VERTEX
  5
FE
330
D9
100
AcDbEntity
  8
Make2D$Visible$Curves
 62
    18
420
        0
370
    -3
100
AcDbVertex
100
AcDb2dVertex
 10
191.9186087439549
 20
1073.470044649836
 30
0.0
  0
VERTEX
  5
FF
330
D9
100
AcDbEntity
  8
Make2D$Visible$Curves
 62
    18
420
        0
370
    -3
100
AcDbVertex
100
AcDb2dVertex
 10
192.044353215457
 20
1073.286669631165
 30
0.0
  0
VERTEX
  5
100
330
D9
100
AcDbEntity
  8
Make2D$Visible$Curves
 62
    18
420
        0
370
    -3
100
AcDbVertex
100
AcDb2dVertex
 10
192.1670015659818
 20
1073.094681789339
 30
0.0
  0
VERTEX
  5
101
330
D9
100
AcDbEntity
  8
Make2D$Visible$Curves
 62
    18
420
        0
370
    -3
100
AcDbVertex
100
AcDb2dVertex
 10
192.2860129152066
 20
1072.894104268176
 30
0.0
  0
VERTEX
  5
102
330
D9
100
AcDbEntity
  8
Make2D$Visible$Curves
 62
    18
420
        0
370
    -3
100
AcDbVertex
100
AcDb2dVertex
 10
192.4008463828087
 20
1072.684960211498
 30
0.0
  0
VERTEX
  5
103
330
D9
100
AcDbEntity
  8
Make2D$Visible$Curves
 62
    18
420
        0
370
    -3
100
AcDbVertex
100
AcDb2dVertex
 10
192.5109610884652
 20
1072.467272763125
 30
0.0
  0
VERTEX
  5
104
330
D9
100
AcDbEntity
  8
Make2D$Visible$Curves
 62
    18
420
        0
370
    -3
100
AcDbVertex
100
AcDb2dVertex
 10
192.6158161518534
 20
1072.241065066875
 30
0.0
  0
VERTEX
  5
105
330
D9
100
AcDbEntity
  8
Make2D$Visible$Curves
 62
    18
420
        0
370
    -3
100
AcDbVertex
100
AcDb2dVertex
 10
192.666102292596
 20
1072.12477335824
 30
0.0
  0
VERTEX
  5
106
330
D9
100
AcDbEntity
  8
Make2D$Visible$Curves
 62
    18
420
        0
370
    -3
100
AcDbVertex
100
AcDb2dVertex
 10
192.7148706926505
 20
1072.00636026657
 30
0.0
  0
VERTEX
  5
107
330
D9
100
AcDbEntity
  8
Make2D$Visible$Curves
 62
    18
420
        0
370
    -3
100
AcDbVertex
100
AcDb2dVertex
 10
192.7620537419766
 20
1071.88582868484
 30
0.0
  0
VERTEX
  5
108
330
D9
100
AcDbEntity
  8
Make2D$Visible$Curves
 62
    18
420
        0
370
    -3
100
AcDbVertex
100
AcDb2dVertex
 10
192.8075838305338
 20
1071.763181506028
 30
0.0
  0
VERTEX
  5
109
330
D9
100
AcDbEntity
  8
Make2D$Visible$Curves
 62
    18
420
        0
370
    -3
100
AcDbVertex
100
AcDb2dVertex
 10
192.8513933482819
 20
1071.638421623113
 30
0.0
  0
VERTEX
  5
10A
330
D9
100
AcDbEntity
  8
Make2D$Visible$Curves
 62
    18
420
        0
370
    -3
100
AcDbVertex
100
AcDb2dVertex
 10
192.8934146851805
 20
1071.511551929071
 30
0.0
  0
VERTEX
  5
10B
330
D9
100
AcDbEntity
  8
Make2D$Visible$Curves
 62
    18
420
        0
370
    -3
100
AcDbVertex
100
AcDb2dVertex
 10
192.9335802311893
 20
1071.38257531688
 30
0.0
  0
VERTEX
  5
10C
330
D9
100
AcDbEntity
  8
Make2D$Visible$Curves
 62
    18
420
        0
370
    -3
100
AcDbVertex
100
AcDb2dVertex
 10
192.9718223762678
 20
1071.251494679518
 30
0.0
  0
VERTEX
  5
10D
330
D9
100
AcDbEntity
  8
Make2D$Visible$Curves
 62
    18
420
        0
370
    -3
100
AcDbVertex
100
AcDb2dVertex
 10
193.0080735103759
 20
1071.118312909962
 30
0.0
  0
VERTEX
  5
10E
330
D9
100
AcDbEntity
  8
Make2D$Visible$Curves
 62
    18
420
        0
370
    -3
100
AcDbVertex
100
AcDb2dVertex
 10
193.042266023473
 20
1070.983032901189
 30
0.0
  0
VERTEX
  5
10F
330
D9
100
AcDbEntity
  8
Make2D$Visible$Curves
 62
    18
420
        0
370
    -3
100
AcDbVertex
100
AcDb2dVertex
 10
193.0899200913255
 20
1070.774228363878
 30
0.0
  0
VERTEX
  5
110
330
D9
100
AcDbEntity
  8
Make2D$Visible$Curves
 62
    18
420
        0
370
    -3
100
AcDbVertex
100
AcDb2dVertex
 10
193.1326946192647
 20
1070.559897429906
 30
0.0
  0
VERTEX
  5
111
330
D9
100
AcDbEntity
  8
Make2D$Visible$Curves
 62
    18
420
        0
370
    -3
100
AcDbVertex
100
AcDb2dVertex
 10
193.1706930903323
 20
1070.339537124129
 30
0.0
  0
VERTEX
  5
112
330
D9
100
AcDbEntity
  8
Make2D$Visible$Curves
 62
    18
420
        0
370
    -3
100
AcDbVertex
100
AcDb2dVertex
 10
193.2040189875699
 20
1070.112644471403
 30
0.0
  0
VERTEX
  5
113
330
D9
100
AcDbEntity
  8
Make2D$Visible$Curves
 62
    18
420
        0
370
    -3
100
AcDbVertex
100
AcDb2dVertex
 10
193.2327757940193
 20
1069.878716496582
 30
0.0
  0
VERTEX
  5
114
330
D9
100
AcDbEntity
  8
Make2D$Visible$Curves
 62
    18
420
        0
370
    -3
100
AcDbVertex
100
AcDb2dVertex
 10
193.2570669927221
 20
1069.637250224521
 30
0.0
  0
VERTEX
  5
115
330
D9
100
AcDbEntity
  8
Make2D$Visible$Curves
 62
    18
420
        0
370
    -3
100
AcDbVertex
100
AcDb2dVertex
 10
193.27699606672
 20
1069.387742680077
 30
0.0
  0
VERTEX
  5
116
330
D9
100
AcDbEntity
  8
Make2D$Visible$Curves
 62
    18
420
        0
370
    -3
100
AcDbVertex
100
AcDb2dVertex
 10
193.2926664990547
 20
1069.129690888105
 30
0.0
  0
VERTEX
  5
117
330
D9
100
AcDbEntity
  8
Make2D$Visible$Curves
 62
    18
420
        0
370
    -3
100
AcDbVertex
100
AcDb2dVertex
 10
193.3228147739629
 20
1068.077705235744
 30
0.0
  0
SEQEND
  5
118
330
D9
100
AcDbEntity
  8
Make2D$Visible$Curves
 62
    18
420
        0
370
    -3
  0
LINE
  5
119
330
1F
100
AcDbEntity
  8
Make2D$Visible$Curves
 62
    18
420
        0
370
    -3
100
AcDbLine
 10
184.9096690843848
 20
1076.459358121385
 30
0.0
 11
185.1501405625938
 21
1076.449664157873
 31
0.0
  0
LINE
  5
11A
330
1F
100
AcDbEntity
  8
Make2D$Visible$Curves
 62
    18
420
        0
370
    -3
100
AcDbLine
 10
191.9899393855001
 20
1029.821682946815
 30
0.0
 11
191.3332849008002
 21
1068.121892134892
 31
0.0
  0
ARC
  5
11B
330
1F
100
AcDbEntity
  8
Make2D$Visible$Curves
 62
    18
420
        0
370
    -3
100
AcDbCircle
 10
192.919313370202
 20
1029.884912941596
 30
0.0
 40
0.9315224289734879
100
AcDbArc
 50
183.8921227142476
 51
211.7628074680697
  0
ARC
  5
11C
330
1F
100
AcDbEntity
  8
Make2D$Visible$Curves
 62
    18
420
        0
370
    -3
100
AcDbCircle
 10
192.9193133702024
 20
1029.884912941596
 30
0.0
 40
0.9315224289741401
210
0.0
220
0.0
230
-1.0
100
AcDbArc
 50
183.8921227142449
 51
211.7628074680448
  0
LINE
  5
11D
330
1F
100
AcDbEntity
  8
Make2D$Visible$Curves
 62
    18
420
        0
370
    -3
100
AcDbLine
 10
-191.3332849007998
 20
1068.121892134892
 30
0.0
 11
-191.9899393854999
 21
1029.821682946815
 31
0.0
  0
SPLINE
  5
11E
330
1F
100
AcDbEntity
  8
Make2D$Visible$Curves
 62
    18
420
        0
370
    -3
100
AcDbSpline
210
0.0
220
0.0
230
1.0
 70
     8
 71
     3
 72
    13
 73
     9
 74
     0
 42
0.000000001
 43
0.0000000001
 40
-14.0901479512327
 40
-14.0901479512327
 40
-14.0901479512327
 40
-14.0901479512327
 40
-11.74178995936011
 40
-9.393431967488937
 40
-7.04507397561635
 40
-4.696715983743764
 40
-2.348357991872586
 40
0.0
 40
0.0
 40
0.0
 40
0.0
 10
-191.3332849007998
 20
1068.121892134892
 30
0.0
 10
-191.3192425112998
 20
1068.965831557231
 30
0.0
 10
-191.2557857663999
 20
1070.583147765719
 30
0.0
 10
-190.5900982774999
 20
1072.615623183316
 30
0.0
 10
-189.4806016291998
 20
1074.241658172105
 30
0.0
 10
-187.9263157560998
 20
1075.486200397136
 30
0.0
 10
-185.8387858960999
 20
1076.314236701
 30
0.0
 10
-184.1414171290999
 20
1076.430430056818
 30
0.0
 10
-183.2504296250998
 20
1076.466830925434
 30
0.0
  0
LINE
  5
11F
330
1F
100
AcDbEntity
  8
Make2D$Visible$Curves
 62
    18
420
        0
370
    -3
100
AcDbLine
 10
-183.2360796054998
 20
1076.466814117506
 30
0.0
 11
-180.1364037256998
 21
1076.587461919466
 31
0.0
  0
LINE
  5
120
330
1F
100
AcDbEntity
  8
Make2D$Visible$Curves
 62
    18
420
        0
370
    -3
100
AcDbLine
 10
-180.1364037256998
 20
1076.587461919466
 30
0.0
 11
-179.3974445734999
 21
1076.615669793333
 31
0.0
  0
SPLINE
  5
121
330
1F
100
AcDbEntity
  8
Make2D$Visible$Curves
 62
    18
420
        0
370
    -3
100
AcDbSpline
210
0.0
220
0.0
230
1.0
 70
     8
 71
     3
 72
    13
 73
     9
 74
     0
 42
0.000000001
 43
0.0000000001
 40
0.0
 40
0.0
 40
0.0
 40
0.0
 40
2.348357991872587
 40
4.696715983743763
 40
7.045073975616351
 40
9.393431967488937
 40
11.74178995936012
 40
12.62497294515123
 40
12.62497294515123
 40
12.62497294515123
 40
12.62497294515123
 10
191.3332849008002
 20
1068.121892134892
 30
0.0
 10
191.3192425113002
 20
1068.965831557231
 30
0.0
 10
191.2557857664002
 20
1070.583147765719
 30
0.0
 10
190.5900982775001
 20
1072.615623183316
 30
0.0
 10
189.4806016292002
 20
1074.241658172105
 30
0.0
 10
187.9263157561001
 20
1075.486200397136
 30
0.0
 10
186.272932732018
 20
1076.142028701375
 30
0.0
 10
185.170682216477
 20
1076.31552140147
 30
0.0
 10
184.8604420753119
 20
1076.35216788348
 30
0.0
  0
SPLINE
  5
122
330
1F
100
AcDbEntity
  8
Make2D$Visible$Curves
 62
    18
420
        0
370
    -3
100
AcDbSpline
210
0.0
220
0.0
230
1.0
 70
     8
 71
     3
 72
    22
 73
    18
 74
     0
 42
0.000000001
 43
0.0000000001
 40
-158.0572185665888
 40
-158.0572185665888
 40
-158.0572185665888
 40
-158.0572185665888
 40
-138.3000662457652
 40
-128.4214900853534
 40
-118.5429139249416
 40
-108.6643377645298
 40
-98.78576160411802
 40
-88.90718544370621
 40
-79.02860928329441
 40
-69.15003312288262
 40
-59.27145696247081
 40
-49.39288080205901
 40
-39.51430464164721
 40
-29.6357284812354
 40
-19.7571523208236
 40
-9.878576160411802
 40
0.0
 40
0.0
 40
0.0
 40
0.0
 10
120.2406839432002
 20
1016.159824655682
 30
0.0
 10
119.5330424584002
 20
1016.289352299238
 30
0.0
 10
118.2873867612001
 20
1016.475450985541
 30
0.0
 10
115.7680559518001
 20
1016.706610976194
 30
0.0
 10
113.3140973216002
 20
1016.870672374847
 30
0.0
 10
110.2249563504002
 20
1017.02387237217
 30
0.0
 10
106.4787235449002
 20
1017.164538292389
 30
0.0
 10
101.9653882622002
 20
1017.293515002239
 30
0.0
 10
96.68795254919013
 20
1017.408905418008
 30
0.0
 10
90.54984750013017
 20
1017.510855998844
 30
0.0
 10
83.47440906464016
 20
1017.600098675466
 30
0.0
 10
75.51646765276013
 20
1017.675879851275
 30
0.0
 10
66.60888631612016
 20
1017.738837281475
 30
0.0
 10
56.93664237505021
 20
1017.787955710897
 30
0.0
 10
46.7036997374102
 20
1017.823419257882
 30
0.0
 10
36.0947280926901
 20
1017.847494839865
 30
0.0
 10
28.84375279018019
 20
1017.858289030264
 30
0.0
 10
25.16462338546017
 20
1017.862760241143
 30
0.0
  0
SPLINE
  5
123
330
1F
100
AcDbEntity
  8
Make2D$Visible$Curves
 62
    18
420
        0
370
    -3
100
AcDbSpline
210
0.0
220
0.0
230
1.0
 70
     8
 71
     3
 72
    14
 73
    10
 74
     0
 42
0.000000001
 43
0.0000000001
 40
-161.3999216550872
 40
-161.3999216550872
 40
-161.3999216550872
 40
-161.3999216550872
 40
-145.2599294895785
 40
-129.1199373240698
 40
-112.9799451585611
 40
-96.83995299305234
 40
-80.69996082754362
 40
-64.5599686620349
 40
-55.05508817656938
 40
-55.05508817656938
 40
-55.05508817656938
 40
-55.05508817656938
 10
122.2474142704002
 20
1025.640524844581
 30
0.0
 10
121.5871869167002
 20
1025.689228384173
 30
0.0
 10
120.0686164911002
 20
1025.779042197682
 30
0.0
 10
116.5208944567002
 20
1025.883214365458
 30
0.0
 10
111.3500771285001
 20
1025.992041523743
 30
0.0
 10
104.6621578054001
 20
1026.087307948095
 30
0.0
 10
97.10117215765018
 20
1026.181546176958
 30
0.0
 10
89.36864922799867
 20
1026.267508583143
 30
0.0
 10
83.61701860849456
 20
1026.340474059514
 30
0.0
 10
81.3293649737389
 20
1026.372026489291
 30
0.0
  0
LINE
  5
124
330
1F
100
AcDbEntity
  8
Make2D$Visible$Curves
 62
    18
420
        0
370
    -3
100
AcDbLine
 10
122.643891771445
 20
1015.341256122454
 30
0.0
 11
122.6270596428676
 21
1015.252194379107
 31
0.0
  0
LINE
  5
125
330
1F
100
AcDbEntity
  8
Make2D$Visible$Curves
 62
    18
420
        0
370
    -3
100
AcDbLine
 10
126.3157379676083
 20
1026.372026489174
 30
0.0
 11
126.0076915381158
 21
1024.594072044245
 31
0.0
  0
LINE
  5
126
330
1F
100
AcDbEntity
  8
Make2D$Visible$Curves
 62
    18
420
        0
370
    -3
100
AcDbLine
 10
40.76272044616911
 20
1012.774944274104
 30
0.0
 11
40.64886856529876
 21
1012.747410509328
 31
0.0
  0
SPLINE
  5
127
330
1F
100
AcDbEntity
  8
Make2D$Visible$Curves
 62
    18
420
        0
370
    -3
100
AcDbSpline
210
0.0
220
0.0
230
1.0
 70
     8
 71
     3
 72
    22
 73
    18
 74
     0
 42
0.000000001
 43
0.0000000001
 40
10.71839716940243
 40
10.71839716940243
 40
10.71839716940243
 40
10.71839716940243
 40
19.7571523208236
 40
29.6357284812354
 40
39.51430464164721
 40
49.39288080205901
 40
59.27145696247081
 40
69.15003312288262
 40
79.02860928329441
 40
88.90718544370621
 40
98.78576160411802
 40
108.6643377645298
 40
118.5429139249416
 40
128.4214900853534
 40
138.3000662457652
 40
148.178642406177
 40
158.0572185665888
 40
158.0572185665888
 40
158.0572185665888
 40
158.0572185665888
 10
-118.9544779848302
 20
1016.365779999003
 30
0.0
 10
-118.547787622935
 20
1016.422300473612
 30
0.0
 10
-117.6040092233398
 20
1016.53815396392
 30
0.0
 10
-115.7680559517998
 20
1016.706610976194
 30
0.0
 10
-113.3140973215998
 20
1016.870672374847
 30
0.0
 10
-110.2249563503999
 20
1017.02387237217
 30
0.0
 10
-106.4787235448999
 20
1017.164538292389
 30
0.0
 10
-101.9653882621998
 20
1017.293515002239
 30
0.0
 10
-96.6879525491899
 20
1017.408905418008
 30
0.0
 10
-90.54984750012983
 20
1017.510855998844
 30
0.0
 10
-83.47440906463981
 20
1017.600098675466
 30
0.0
 10
-75.51646765275979
 20
1017.675879851275
 30
0.0
 10
-66.60888631611982
 20
1017.738837281475
 30
0.0
 10
-56.93664237504987
 20
1017.787955710897
 30
0.0
 10
-46.70369973740986
 20
1017.823419257882
 30
0.0
 10
-36.09472809268988
 20
1017.847494839865
 30
0.0
 10
-28.84375279017985
 20
1017.858289030264
 30
0.0
 10
-25.16462338545983
 20
1017.862760241143
 30
0.0
  0
LINE
  5
128
330
1F
100
AcDbEntity
  8
Make2D$Visible$Curves
 62
    18
420
        0
370
    -3
100
AcDbLine
 10
-128.8123809896636
 20
1026.372026489212
 30
0.0
 11
-126.4201280165384
 21
1026.372026489292
 31
0.0
  0
LINE
  5
129
330
1F
100
AcDbEntity
  8
Make2D$Visible$Curves
 62
    18
420
        0
370
    -3
100
AcDbLine
 10
-126.4201280165386
 20
1026.372026489292
 30
0.0
 11
-126.2771459779004
 21
1026.372026489291
 31
0.0
  0
LINE
  5
12A
330
1F
100
AcDbEntity
  8
Make2D$Visible$Curves
 62
    18
420
        0
370
    -3
100
AcDbLine
 10
-74.21390058073753
 20
1026.37202648927
 30
0.0
 11
74.26538041027142
 21
1026.372026489222
 31
0.0
  0
LINE
  5
12B
330
1F
100
AcDbEntity
  8
Make2D$Visible$Curves
 62
    18
420
        0
370
    -3
100
AcDbLine
 10
126.3286258040107
 20
1026.372026489337
 30
0.0
 11
126.4768478019062
 21
1026.372026489284
 31
0.0
  0
LINE
  5
12C
330
1F
100
AcDbEntity
  8
Make2D$Visible$Curves
 62
    18
420
        0
370
    -3
100
AcDbLine
 10
128.8254894189113
 20
1026.372026489297
 30
0.0
 11
178.0352785331002
 21
1026.372026489291
 31
0.0
  0
LINE
  5
12D
330
1F
100
AcDbEntity
  8
Make2D$Visible$Curves
 62
    18
420
        0
370
    -3
100
AcDbLine
 10
-128.3914253471056
 20
1024.192049475794
 30
0.0
 11
-128.8123809896322
 21
1026.372026489349
 31
0.0
  0
LINE
  5
12E
330
1F
100
AcDbEntity
  8
Make2D$Visible$Curves
 62
    18
420
        0
370
    -3
100
AcDbLine
 10
128.3923741076825
 20
1024.191787836782
 30
0.0
 11
127.162472930297
 21
1017.707457791606
 31
0.0
  0
LINE
  5
12F
330
1F
100
AcDbEntity
  8
Make2D$Visible$Curves
 62
    18
420
        0
370
    -3
100
AcDbLine
 10
-127.1624729302967
 20
1017.707457791606
 30
0.0
 11
-128.3923741076819
 21
1024.191787836782
 31
0.0
  0
LINE
  5
130
330
1F
100
AcDbEntity
  8
Make2D$Visible$Curves
 62
    18
420
        0
370
    -3
100
AcDbLine
 10
-126.0893039810222
 20
1024.554211834271
 30
0.0
 11
-126.476847801956
 21
1026.372026489291
 31
0.0
  0
POLYLINE
  5
131
330
1F
100
AcDbEntity
  8
Make2D$Visible$Curves
 62
    18
420
        0
370
    -3
100
AcDb2dPolyline
 66
     1
 10
0.0
 20
0.0
 30
0.0
  0
VERTEX
  5
132
330
131
100
AcDbEntity
  8
Make2D$Visible$Curves
 62
    18
420
        0
370
    -3
100
AcDbVertex
100
AcDb2dVertex
 10
127.1624048378042
 20
1017.707659001171
 30
0.0
  0
VERTEX
  5
133
330
131
100
AcDbEntity
  8
Make2D$Visible$Curves
 62
    18
420
        0
370
    -3
100
AcDbVertex
100
AcDb2dVertex
 10
127.0929863383114
 20
1017.36704898557
 30
0.0
  0
VERTEX
  5
134
330
131
100
AcDbEntity
  8
Make2D$Visible$Curves
 62
    18
420
        0
370
    -3
100
AcDbVertex
100
AcDb2dVertex
 10
127.0683399951859
 20
1017.261662498436
 30
0.0
  0
VERTEX
  5
135
330
131
100
AcDbEntity
  8
Make2D$Visible$Curves
 62
    18
420
        0
370
    -3
100
AcDbVertex
100
AcDb2dVertex
 10
127.0455270081086
 20
1017.172293256112
 30
0.0
  0
VERTEX
  5
136
330
131
100
AcDbEntity
  8
Make2D$Visible$Curves
 62
    18
420
        0
370
    -3
100
AcDbVertex
100
AcDb2dVertex
 10
127.0255745028144
 20
1017.100785038725
 30
0.0
  0
VERTEX
  5
137
330
131
100
AcDbEntity
  8
Make2D$Visible$Curves
 62
    18
420
        0
370
    -3
100
AcDbVertex
100
AcDb2dVertex
 10
127.0008622495758
 20
1017.019388757758
 30
0.0
  0
VERTEX
  5
138
330
131
100
AcDbEntity
  8
Make2D$Visible$Curves
 62
    18
420
        0
370
    -3
100
AcDbVertex
100
AcDb2dVertex
 10
126.9754941217628
 20
1016.94126605424
 30
0.0
  0
VERTEX
  5
139
330
131
100
AcDbEntity
  8
Make2D$Visible$Curves
 62
    18
420
        0
370
    -3
100
AcDbVertex
100
AcDb2dVertex
 10
126.9495114840758
 20
1016.866327534287
 30
0.0
  0
VERTEX
  5
13A
330
131
100
AcDbEntity
  8
Make2D$Visible$Curves
 62
    18
420
        0
370
    -3
100
AcDbVertex
100
AcDb2dVertex
 10
126.9229557012153
 20
1016.794483804017
 30
0.0
  0
VERTEX
  5
13B
330
131
100
AcDbEntity
  8
Make2D$Visible$Curves
 62
    18
420
        0
370
    -3
100
AcDbVertex
100
AcDb2dVertex
 10
126.8958681378816
 20
1016.725645469545
 30
0.0
  0
VERTEX
  5
13C
330
131
100
AcDbEntity
  8
Make2D$Visible$Curves
 62
    18
420
        0
370
    -3
100
AcDbVertex
100
AcDb2dVertex
 10
126.8682901587752
 20
1016.659723136989
 30
0.0
  0
VERTEX
  5
13D
330
131
100
AcDbEntity
  8
Make2D$Visible$Curves
 62
    18
420
        0
370
    -3
100
AcDbVertex
100
AcDb2dVertex
 10
126.8402631285964
 20
1016.596627412465
 30
0.0
  0
VERTEX
  5
13E
330
131
100
AcDbEntity
  8
Make2D$Visible$Curves
 62
    18
420
        0
370
    -3
100
AcDbVertex
100
AcDb2dVertex
 10
126.8118284120457
 20
1016.53626890209
 30
0.0
  0
VERTEX
  5
13F
330
131
100
AcDbEntity
  8
Make2D$Visible$Curves
 62
    18
420
        0
370
    -3
100
AcDbVertex
100
AcDb2dVertex
 10
126.7830273738235
 20
1016.478558211982
 30
0.0
  0
VERTEX
  5
140
330
131
100
AcDbEntity
  8
Make2D$Visible$Curves
 62
    18
420
        0
370
    -3
100
AcDbVertex
100
AcDb2dVertex
 10
126.7539013786302
 20
1016.423405948256
 30
0.0
  0
VERTEX
  5
141
330
131
100
AcDbEntity
  8
Make2D$Visible$Curves
 62
    18
420
        0
370
    -3
100
AcDbVertex
100
AcDb2dVertex
 10
126.7244917911661
 20
1016.370722717029
 30
0.0
  0
VERTEX
  5
142
330
131
100
AcDbEntity
  8
Make2D$Visible$Curves
 62
    18
420
        0
370
    -3
100
AcDbVertex
100
AcDb2dVertex
 10
126.6948399761317
 20
1016.320419124419
 30
0.0
  0
VERTEX
  5
143
330
131
100
AcDbEntity
  8
Make2D$Visible$Curves
 62
    18
420
        0
370
    -3
100
AcDbVertex
100
AcDb2dVertex
 10
126.6649872982274
 20
1016.272405776542
 30
0.0
  0
VERTEX
  5
144
330
131
100
AcDbEntity
  8
Make2D$Visible$Curves
 62
    18
420
        0
370
    -3
100
AcDbVertex
100
AcDb2dVertex
 10
126.6349751221536
 20
1016.226593279514
 30
0.0
  0
VERTEX
  5
145
330
131
100
AcDbEntity
  8
Make2D$Visible$Curves
 62
    18
420
        0
370
    -3
100
AcDbVertex
100
AcDb2dVertex
 10
126.6048448126107
 20
1016.182892239453
 30
0.0
  0
VERTEX
  5
146
330
131
100
AcDbEntity
  8
Make2D$Visible$Curves
 62
    18
420
        0
370
    -3
100
AcDbVertex
100
AcDb2dVertex
 10
126.5746377342991
 20
1016.141213262476
 30
0.0
  0
VERTEX
  5
147
330
131
100
AcDbEntity
  8
Make2D$Visible$Curves
 62
    18
420
        0
370
    -3
100
AcDbVertex
100
AcDb2dVertex
 10
126.5443952519192
 20
1016.101466954698
 30
0.0
  0
VERTEX
  5
148
330
131
100
AcDbEntity
  8
Make2D$Visible$Curves
 62
    18
420
        0
370
    -3
100
AcDbVertex
100
AcDb2dVertex
 10
126.5141587301714
 20
1016.063563922237
 30
0.0
  0
VERTEX
  5
149
330
131
100
AcDbEntity
  8
Make2D$Visible$Curves
 62
    18
420
        0
370
    -3
100
AcDbVertex
100
AcDb2dVertex
 10
126.4839695337561
 20
1016.027414771209
 30
0.0
  0
VERTEX
  5
14A
330
131
100
AcDbEntity
  8
Make2D$Visible$Curves
 62
    18
420
        0
370
    -3
100
AcDbVertex
100
AcDb2dVertex
 10
126.4538690273737
 20
1015.992930107732
 30
0.0
  0
VERTEX
  5
14B
330
131
100
AcDbEntity
  8
Make2D$Visible$Curves
 62
    18
420
        0
370
    -3
100
AcDbVertex
100
AcDb2dVertex
 10
126.4238985757247
 20
1015.960020537922
 30
0.0
  0
VERTEX
  5
14C
330
131
100
AcDbEntity
  8
Make2D$Visible$Curves
 62
    18
420
        0
370
    -3
100
AcDbVertex
100
AcDb2dVertex
 10
126.3940995435094
 20
1015.928596667896
 30
0.0
  0
VERTEX
  5
14D
330
131
100
AcDbEntity
  8
Make2D$Visible$Curves
 62
    18
420
        0
370
    -3
100
AcDbVertex
100
AcDb2dVertex
 10
126.3645132954282
 20
1015.89856910377
 30
0.0
  0
VERTEX
  5
14E
330
131
100
AcDbEntity
  8
Make2D$Visible$Curves
 62
    18
420
        0
370
    -3
100
AcDbVertex
100
AcDb2dVertex
 10
126.3351811961816
 20
1015.869848451662
 30
0.0
  0
VERTEX
  5
14F
330
131
100
AcDbEntity
  8
Make2D$Visible$Curves
 62
    18
420
        0
370
    -3
100
AcDbVertex
100
AcDb2dVertex
 10
126.2774449029935
 20
1015.815970307964
 30
0.0
  0
VERTEX
  5
150
330
131
100
AcDbEntity
  8
Make2D$Visible$Curves
 62
    18
420
        0
370
    -3
100
AcDbVertex
100
AcDb2dVertex
 10
126.2212215815485
 20
1015.766247085737
 30
0.0
  0
VERTEX
  5
151
330
131
100
AcDbEntity
  8
Make2D$Visible$Curves
 62
    18
420
        0
370
    -3
100
AcDbVertex
100
AcDb2dVertex
 10
126.1146375243003
 20
1015.67640480143
 30
0.0
  0
VERTEX
  5
152
330
131
100
AcDbEntity
  8
Make2D$Visible$Curves
 62
    18
420
        0
370
    -3
100
AcDbVertex
100
AcDb2dVertex
 10
126.0748286630845
 20
1015.643986820776
 30
0.0
  0
VERTEX
  5
153
330
131
100
AcDbEntity
  8
Make2D$Visible$Curves
 62
    18
420
        0
370
    -3
100
AcDbVertex
100
AcDb2dVertex
 10
126.0340157999272
 20
1015.612116745702
 30
0.0
  0
VERTEX
  5
154
330
131
100
AcDbEntity
  8
Make2D$Visible$Curves
 62
    18
420
        0
370
    -3
100
AcDbVertex
100
AcDb2dVertex
 10
125.992224997425
 20
1015.580788718865
 30
0.0
  0
VERTEX
  5
155
330
131
100
AcDbEntity
  8
Make2D$Visible$Curves
 62
    18
420
        0
370
    -3
100
AcDbVertex
100
AcDb2dVertex
 10
125.9494823181746
 20
1015.549996882918
 30
0.0
  0
VERTEX
  5
156
330
131
100
AcDbEntity
  8
Make2D$Visible$Curves
 62
    18
420
        0
370
    -3
100
AcDbVertex
100
AcDb2dVertex
 10
125.9058138247726
 20
1015.519735380518
 30
0.0
  0
VERTEX
  5
157
330
131
100
AcDbEntity
  8
Make2D$Visible$Curves
 62
    18
420
        0
370
    -3
100
AcDbVertex
100
AcDb2dVertex
 10
125.8612455798154
 20
1015.489998354318
 30
0.0
  0
VERTEX
  5
158
330
131
100
AcDbEntity
  8
Make2D$Visible$Curves
 62
    18
420
        0
370
    -3
100
AcDbVertex
100
AcDb2dVertex
 10
125.7695140856223
 20
1015.432074301141
 30
0.0
  0
VERTEX
  5
159
330
131
100
AcDbEntity
  8
Make2D$Visible$Curves
 62
    18
420
        0
370
    -3
100
AcDbVertex
100
AcDb2dVertex
 10
125.6744963363681
 20
1015.376177864626
 30
0.0
  0
VERTEX
  5
15A
330
131
100
AcDbEntity
  8
Make2D$Visible$Curves
 62
    18
420
        0
370
    -3
100
AcDbVertex
100
AcDb2dVertex
 10
125.5764008328253
 20
1015.322262186013
 30
0.0
  0
VERTEX
  5
15B
330
131
100
AcDbEntity
  8
Make2D$Visible$Curves
 62
    18
420
        0
370
    -3
100
AcDbVertex
100
AcDb2dVertex
 10
125.4754360757669
 20
1015.270280406542
 30
0.0
  0
VERTEX
  5
15C
330
131
100
AcDbEntity
  8
Make2D$Visible$Curves
 62
    18
420
        0
370
    -3
100
AcDbVertex
100
AcDb2dVertex
 10
125.3718105659656
 20
1015.220185667451
 30
0.0
  0
VERTEX
  5
15D
330
131
100
AcDbEntity
  8
Make2D$Visible$Curves
 62
    18
420
        0
370
    -3
100
AcDbVertex
100
AcDb2dVertex
 10
125.265732804194
 20
1015.171931109981
 30
0.0
  0
VERTEX
  5
15E
330
131
100
AcDbEntity
  8
Make2D$Visible$Curves
 62
    18
420
        0
370
    -3
100
AcDbVertex
100
AcDb2dVertex
 10
125.1574112912249
 20
1015.12546987537
 30
0.0
  0
VERTEX
  5
15F
330
131
100
AcDbEntity
  8
Make2D$Visible$Curves
 62
    18
420
        0
370
    -3
100
AcDbVertex
100
AcDb2dVertex
 10
125.0470545278311
 20
1015.080755104859
 30
0.0
  0
VERTEX
  5
160
330
131
100
AcDbEntity
  8
Make2D$Visible$Curves
 62
    18
420
        0
370
    -3
100
AcDbVertex
100
AcDb2dVertex
 10
124.9348710147852
 20
1015.037739939686
 30
0.0
  0
VERTEX
  5
161
330
131
100
AcDbEntity
  8
Make2D$Visible$Curves
 62
    18
420
        0
370
    -3
100
AcDbVertex
100
AcDb2dVertex
 10
124.7058577428284
 20
1014.956620990315
 30
0.0
  0
VERTEX
  5
162
330
131
100
AcDbEntity
  8
Make2D$Visible$Curves
 62
    18
420
        0
370
    -3
100
AcDbVertex
100
AcDb2dVertex
 10
124.4720394815364
 20
1014.881738157172
 30
0.0
  0
VERTEX
  5
163
330
131
100
AcDbEntity
  8
Make2D$Visible$Curves
 62
    18
420
        0
370
    -3
100
AcDbVertex
100
AcDb2dVertex
 10
124.2350842370911
 20
1014.812716570172
 30
0.0
  0
VERTEX
  5
164
330
131
100
AcDbEntity
  8
Make2D$Visible$Curves
 62
    18
420
        0
370
    -3
100
AcDbVertex
100
AcDb2dVertex
 10
123.9966600156744
 20
1014.749181359233
 30
0.0
  0
VERTEX
  5
165
330
131
100
AcDbEntity
  8
Make2D$Visible$Curves
 62
    18
420
        0
370
    -3
100
AcDbVertex
100
AcDb2dVertex
 10
123.5220766666544
 20
1014.637070585195
 30
0.0
  0
VERTEX
  5
166
330
131
100
AcDbEntity
  8
Make2D$Visible$Curves
 62
    18
420
        0
370
    -3
100
AcDbVertex
100
AcDb2dVertex
 10
123.0616334839315
 20
1014.542406874384
 30
0.0
  0
VERTEX
  5
167
330
131
100
AcDbEntity
  8
Make2D$Visible$Curves
 62
    18
420
        0
370
    -3
100
AcDbVertex
100
AcDb2dVertex
 10
122.6286745169609
 20
1014.462191266124
 30
0.0
  0
SEQEND
  5
168
330
131
100
AcDbEntity
  8
Make2D$Visible$Curves
 62
    18
420
        0
370
    -3
  0
SPLINE
  5
169
330
1F
100
AcDbEntity
  8
Make2D$Visible$Curves
 62
    18
420
        0
370
    -3
100
AcDbSpline
210
0.0
220
0.0
230
1.0
 70
     8
 71
     3
 72
    35
 73
    31
 74
     0
 42
0.000000001
 43
0.0000000001
 40
2.831946236653832
 40
2.831946236653832
 40
2.831946236653832
 40
2.831946236653832
 40
18.40623320005969
 40
18.40623320005969
 40
18.40623320005969
 40
36.78732477779389
 40
36.78732477779389
 40
36.78732477779389
 40
55.12730497443695
 40
55.12730497443695
 40
55.12730497443695
 40
73.43739134597999
 40
73.43739134597999
 40
73.43739134597999
 40
82.56315524240907
 40
82.56315524240907
 40
82.56315524240907
 40
91.69923518214706
 40
91.69923518214706
 40
91.69923518214706
 40
110.0700686057879
 40
110.0700686057879
 40
110.0700686057879
 40
122.3455292242705
 40
122.3455292242705
 40
122.3455292242705
 40
128.5085860192348
 40
128.5085860192348
 40
128.5085860192348
 40
144.1435919750948
 40
144.1435919750948
 40
144.1435919750948
 40
144.1435919750948
 10
-40.64887324686362
 20
1012.746585248504
 30
0.0
 10
-45.7035436810026
 20
1012.766226701206
 30
0.0
 10
-50.71136811383684
 20
1012.789492555021
 30
0.0
 10
-55.6389967011018
 20
1012.816697925969
 30
0.0
 10
-61.45190504409339
 20
1012.848790914461
 30
0.0
 10
-67.16499354781723
 20
1012.886430186278
 30
0.0
 10
-72.66548334052703
 20
1012.931573522219
 30
0.0
 10
-78.1457443032429
 20
1012.976550837106
 30
0.0
 10
-83.42044330912091
 20
1013.029018872185
 30
0.0
 10
-88.30716449048356
 20
1013.090566300205
 30
0.0
 10
-93.17524138026857
 20
1013.151878906472
 30
0.0
 10
-97.65984463607293
 20
1013.222206702805
 30
0.0
 10
-101.5456672260731
 20
1013.301240379864
 30
0.0
 10
-103.4853082822823
 20
1013.34069070511
 30
0.0
 10
-105.2729037113339
 20
1013.382254260127
 30
0.0
 10
-106.8940760188891
 20
1013.425726556859
 30
0.0
 10
-108.5172524920811
 20
1013.469252596027
 30
0.0
 10
-109.9711499047029
 20
1013.514625580166
 30
0.0
 10
-111.2631744232985
 20
1013.561451270885
 30
0.0
 10
-113.8591125810757
 20
1013.655533539073
 30
0.0
 10
-115.7967389992398
 20
1013.755267405824
 30
0.0
 10
-117.2981574771383
 20
1013.858045093599
 30
0.0
 10
-118.3033410407658
 20
1013.926853652985
 30
0.0
 10
-119.1183380748669
 20
1013.997520279547
 30
0.0
 10
-119.8061454659074
 20
1014.069234587718
 30
0.0
 10
-120.1515369092498
 20
1014.105246861931
 30
0.0
 10
-120.4673625682877
 20
1014.14178336726
 30
0.0
 10
-120.7590495541015
 20
1014.178372302384
 30
0.0
 10
-121.4943144306371
 20
1014.270603221725
 30
0.0
 10
-122.1086328829284
 20
1014.36814465269
 30
0.0
 10
-122.63444772164
 20
1014.463358015288
 30
0.0
  0
POLYLINE
  5
16A
330
1F
100
AcDbEntity
  8
Make2D$Visible$Curves
 62
    18
420
        0
370
    -3
100
AcDb2dPolyline
 66
     1
 10
0.0
 20
0.0
 30
0.0
  0
VERTEX
  5
16B
330
16A
100
AcDbEntity
  8
Make2D$Visible$Curves
 62
    18
420
        0
370
    -3
100
AcDbVertex
100
AcDb2dVertex
 10
-122.6286745169604
 20
1014.462191266124
 30
0.0
  0
VERTEX
  5
16C
330
16A
100
AcDbEntity
  8
Make2D$Visible$Curves
 62
    18
420
        0
370
    -3
100
AcDbVertex
100
AcDb2dVertex
 10
-123.061633483931
 20
1014.542406874384
 30
0.0
  0
VERTEX
  5
16D
330
16A
100
AcDbEntity
  8
Make2D$Visible$Curves
 62
    18
420
        0
370
    -3
100
AcDbVertex
100
AcDb2dVertex
 10
-123.522076666654
 20
1014.637070585195
 30
0.0
  0
VERTEX
  5
16E
330
16A
100
AcDbEntity
  8
Make2D$Visible$Curves
 62
    18
420
        0
370
    -3
100
AcDbVertex
100
AcDb2dVertex
 10
-123.9966600156741
 20
1014.749181359233
 30
0.0
  0
VERTEX
  5
16F
330
16A
100
AcDbEntity
  8
Make2D$Visible$Curves
 62
    18
420
        0
370
    -3
100
AcDbVertex
100
AcDb2dVertex
 10
-124.2350842370908
 20
1014.812716570172
 30
0.0
  0
VERTEX
  5
170
330
16A
100
AcDbEntity
  8
Make2D$Visible$Curves
 62
    18
420
        0
370
    -3
100
AcDbVertex
100
AcDb2dVertex
 10
-124.4720394815361
 20
1014.881738157172
 30
0.0
  0
VERTEX
  5
171
330
16A
100
AcDbEntity
  8
Make2D$Visible$Curves
 62
    18
420
        0
370
    -3
100
AcDbVertex
100
AcDb2dVertex
 10
-124.7058577428281
 20
1014.956620990315
 30
0.0
  0
VERTEX
  5
172
330
16A
100
AcDbEntity
  8
Make2D$Visible$Curves
 62
    18
420
        0
370
    -3
100
AcDbVertex
100
AcDb2dVertex
 10
-124.9348710147848
 20
1015.037739939686
 30
0.0
  0
VERTEX
  5
173
330
16A
100
AcDbEntity
  8
Make2D$Visible$Curves
 62
    18
420
        0
370
    -3
100
AcDbVertex
100
AcDb2dVertex
 10
-125.0470545278307
 20
1015.080755104859
 30
0.0
  0
VERTEX
  5
174
330
16A
100
AcDbEntity
  8
Make2D$Visible$Curves
 62
    18
420
        0
370
    -3
100
AcDbVertex
100
AcDb2dVertex
 10
-125.1574112912245
 20
1015.12546987537
 30
0.0
  0
VERTEX
  5
175
330
16A
100
AcDbEntity
  8
Make2D$Visible$Curves
 62
    18
420
        0
370
    -3
100
AcDbVertex
100
AcDb2dVertex
 10
-125.2657328041936
 20
1015.171931109981
 30
0.0
  0
VERTEX
  5
176
330
16A
100
AcDbEntity
  8
Make2D$Visible$Curves
 62
    18
420
        0
370
    -3
100
AcDbVertex
100
AcDb2dVertex
 10
-125.3718105659652
 20
1015.220185667451
 30
0.0
  0
VERTEX
  5
177
330
16A
100
AcDbEntity
  8
Make2D$Visible$Curves
 62
    18
420
        0
370
    -3
100
AcDbVertex
100
AcDb2dVertex
 10
-125.4754360757666
 20
1015.270280406542
 30
0.0
  0
VERTEX
  5
178
330
16A
100
AcDbEntity
  8
Make2D$Visible$Curves
 62
    18
420
        0
370
    -3
100
AcDbVertex
100
AcDb2dVertex
 10
-125.576400832825
 20
1015.322262186013
 30
0.0
  0
VERTEX
  5
179
330
16A
100
AcDbEntity
  8
Make2D$Visible$Curves
 62
    18
420
        0
370
    -3
100
AcDbVertex
100
AcDb2dVertex
 10
-125.6744963363677
 20
1015.376177864626
 30
0.0
  0
VERTEX
  5
17A
330
16A
100
AcDbEntity
  8
Make2D$Visible$Curves
 62
    18
420
        0
370
    -3
100
AcDbVertex
100
AcDb2dVertex
 10
-125.769514085622
 20
1015.432074301141
 30
0.0
  0
VERTEX
  5
17B
330
16A
100
AcDbEntity
  8
Make2D$Visible$Curves
 62
    18
420
        0
370
    -3
100
AcDbVertex
100
AcDb2dVertex
 10
-125.8612455798151
 20
1015.489998354318
 30
0.0
  0
VERTEX
  5
17C
330
16A
100
AcDbEntity
  8
Make2D$Visible$Curves
 62
    18
420
        0
370
    -3
100
AcDbVertex
100
AcDb2dVertex
 10
-125.9058138247722
 20
1015.519735380518
 30
0.0
  0
VERTEX
  5
17D
330
16A
100
AcDbEntity
  8
Make2D$Visible$Curves
 62
    18
420
        0
370
    -3
100
AcDbVertex
100
AcDb2dVertex
 10
-125.9494823181743
 20
1015.549996882918
 30
0.0
  0
VERTEX
  5
17E
330
16A
100
AcDbEntity
  8
Make2D$Visible$Curves
 62
    18
420
        0
370
    -3
100
AcDbVertex
100
AcDb2dVertex
 10
-125.9922249974247
 20
1015.580788718865
 30
0.0
  0
VERTEX
  5
17F
330
16A
100
AcDbEntity
  8
Make2D$Visible$Curves
 62
    18
420
        0
370
    -3
100
AcDbVertex
100
AcDb2dVertex
 10
-126.0340157999268
 20
1015.612116745702
 30
0.0
  0
VERTEX
  5
180
330
16A
100
AcDbEntity
  8
Make2D$Visible$Curves
 62
    18
420
        0
370
    -3
100
AcDbVertex
100
AcDb2dVertex
 10
-126.0748286630841
 20
1015.643986820776
 30
0.0
  0
VERTEX
  5
181
330
16A
100
AcDbEntity
  8
Make2D$Visible$Curves
 62
    18
420
        0
370
    -3
100
AcDbVertex
100
AcDb2dVertex
 10
-126.1146375243
 20
1015.67640480143
 30
0.0
  0
VERTEX
  5
182
330
16A
100
AcDbEntity
  8
Make2D$Visible$Curves
 62
    18
420
        0
370
    -3
100
AcDbVertex
100
AcDb2dVertex
 10
-126.2212215815481
 20
1015.766247085737
 30
0.0
  0
VERTEX
  5
183
330
16A
100
AcDbEntity
  8
Make2D$Visible$Curves
 62
    18
420
        0
370
    -3
100
AcDbVertex
100
AcDb2dVertex
 10
-126.2774449029932
 20
1015.815970307964
 30
0.0
  0
VERTEX
  5
184
330
16A
100
AcDbEntity
  8
Make2D$Visible$Curves
 62
    18
420
        0
370
    -3
100
AcDbVertex
100
AcDb2dVertex
 10
-126.3351811961812
 20
1015.869848451662
 30
0.0
  0
VERTEX
  5
185
330
16A
100
AcDbEntity
  8
Make2D$Visible$Curves
 62
    18
420
        0
370
    -3
100
AcDbVertex
100
AcDb2dVertex
 10
-126.3645132954279
 20
1015.89856910377
 30
0.0
  0
VERTEX
  5
186
330
16A
100
AcDbEntity
  8
Make2D$Visible$Curves
 62
    18
420
        0
370
    -3
100
AcDbVertex
100
AcDb2dVertex
 10
-126.3940995435091
 20
1015.928596667896
 30
0.0
  0
VERTEX
  5
187
330
16A
100
AcDbEntity
  8
Make2D$Visible$Curves
 62
    18
420
        0
370
    -3
100
AcDbVertex
100
AcDb2dVertex
 10
-126.4238985757244
 20
1015.960020537922
 30
0.0
  0
VERTEX
  5
188
330
16A
100
AcDbEntity
  8
Make2D$Visible$Curves
 62
    18
420
        0
370
    -3
100
AcDbVertex
100
AcDb2dVertex
 10
-126.4538690273734
 20
1015.992930107732
 30
0.0
  0
VERTEX
  5
189
330
16A
100
AcDbEntity
  8
Make2D$Visible$Curves
 62
    18
420
        0
370
    -3
100
AcDbVertex
100
AcDb2dVertex
 10
-126.4839695337558
 20
1016.027414771209
 30
0.0
  0
VERTEX
  5
18A
330
16A
100
AcDbEntity
  8
Make2D$Visible$Curves
 62
    18
420
        0
370
    -3
100
AcDbVertex
100
AcDb2dVertex
 10
-126.5141587301711
 20
1016.063563922237
 30
0.0
  0
VERTEX
  5
18B
330
16A
100
AcDbEntity
  8
Make2D$Visible$Curves
 62
    18
420
        0
370
    -3
100
AcDbVertex
100
AcDb2dVertex
 10
-126.5443952519189
 20
1016.101466954698
 30
0.0
  0
VERTEX
  5
18C
330
16A
100
AcDbEntity
  8
Make2D$Visible$Curves
 62
    18
420
        0
370
    -3
100
AcDbVertex
100
AcDb2dVertex
 10
-126.5746377342988
 20
1016.141213262476
 30
0.0
  0
VERTEX
  5
18D
330
16A
100
AcDbEntity
  8
Make2D$Visible$Curves
 62
    18
420
        0
370
    -3
100
AcDbVertex
100
AcDb2dVertex
 10
-126.6048448126104
 20
1016.182892239453
 30
0.0
  0
VERTEX
  5
18E
330
16A
100
AcDbEntity
  8
Make2D$Visible$Curves
 62
    18
420
        0
370
    -3
100
AcDbVertex
100
AcDb2dVertex
 10
-126.6349751221533
 20
1016.226593279514
 30
0.0
  0
VERTEX
  5
18F
330
16A
100
AcDbEntity
  8
Make2D$Visible$Curves
 62
    18
420
        0
370
    -3
100
AcDbVertex
100
AcDb2dVertex
 10
-126.6649872982271
 20
1016.272405776542
 30
0.0
  0
VERTEX
  5
190
330
16A
100
AcDbEntity
  8
Make2D$Visible$Curves
 62
    18
420
        0
370
    -3
100
AcDbVertex
100
AcDb2dVertex
 10
-126.6948399761314
 20
1016.320419124419
 30
0.0
  0
VERTEX
  5
191
330
16A
100
AcDbEntity
  8
Make2D$Visible$Curves
 62
    18
420
        0
370
    -3
100
AcDbVertex
100
AcDb2dVertex
 10
-126.7244917911658
 20
1016.370722717029
 30
0.0
  0
VERTEX
  5
192
330
16A
100
AcDbEntity
  8
Make2D$Visible$Curves
 62
    18
420
        0
370
    -3
100
AcDbVertex
100
AcDb2dVertex
 10
-126.7539013786299
 20
1016.423405948256
 30
0.0
  0
VERTEX
  5
193
330
16A
100
AcDbEntity
  8
Make2D$Visible$Curves
 62
    18
420
        0
370
    -3
100
AcDbVertex
100
AcDb2dVertex
 10
-126.7830273738232
 20
1016.478558211982
 30
0.0
  0
VERTEX
  5
194
330
16A
100
AcDbEntity
  8
Make2D$Visible$Curves
 62
    18
420
        0
370
    -3
100
AcDbVertex
100
AcDb2dVertex
 10
-126.8118284120454
 20
1016.53626890209
 30
0.0
  0
VERTEX
  5
195
330
16A
100
AcDbEntity
  8
Make2D$Visible$Curves
 62
    18
420
        0
370
    -3
100
AcDbVertex
100
AcDb2dVertex
 10
-126.8402631285961
 20
1016.596627412465
 30
0.0
  0
VERTEX
  5
196
330
16A
100
AcDbEntity
  8
Make2D$Visible$Curves
 62
    18
420
        0
370
    -3
100
AcDbVertex
100
AcDb2dVertex
 10
-126.8682901587749
 20
1016.659723136989
 30
0.0
  0
VERTEX
  5
197
330
16A
100
AcDbEntity
  8
Make2D$Visible$Curves
 62
    18
420
        0
370
    -3
100
AcDbVertex
100
AcDb2dVertex
 10
-126.8958681378813
 20
1016.725645469545
 30
0.0
  0
VERTEX
  5
198
330
16A
100
AcDbEntity
  8
Make2D$Visible$Curves
 62
    18
420
        0
370
    -3
100
AcDbVertex
100
AcDb2dVertex
 10
-126.922955701215
 20
1016.794483804017
 30
0.0
  0
VERTEX
  5
199
330
16A
100
AcDbEntity
  8
Make2D$Visible$Curves
 62
    18
420
        0
370
    -3
100
AcDbVertex
100
AcDb2dVertex
 10
-126.9495114840755
 20
1016.866327534287
 30
0.0
  0
VERTEX
  5
19A
330
16A
100
AcDbEntity
  8
Make2D$Visible$Curves
 62
    18
420
        0
370
    -3
100
AcDbVertex
100
AcDb2dVertex
 10
-126.9754941217625
 20
1016.94126605424
 30
0.0
  0
VERTEX
  5
19B
330
16A
100
AcDbEntity
  8
Make2D$Visible$Curves
 62
    18
420
        0
370
    -3
100
AcDbVertex
100
AcDb2dVertex
 10
-127.0008622495754
 20
1017.019388757758
 30
0.0
  0
VERTEX
  5
19C
330
16A
100
AcDbEntity
  8
Make2D$Visible$Curves
 62
    18
420
        0
370
    -3
100
AcDbVertex
100
AcDb2dVertex
 10
-127.0255745028141
 20
1017.100785038725
 30
0.0
  0
VERTEX
  5
19D
330
16A
100
AcDbEntity
  8
Make2D$Visible$Curves
 62
    18
420
        0
370
    -3
100
AcDbVertex
100
AcDb2dVertex
 10
-127.0455270081082
 20
1017.172293256112
 30
0.0
  0
VERTEX
  5
19E
330
16A
100
AcDbEntity
  8
Make2D$Visible$Curves
 62
    18
420
        0
370
    -3
100
AcDbVertex
100
AcDb2dVertex
 10
-127.0683399951857
 20
1017.261662498436
 30
0.0
  0
VERTEX
  5
19F
330
16A
100
AcDbEntity
  8
Make2D$Visible$Curves
 62
    18
420
        0
370
    -3
100
AcDbVertex
100
AcDb2dVertex
 10
-127.0929863383113
 20
1017.367048985569
 30
0.0
  0
VERTEX
  5
1A0
330
16A
100
AcDbEntity
  8
Make2D$Visible$Curves
 62
    18
420
        0
370
    -3
100
AcDbVertex
100
AcDb2dVertex
 10
-127.1624048378039
 20
1017.707659001171
 30
0.0
  0
SEQEND
  5
1A1
330
16A
100
AcDbEntity
  8
Make2D$Visible$Curves
 62
    18
420
        0
370
    -3
  0
SPLINE
  5
1A2
330
1F
100
AcDbEntity
  8
Make2D$Visible$Curves
 62
    18
420
        0
370
    -3
100
AcDbSpline
210
0.0
220
0.0
230
1.0
 70
     8
 71
     3
 72
     8
 73
     4
 74
     0
 42
0.000000001
 43
0.0000000001
 40
-54.32021941804977
 40
-54.32021941804977
 40
-54.32021941804977
 40
-54.32021941804977
 40
0.0
 40
0.0
 40
0.0
 40
0.0
 10
-122.6270596593017
 20
1015.252194375964
 30
0.0
 10
-122.6843136066649
 20
1015.555142639729
 30
0.0
 10
-121.88888198196
 20
1015.858136282943
 30
0.0
 10
-120.2406839431998
 20
1016.159824655682
 30
0.0
  0
LINE
  5
1A3
330
1F
100
AcDbEntity
  8
Make2D$Visible$Curves
 62
    18
420
        0
370
    -3
100
AcDbLine
 10
-187.9988816268271
 20
1026.372026483717
 30
0.0
 11
-187.9464655548988
 21
1029.374941233403
 31
0.0
  0
LINE
  5
1A4
330
1F
100
AcDbEntity
  8
Make2D$Visible$Curves
 62
    18
420
        0
370
    -3
100
AcDbLine
 10
-125.8401332156998
 20
1023.591676183976
 30
0.0
 11
-126.3157379676108
 21
1026.372026489291
 31
0.0
  0
ARC
  5
1A5
330
1F
100
AcDbEntity
  8
Make2D$Visible$Curves
 62
    18
420
        0
370
    -3
100
AcDbCircle
 10
187.0607827138829
 20
1026.564245367432
 30
0.0
 40
0.2428689213354122
210
0.0
220
0.0
230
-1.0
100
AcDbArc
 50
191.8740034698136
 51
225.8216735396543
  0
LINE
  5
1A6
330
1F
100
AcDbEntity
  8
Make2D$Visible$Curves
 62
    18
420
        0
370
    -3
100
AcDbLine
 10
124.7294440450002
 20
1016.914971920894
 30
0.0
 11
125.8401332157002
 21
1023.591676183976
 31
0.0
  0
LINE
  5
1A7
330
1F
100
AcDbEntity
  8
Make2D$Visible$Curves
 62
    18
420
        0
370
    -3
100
AcDbLine
 10
-125.8401332156998
 20
1023.591676183976
 30
0.0
 11
-124.7294440449999
 21
1016.914971920894
 31
0.0
  0
SPLINE
  5
1A8
330
1F
100
AcDbEntity
  8
Make2D$Visible$Curves
 62
    18
420
        0
370
    -3
100
AcDbSpline
210
0.0
220
0.0
230
1.0
 70
     8
 71
     3
 72
     8
 73
     4
 74
     0
 42
0.000000001
 43
0.0000000001
 40
-104.635654514031
 40
-104.635654514031
 40
-104.635654514031
 40
-104.635654514031
 40
-54.32021941804977
 40
-54.32021941804977
 40
-54.32021941804977
 40
-54.32021941804977
 10
-120.2732523175999
 20
1014.411544810282
 30
0.0
 10
-121.789402923703
 20
1014.691006796609
 30
0.0
 10
-122.5740267867653
 20
1014.971581118822
 30
0.0
 10
-122.6270596593017
 20
1015.252194375964
 30
0.0
  0
LINE
  5
1A9
330
1F
100
AcDbEntity
  8
Make2D$Visible$Curves
 62
    18
420
        0
370
    -3
100
AcDbLine
 10
-25.16462338545983
 20
1017.862760241143
 30
0.0
 11
-0.0000000000014211
 21
1017.878026489343
 31
0.0
  0
LINE
  5
1AA
330
1F
100
AcDbEntity
  8
Make2D$Visible$Curves
 62
    18
420
        0
370
    -3
100
AcDbLine
 10
25.16462338546017
 20
1017.862760241143
 30
0.0
 11
-0.0000000000014211
 21
1017.878026489343
 31
0.0
  0
SPLINE
  5
1AB
330
1F
100
AcDbEntity
  8
Make2D$Visible$Curves
 62
    18
420
        0
370
    -3
100
AcDbSpline
210
0.0
220
0.0
230
1.0
 70
     8
 71
     3
 72
     8
 73
     4
 74
     0
 42
0.000000001
 43
0.0000000001
 40
0.0
 40
0.0
 40
0.0
 40
0.0
 40
50.31543509598059
 40
50.31543509598059
 40
50.31543509598059
 40
50.31543509598059
 10
120.2732523176001
 20
1014.411544810282
 30
0.0
 10
121.7894029237033
 20
1014.691006796609
 30
0.0
 10
122.5740267867655
 20
1014.971581118822
 30
0.0
 10
122.6270596593019
 20
1015.252194375964
 30
0.0
  0
ARC
  5
1AC
330
1F
100
AcDbEntity
  8
Make2D$Visible$Curves
 62
    18
420
        0
370
    -3
100
AcDbCircle
 10
0.1985771960726321
 20
11353.84835306159
 30
0.0
 40
10341.15644289926
100
AcDbArc
 50
269.9988997714805
 51
270.2221195358831
  0
ARC
  5
1AD
330
1F
100
AcDbEntity
  8
Make2D$Visible$Curves
 62
    18
420
        0
370
    -3
100
AcDbCircle
 10
0.1985771960724669
 20
11353.8483530615
 30
0.0
 40
10341.15644289917
210
0.0
220
0.0
230
-1.0
100
AcDbArc
 50
269.9988997714805
 51
270.2221195358831
  0
ARC
  5
1AE
330
1F
100
AcDbEntity
  8
Make2D$Visible$Curves
 62
    18
420
        0
370
    -3
100
AcDbCircle
 10
114.8455397038713
 20
986.5859622674581
 30
0.0
 40
30.061951332553
210
0.0
220
0.0
230
-1.0
100
AcDbArc
 50
79.66125335369651
 51
82.14408645074086
  0
LINE
  5
1AF
330
1F
100
AcDbEntity
  8
Make2D$Visible$Curves
 62
    18
420
        0
370
    -3
100
AcDbLine
 10
-178.0352785330999
 20
1026.372026489291
 30
0.0
 11
-185.973940835617
 21
1026.372026489291
 31
0.0
  0
LINE
  5
1B0
330
1F
100
AcDbEntity
  8
Make2D$Visible$Curves
 62
    18
420
        0
370
    -3
100
AcDbLine
 10
178.0352785331002
 20
1026.372026489291
 30
0.0
 11
185.9739408356174
 21
1026.372026489291
 31
0.0
  0
LINE
  5
1B1
330
1F
100
AcDbEntity
  8
Make2D$Visible$Curves
 62
    18
420
        0
370
    -3
100
AcDbLine
 10
-178.0352785330999
 20
1026.372026489291
 30
0.0
 11
-128.8123809896636
 21
1026.37202648927
 31
0.0
  0
POLYLINE
  5
1B2
330
1F
100
AcDbEntity
  8
Make2D$Visible$Curves
 62
    18
420
        0
370
    -3
100
AcDb2dPolyline
 66
     1
 10
0.0
 20
0.0
 30
0.0
  0
VERTEX
  5
1B3
330
1B2
100
AcDbEntity
  8
Make2D$Visible$Curves
 62
    18
420
        0
370
    -3
100
AcDbVertex
100
AcDb2dVertex
 10
0.000000256397982
 20
1079.123892608855
 30
0.0
  0
VERTEX
  5
1B4
330
1B2
100
AcDbEntity
  8
Make2D$Visible$Curves
 62
    18
420
        0
370
    -3
100
AcDbVertex
100
AcDb2dVertex
 10
-13.81397056778127
 20
1079.120666321367
 30
0.0
  0
VERTEX
  5
1B5
330
1B2
100
AcDbEntity
  8
Make2D$Visible$Curves
 62
    18
420
        0
370
    -3
100
AcDbVertex
100
AcDb2dVertex
 10
-29.47020461918879
 20
1079.10309770843
 30
0.0
  0
VERTEX
  5
1B6
330
1B2
100
AcDbEntity
  8
Make2D$Visible$Curves
 62
    18
420
        0
370
    -3
100
AcDbVertex
100
AcDb2dVertex
 10
-45.12636676531753
 20
1079.063572663988
 30
0.0
  0
VERTEX
  5
1B7
330
1B2
100
AcDbEntity
  8
Make2D$Visible$Curves
 62
    18
420
        0
370
    -3
100
AcDbVertex
100
AcDb2dVertex
 10
-60.78286860324744
 20
1078.994040190941
 30
0.0
  0
VERTEX
  5
1B8
330
1B2
100
AcDbEntity
  8
Make2D$Visible$Curves
 62
    18
420
        0
370
    -3
100
AcDbVertex
100
AcDb2dVertex
 10
-76.44090950920923
 20
1078.886435486027
 30
0.0
  0
VERTEX
  5
1B9
330
1B2
100
AcDbEntity
  8
Make2D$Visible$Curves
 62
    18
420
        0
370
    -3
100
AcDbVertex
100
AcDb2dVertex
 10
-92.10258867303781
 20
1078.732671896927
 30
0.0
  0
VERTEX
  5
1BA
330
1B2
100
AcDbEntity
  8
Make2D$Visible$Curves
 62
    18
420
        0
370
    -3
100
AcDbVertex
100
AcDb2dVertex
 10
-107.7712792701946
 20
1078.524629034335
 30
0.0
  0
VERTEX
  5
1BB
330
1B2
100
AcDbEntity
  8
Make2D$Visible$Curves
 62
    18
420
        0
370
    -3
100
AcDbVertex
100
AcDb2dVertex
 10
-123.4525391439698
 20
1078.254131802008
 30
0.0
  0
VERTEX
  5
1BC
330
1B2
100
AcDbEntity
  8
Make2D$Visible$Curves
 62
    18
420
        0
370
    -3
100
AcDbVertex
100
AcDb2dVertex
 10
-130.5077060351657
 20
1078.110003102571
 30
0.0
  0
VERTEX
  5
1BD
330
1B2
100
AcDbEntity
  8
Make2D$Visible$Curves
 62
    18
420
        0
370
    -3
100
AcDbVertex
100
AcDb2dVertex
 10
-139.1562548522474
 20
1077.91291032068
 30
0.0
  0
VERTEX
  5
1BE
330
1B2
100
AcDbEntity
  8
Make2D$Visible$Curves
 62
    18
420
        0
370
    -3
100
AcDbVertex
100
AcDb2dVertex
 10
-154.9021426649891
 20
1077.492524418398
 30
0.0
  0
VERTEX
  5
1BF
330
1B2
100
AcDbEntity
  8
Make2D$Visible$Curves
 62
    18
420
        0
370
    -3
100
AcDbVertex
100
AcDb2dVertex
 10
-162.0943887038777
 20
1077.272592163412
 30
0.0
  0
VERTEX
  5
1C0
330
1B2
100
AcDbEntity
  8
Make2D$Visible$Curves
 62
    18
420
        0
370
    -3
100
AcDbVertex
100
AcDb2dVertex
 10
-170.7365420487933
 20
1076.984292407986
 30
0.0
  0
VERTEX
  5
1C1
330
1B2
100
AcDbEntity
  8
Make2D$Visible$Curves
 62
    18
420
        0
370
    -3
100
AcDbVertex
100
AcDb2dVertex
 10
-174.6473465906747
 20
1076.845178508956
 30
0.0
  0
VERTEX
  5
1C2
330
1B2
100
AcDbEntity
  8
Make2D$Visible$Curves
 62
    18
420
        0
370
    -3
100
AcDbVertex
100
AcDb2dVertex
 10
-181.5367451301243
 20
1076.587488942372
 30
0.0
  0
VERTEX
  5
1C3
330
1B2
100
AcDbEntity
  8
Make2D$Visible$Curves
 62
    18
420
        0
370
    -3
100
AcDbVertex
100
AcDb2dVertex
 10
-184.872785169437
 20
1076.456661495497
 30
0.0
  0
SEQEND
  5
1C4
330
1B2
100
AcDbEntity
  8
Make2D$Visible$Curves
 62
    18
420
        0
370
    -3
  0
ENDSEC
  0
SECTION
  2
OBJECTS
  0
DICTIONARY
  5
C
330
0
100
AcDbDictionary
281
     1
  3
ACAD_DETAILVIEWSTYLE
350
20A
  3
ACAD_GROUP
350
D
  3
ACAD_LAYOUT
350
1A
  3
ACAD_MATERIAL
350
43
  3
ACAD_MLEADERSTYLE
350
6B
  3
ACAD_MLINESTYLE
350
17
  3
ACAD_PLOTSETTINGS
350
19
  3
ACAD_PLOTSTYLENAME
350
E
  3
ACAD_SCALELIST
350
47
  3
ACAD_SECTIONVIEWSTYLE
350
20B
  3
ACAD_TABLESTYLE
350
69
  3
ACAD_VISUALSTYLE
350
2A
  3
ACDB_RECOMPOSE_DATA
350
207
  3
AcDbVariableDictionary
350
1C7
  0
DICTIONARY
  5
1C5
330
8
100
AcDbDictionary
280
     1
281
     1
  3
ACAD_XREC_ROUNDTRIP
360
1C6
  0
DICTIONARY
  5
20A
102
{ACAD_REACTORS
330
C
102
}
330
C
100
AcDbDictionary
281
     1
  0
DICTIONARY
  5
D
102
{ACAD_REACTORS
330
C
102
}
330
C
100
AcDbDictionary
281
     1
  0
DICTIONARY
  5
1A
102
{ACAD_REACTORS
330
C
102
}
330
C
100
AcDbDictionary
281
     1
  3
Layout1
350
1E
  3
Layout2
350
26
  3
Model
350
22
  0
DICTIONARY
  5
43
102
{ACAD_REACTORS
330
C
102
}
330
C
100
AcDbDictionary
281
     1
  3
ByBlock
350
45
  3
ByLayer
350
44
  3
Global
350
46
  0
DICTIONARY
  5
6B
102
{ACAD_REACTORS
330
C
102
}
330
C
100
AcDbDictionary
281
     1
  3
Standard
350
6C
  0
DICTIONARY
  5
17
102
{ACAD_REACTORS
330
C
102
}
330
C
100
AcDbDictionary
281
     1
  3
Standard
350
18
  0
DICTIONARY
  5
19
102
{ACAD_REACTORS
330
C
102
}
330
C
100
AcDbDictionary
281
     1
  0
ACDBDICTIONARYWDFLT
  5
E
102
{ACAD_REACTORS
330
C
102
}
330
C
100
AcDbDictionary
281
     1
  3
Normal
350
F
100
AcDbDictionaryWithDefault
340
F
  0
DICTIONARY
  5
47
102
{ACAD_REACTORS
330
C
102
}
330
C
100
AcDbDictionary
281
     1
  3
A0
350
48
  3
A1
350
49
  3
A2
350
4A
  3
A3
350
4B
  3
A4
350
4C
  3
A5
350
4D
  3
A6
350
4E
  3
A7
350
4F
  3
A8
350
50
  3
A9
350
51
  3
B0
350
52
  3
B1
350
53
  3
B2
350
54
  3
B3
350
55
  3
B4
350
56
  3
B5
350
57
  3
B6
350
58
  3
B7
350
59
  3
B8
350
5A
  3
B9
350
5B
  3
C0
350
5C
  3
C1
350
5D
  3
C2
350
5E
  3
C3
350
5F
  3
C4
350
60
  3
C5
350
61
  3
C6
350
62
  3
C7
350
63
  3
C8
350
64
  3
C9
350
65
  3
D0
350
66
  3
D1
350
67
  3
D2
350
68
  0
DICTIONARY
  5
20B
102
{ACAD_REACTORS
330
C
102
}
330
C
100
AcDbDictionary
281
     1
  0
DICTIONARY
  5
69
102
{ACAD_REACTORS
330
C
102
}
330
C
100
AcDbDictionary
281
     1
  3
Standard
350
6A
  0
DICTIONARY
  5
2A
102
{ACAD_REACTORS
330
C
102
}
330
C
100
AcDbDictionary
281
     1
  3
2dWireframe
350
2F
  3
Basic
350
32
  3
Brighten
350
36
  3
ColorChange
350
3A
  3
Conceptual
350
34
  3
Dim
350
35
  3
EdgeColorOff
350
3D
  3
Facepattern
350
39
  3
Flat
350
2B
  3
FlatWithEdges
350
2C
  3
Gouraud
350
2D
  3
GouraudWithEdges
350
2E
  3
Hidden
350
31
  3
JitterOff
350
3B
  3
Linepattern
350
38
  3
OverhangOff
350
3C
  3
Realistic
350
33
  3
Shaded
350
42
  3
Shaded with edges
350
41
  3
Shades of Gray
350
3E
  3
Sketchy
350
3F
  3
Thicken
350
37
  3
Wireframe
350
30
  3
X-Ray
350
40
  0
XRECORD
  5
207
102
{ACAD_REACTORS
330
C
102
}
330
C
100
AcDbXrecord
280
     1
 90
        1
330
6A
  0
DICTIONARY
  5
1C7
102
{ACAD_REACTORS
330
C
102
}
330
C
100
AcDbDictionary
281
     1
  3
CANNOSCALE
350
1C8
  3
CMLEADERSTYLE
350
209
  3
CTABLESTYLE
350
208
  3
MSLTSCALE
350
1C9
  3
XCLIPFRAME
350
1CA
  0
XRECORD
  5
1C6
102
{ACAD_REACTORS
330
1C5
102
}
330
1C5
100
AcDbXrecord
280
     1
102
VTR_0.000_0.000_1.000_1.000_VISUALSTYLE
340
2F
102
VTR_0.000_0.000_1.000_1.000_GRIDDISPLAY
 70
     3
102
VTR_0.000_0.000_1.000_1.000_GRIDMAJOR
 70
     5
102
VTR_0.000_0.000_1.000_1.000_DEFAULTLIGHTING
280
     1
102
VTR_0.000_0.000_1.000_1.000_DEFAULTLIGHTINGTYPE
 70
     1
102
VTR_0.000_0.000_1.000_1.000_BRIGHTNESS
141
0.0
102
VTR_0.000_0.000_1.000_1.000_CONTRAST
142
0.0
  0
LAYOUT
  5
1E
102
{ACAD_REACTORS
330
1A
102
}
330
1A
100
AcDbPlotSettings
  1

  2
none_device
  4

  6

 40
0.0
 41
0.0
 42
0.0
 43
0.0
 44
0.0
 45
0.0
 46
0.0
 47
0.0
 48
0.0
 49
0.0
140
0.0
141
0.0
142
1.0
143
1.0
 70
   688
 72
     0
 73
     0
 74
     5
  7

 75
    16
 76
     0
 77
     2
 78
   300
147
1.0
148
0.0
149
0.0
100
AcDbLayout
  1
Layout1
 70
     1
 71
     1
 10
0.0
 20
0.0
 11
12.0
 21
9.0
 12
0.0
 22
0.0
 32
0.0
 14
1.000000000000000E+20
 24
1.000000000000000E+20
 34
1.000000000000000E+20
 15
-1.000000000000000E+20
 25
-1.000000000000000E+20
 35
-1.000000000000000E+20
146
0.0
 13
0.0
 23
0.0
 33
0.0
 16
1.0
 26
0.0
 36
0.0
 17
0.0
 27
1.0
 37
0.0
 76
     0
330
1B
  0
LAYOUT
  5
26
102
{ACAD_REACTORS
330
1A
102
}
330
1A
100
AcDbPlotSettings
  1

  2
none_device
  4

  6

 40
0.0
 41
0.0
 42
0.0
 43
0.0
 44
0.0
 45
0.0
 46
0.0
 47
0.0
 48
0.0
 49
0.0
140
0.0
141
0.0
142
1.0
143
1.0
 70
   688
 72
     0
 73
     0
 74
     5
  7

 75
    16
 76
     0
 77
     2
 78
   300
147
1.0
148
0.0
149
0.0
100
AcDbLayout
  1
Layout2
 70
     1
 71
     2
 10
0.0
 20
0.0
 11
0.0
 21
0.0
 12
0.0
 22
0.0
 32
0.0
 14
0.0
 24
0.0
 34
0.0
 15
0.0
 25
0.0
 35
0.0
146
0.0
 13
0.0
 23
0.0
 33
0.0
 16
1.0
 26
0.0
 36
0.0
 17
0.0
 27
1.0
 37
0.0
 76
     0
330
23
  0
LAYOUT
  5
22
102
{ACAD_REACTORS
330
1A
102
}
330
1A
100
AcDbPlotSettings
  1

  2
none_device
  4
Letter_(8.50_x_11.00_Inches)
  6

 40
6.35
 41
6.35
 42
6.35000508
 43
6.35000508
 44
215.9
 45
279.4
 46
0.0
 47
0.0
 48
0.0
 49
0.0
140
0.0
141
0.0
142
1.0
143
1.0
 70
  1712
 72
     0
 73
     0
 74
     0
  7

 75
     0
 76
     0
 77
     2
 78
   300
147
1.0
148
0.0
149
0.0
100
AcDbLayout
  1
Model
 70
     1
 71
     0
 10
0.0
 20
0.0
 11
12.0
 21
9.0
 12
0.0
 22
0.0
 32
0.0
 14
1.000000000000000E+20
 24
1.000000000000000E+20
 34
1.000000000000000E+20
 15
-1.000000000000000E+20
 25
-1.000000000000000E+20
 35
-1.000000000000000E+20
146
0.0
 13
0.0
 23
0.0
 33
0.0
 16
1.0
 26
0.0
 36
0.0
 17
0.0
 27
1.0
 37
0.0
 76
     0
330
1F
331
29
  0
MATERIAL
  5
45
102
{ACAD_REACTORS
330
43
102
}
102
{ACAD_XDICTIONARY
360
1FD
102
}
330
43
100
AcDbMaterial
  1
ByBlock
  0
MATERIAL
  5
44
102
{ACAD_REACTORS
330
43
102
}
102
{ACAD_XDICTIONARY
360
1FB
102
}
330
43
100
AcDbMaterial
  1
ByLayer
  0
MATERIAL
  5
46
102
{ACAD_REACTORS
330
43
102
}
102
{ACAD_XDICTIONARY
360
1FF
102
}
330
43
100
AcDbMaterial
  1
Global
  0
MLEADERSTYLE
  5
6C
102
{ACAD_REACTORS
330
6B
102
}
102
{ACAD_XDICTIONARY
360
205
102
}
330
6B
100
AcDbMLeaderStyle
170
     2
171
     1
172
     0
 90
        2
 40
0.0
 41
0.0
173
     1
 91
-1056964608
340
14
 92
       -2
290
     1
 42
0.09
291
     1
 43
0.36
  3
Standard
341
0
 44
0.18
300

342
11
174
     1
178
     6
175
     1
176
     0
 93
-1056964608
 45
0.18
292
     0
297
     0
 46
0.18
343
0
 94
-1056964608
 47
1.0
 49
1.0
140
1.0
293
     1
141
0.0
294
     1
177
     0
142
1.0
295
     0
296
     0
143
0.125
1001
ACAD_MLEADERVER
1070
     2
  0
MLINESTYLE
  5
18
102
{ACAD_REACTORS
330
17
102
}
330
17
100
AcDbMlineStyle
  2
Standard
 70
     0
  3

 62
   256
 51
90.0
 52
90.0
 71
     2
 49
0.5
 62
   256
  6
BYLAYER
 49
-0.5
 62
   256
  6
BYLAYER
  0
ACDBPLACEHOLDER
  5
F
102
{ACAD_REACTORS
330
E
102
}
330
E
  0
SCALE
  5
48
102
{ACAD_REACTORS
330
47
102
}
330
47
100
AcDbScale
 70
     0
300
1:1
140
1.0
141
1.0
290
     1
  0
SCALE
  5
49
102
{ACAD_REACTORS
330
47
102
}
330
47
100
AcDbScale
 70
     0
300
1:2
140
1.0
141
2.0
290
     0
  0
SCALE
  5
4A
102
{ACAD_REACTORS
330
47
102
}
330
47
100
AcDbScale
 70
     0
300
1:4
140
1.0
141
4.0
290
     0
  0
SCALE
  5
4B
102
{ACAD_REACTORS
330
47
102
}
330
47
100
AcDbScale
 70
     0
300
1:5
140
1.0
141
5.0
290
     0
  0
SCALE
  5
4C
102
{ACAD_REACTORS
330
47
102
}
330
47
100
AcDbScale
 70
     0
300
1:8
140
1.0
141
8.0
290
     0
  0
SCALE
  5
4D
102
{ACAD_REACTORS
330
47
102
}
330
47
100
AcDbScale
 70
     0
300
1:10
140
1.0
141
10.0
290
     0
  0
SCALE
  5
4E
102
{ACAD_REACTORS
330
47
102
}
330
47
100
AcDbScale
 70
     0
300
1:16
140
1.0
141
16.0
290
     0
  0
SCALE
  5
4F
102
{ACAD_REACTORS
330
47
102
}
330
47
100
AcDbScale
 70
     0
300
1:20
140
1.0
141
20.0
290
     0
  0
SCALE
  5
50
102
{ACAD_REACTORS
330
47
102
}
330
47
100
AcDbScale
 70
     0
300
1:30
140
1.0
141
30.0
290
     0
  0
SCALE
  5
51
102
{ACAD_REACTORS
330
47
102
}
330
47
100
AcDbScale
 70
     0
300
1:40
140
1.0
141
40.0
290
     0
  0
SCALE
  5
52
102
{ACAD_REACTORS
330
47
102
}
330
47
100
AcDbScale
 70
     0
300
1:50
140
1.0
141
50.0
290
     0
  0
SCALE
  5
53
102
{ACAD_REACTORS
330
47
102
}
330
47
100
AcDbScale
 70
     0
300
1:100
140
1.0
141
100.0
290
     0
  0
SCALE
  5
54
102
{ACAD_REACTORS
330
47
102
}
330
47
100
AcDbScale
 70
     0
300
2:1
140
2.0
141
1.0
290
     0
  0
SCALE
  5
55
102
{ACAD_REACTORS
330
47
102
}
330
47
100
AcDbScale
 70
     0
300
4:1
140
4.0
141
1.0
290
     0
  0
SCALE
  5
56
102
{ACAD_REACTORS
330
47
102
}
330
47
100
AcDbScale
 70
     0
300
8:1
140
8.0
141
1.0
290
     0
  0
SCALE
  5
57
102
{ACAD_REACTORS
330
47
102
}
330
47
100
AcDbScale
 70
     0
300
10:1
140
10.0
141
1.0
290
     0
  0
SCALE
  5
58
102
{ACAD_REACTORS
330
47
102
}
330
47
100
AcDbScale
 70
     0
300
100:1
140
100.0
141
1.0
290
     0
  0
SCALE
  5
59
102
{ACAD_REACTORS
330
47
102
}
330
47
100
AcDbScale
 70
     0
300
1/128" = 1'-0"
140
0.0078125
141
12.0
290
     0
  0
SCALE
  5
5A
102
{ACAD_REACTORS
330
47
102
}
330
47
100
AcDbScale
 70
     0
300
1/64" = 1'-0"
140
0.015625
141
12.0
290
     0
  0
SCALE
  5
5B
102
{ACAD_REACTORS
330
47
102
}
330
47
100
AcDbScale
 70
     0
300
1/32" = 1'-0"
140
0.03125
141
12.0
290
     0
  0
SCALE
  5
5C
102
{ACAD_REACTORS
330
47
102
}
330
47
100
AcDbScale
 70
     0
300
1/16" = 1'-0"
140
0.0625
141
12.0
290
     0
  0
SCALE
  5
5D
102
{ACAD_REACTORS
330
47
102
}
330
47
100
AcDbScale
 70
     0
300
3/32" = 1'-0"
140
0.09375
141
12.0
290
     0
  0
SCALE
  5
5E
102
{ACAD_REACTORS
330
47
102
}
330
47
100
AcDbScale
 70
     0
300
1/8" = 1'-0"
140
0.125
141
12.0
290
     0
  0
SCALE
  5
5F
102
{ACAD_REACTORS
330
47
102
}
330
47
100
AcDbScale
 70
     0
300
3/16" = 1'-0"
140
0.1875
141
12.0
290
     0
  0
SCALE
  5
60
102
{ACAD_REACTORS
330
47
102
}
330
47
100
AcDbScale
 70
     0
300
1/4" = 1'-0"
140
0.25
141
12.0
290
     0
  0
SCALE
  5
61
102
{ACAD_REACTORS
330
47
102
}
330
47
100
AcDbScale
 70
     0
300
3/8" = 1'-0"
140
0.375
141
12.0
290
     0
  0
SCALE
  5
62
102
{ACAD_REACTORS
330
47
102
}
330
47
100
AcDbScale
 70
     0
300
1/2" = 1'-0"
140
0.5
141
12.0
290
     0
  0
SCALE
  5
63
102
{ACAD_REACTORS
330
47
102
}
330
47
100
AcDbScale
 70
     0
300
3/4" = 1'-0"
140
0.75
141
12.0
290
     0
  0
SCALE
  5
64
102
{ACAD_REACTORS
330
47
102
}
330
47
100
AcDbScale
 70
     0
300
1" = 1'-0"
140
1.0
141
12.0
290
     0
  0
SCALE
  5
65
102
{ACAD_REACTORS
330
47
102
}
330
47
100
AcDbScale
 70
     0
300
1-1/2" = 1'-0"
140
1.5
141
12.0
290
     0
  0
SCALE
  5
66
102
{ACAD_REACTORS
330
47
102
}
330
47
100
AcDbScale
 70
     0
300
3" = 1'-0"
140
3.0
141
12.0
290
     0
  0
SCALE
  5
67
102
{ACAD_REACTORS
330
47
102
}
330
47
100
AcDbScale
 70
     0
300
6" = 1'-0"
140
6.0
141
12.0
290
     0
  0
SCALE
  5
68
102
{ACAD_REACTORS
330
47
102
}
330
47
100
AcDbScale
 70
     0
300
1'-0" = 1'-0"
140
12.0
141
12.0
290
     0
  0
TABLESTYLE
  5
6A
102
{ACAD_REACTORS
330
69
102
}
102
{ACAD_XDICTIONARY
360
201
102
}
330
69
100
AcDbTableStyle
  3
Standard
 70
     0
 71
     0
 40
0.06
 41
0.06
280
     0
281
     0
  7
Standard
140
0.18
170
     2
 62
     0
 63
   257
283
     0
274
    -2
284
     1
 64
     0
275
    -2
285
     1
 65
     0
276
    -2
286
     1
 66
     0
277
    -2
287
     1
 67
     0
278
    -2
288
     1
 68
     0
279
    -2
289
     1
 69
     0
  7
Standard
140
0.25
170
     5
 62
     0
 63
   257
283
     0
274
    -2
284
     1
 64
     0
275
    -2
285
     1
 65
     0
276
    -2
286
     1
 66
     0
277
    -2
287
     1
 67
     0
278
    -2
288
     1
 68
     0
279
    -2
289
     1
 69
     0
  7
Standard
140
0.18
170
     5
 62
     0
 63
   257
283
     0
274
    -2
284
     1
 64
     0
275
    -2
285
     1
 65
     0
276
    -2
286
     1
 66
     0
277
    -2
287
     1
 67
     0
278
    -2
288
     1
 68
     0
279
    -2
289
     1
 69
     0
  0
VISUALSTYLE
  5
2F
102
{ACAD_REACTORS
330
2A
102
}
102
{ACAD_XDICTIONARY
360
1D3
102
}
330
2A
100
AcDbVisualStyle
  2
2dWireframe
 70
     4
 71
     0
 72
     2
 73
     0
 90
        0
 40
0.6
 41
30.0
 62
     5
 63
     7
421
 16777215
 74
     1
 91
        4
 64
     7
 65
   257
 75
     1
175
     1
 42
1.0
 92
        0
 66
   257
 43
1.0
 76
     1
 77
     6
 78
     2
 67
     7
 79
     5
170
     0
171
     0
290
     0
174
     0
 93
        1
 44
0.0
173
     0
291
     0
 45
0.0
1001
ACAD
1000
AcDbSavedByObjectVersion
1070
     0
  0
VISUALSTYLE
  5
32
102
{ACAD_REACTORS
330
2A
102
}
102
{ACAD_XDICTIONARY
360
1D9
102
}
330
2A
100
AcDbVisualStyle
  2
Basic
 70
     7
 71
     1
 72
     0
 73
     1
 90
        0
 40
0.6
 41
30.0
 62
     5
 63
     7
421
 16777215
 74
     0
 91
        4
 64
     7
 65
   257
 75
     1
175
     1
 42
1.0
 92
        8
 66
     7
 43
1.0
 76
     1
 77
     6
 78
     2
 67
     7
 79
     5
170
     0
171
     0
290
     0
174
     0
 93
        1
 44
0.0
173
     0
291
     1
 45
0.0
1001
ACAD
1000
AcDbSavedByObjectVersion
1070
     0
  0
VISUALSTYLE
  5
36
102
{ACAD_REACTORS
330
2A
102
}
102
{ACAD_XDICTIONARY
360
1E1
102
}
330
2A
100
AcDbVisualStyle
  2
Brighten
 70
    12
 71
     2
 72
     2
 73
     0
 90
        0
 40
0.6
 41
30.0
 62
     5
 63
     7
421
 16777215
 74
     1
 91
        4
 64
     7
 65
   257
 75
     1
175
     1
 42
1.0
 92
        8
 66
     7
 43
1.0
 76
     1
 77
     6
 78
     2
 67
     7
 79
     5
170
     0
171
     0
290
     0
174
     0
 93
        1
 44
50.0
173
     0
291
     1
 45
0.0
1001
ACAD
1000
AcDbSavedByObjectVersion
1070
     0
  0
VISUALSTYLE
  5
3A
102
{ACAD_REACTORS
330
2A
102
}
102
{ACAD_XDICTIONARY
360
1E9
102
}
330
2A
100
AcDbVisualStyle
  2
ColorChange
 70
    16
 71
     2
 72
     2
 73
     3
 90
        0
 40
0.6
 41
30.0
 62
     5
 63
     8
421
  8421504
 74
     1
 91
        4
 64
     7
 65
   257
 75
     1
175
     1
 42
1.0
 92
        8
 66
     8
424
  8421504
 43
1.0
 76
     1
 77
     6
 78
     2
 67
     7
 79
     5
170
     0
171
     0
290
     0
174
     0
 93
        1
 44
0.0
173
     0
291
     1
 45
0.0
1001
ACAD
1000
AcDbSavedByObjectVersion
1070
     0
  0
VISUALSTYLE
  5
34
102
{ACAD_REACTORS
330
2A
102
}
102
{ACAD_XDICTIONARY
360
1DD
102
}
330
2A
100
AcDbVisualStyle
  2
Conceptual
 70
     9
 71
     3
 72
     2
 73
     0
 90
        0
 40
0.6
 41
30.0
 62
     5
 63
     7
421
 16777215
 74
     2
 91
        2
 64
     7
 65
   257
 75
     1
175
     1
 42
179.0
 92
        8
 66
     7
 43
1.0
 76
     1
 77
     6
 78
     2
 67
     7
 79
     3
170
     0
171
     0
290
     0
174
     0
 93
        1
 44
0.0
173
     0
291
     0
 45
0.0
1001
ACAD
1000
AcDbSavedByObjectVersion
1070
     0
  0
VISUALSTYLE
  5
35
102
{ACAD_REACTORS
330
2A
102
}
102
{ACAD_XDICTIONARY
360
1DF
102
}
330
2A
100
AcDbVisualStyle
  2
Dim
 70
    11
 71
     2
 72
     2
 73
     0
 90
        0
 40
0.6
 41
30.0
 62
     5
 63
     7
421
 16777215
 74
     1
 91
        4
 64
     7
 65
   257
 75
     1
175
     1
 42
1.0
 92
        8
 66
     7
 43
1.0
 76
     1
 77
     6
 78
     2
 67
     7
 79
     5
170
     0
171
     0
290
     0
174
     0
 93
        1
 44
-50.0
173
     0
291
     1
 45
0.0
1001
ACAD
1000
AcDbSavedByObjectVersion
1070
     0
  0
VISUALSTYLE
  5
3D
102
{ACAD_REACTORS
330
2A
102
}
102
{ACAD_XDICTIONARY
360
1EF
102
}
330
2A
100
AcDbVisualStyle
  2
EdgeColorOff
 70
    22
 71
     2
 72
     2
 73
     0
 90
        0
 40
0.6
 41
30.0
 62
     5
 63
     7
421
 16777215
 74
     1
 91
        4
 64
     7
 65
   257
 75
     1
175
     1
 42
1.0
 92
        8
 66
     7
 43
1.0
 76
     1
 77
     6
 78
     2
 67
     7
 79
     5
170
     0
171
     0
290
     0
174
     0
 93
        1
 44
0.0
173
     0
291
     1
 45
0.0
1001
ACAD
1000
AcDbSavedByObjectVersion
1070
     0
  0
VISUALSTYLE
  5
39
102
{ACAD_REACTORS
330
2A
102
}
102
{ACAD_XDICTIONARY
360
1E7
102
}
330
2A
100
AcDbVisualStyle
  2
Facepattern
 70
    15
 71
     2
 72
     2
 73
     0
 90
        0
 40
0.6
 41
30.0
 62
     5
 63
     7
421
 16777215
 74
     1
 91
        4
 64
     7
 65
   257
 75
     1
175
     1
 42
1.0
 92
        8
 66
     7
 43
1.0
 76
     1
 77
     6
 78
     2
 67
     7
 79
     5
170
     0
171
     0
290
     0
174
     0
 93
        1
 44
0.0
173
     0
291
     1
 45
0.0
1001
ACAD
1000
AcDbSavedByObjectVersion
1070
     0
  0
VISUALSTYLE
  5
2B
102
{ACAD_REACTORS
330
2A
102
}
102
{ACAD_XDICTIONARY
360
1CB
102
}
330
2A
100
AcDbVisualStyle
  2
Flat
 70
     0
 71
     2
 72
     1
 73
     1
 90
        2
 40
0.6
 41
30.0
 62
     5
 63
     7
421
 16777215
 74
     0
 91
        0
 64
     7
 65
   257
 75
     1
175
     1
 42
1.0
 92
        8
 66
     7
 43
1.0
 76
     1
 77
     6
 78
     2
 67
     7
 79
     5
170
     0
171
     0
290
     0
174
     0
 93
       13
 44
0.0
173
     0
291
     1
 45
0.0
1001
ACAD
1000
AcDbSavedByObjectVersion
1070
     0
  0
VISUALSTYLE
  5
2C
102
{ACAD_REACTORS
330
2A
102
}
102
{ACAD_XDICTIONARY
360
1CD
102
}
330
2A
100
AcDbVisualStyle
  2
FlatWithEdges
 70
     1
 71
     2
 72
     1
 73
     1
 90
        2
 40
0.6
 41
30.0
 62
     5
 63
     7
421
 16777215
 74
     1
 91
        0
 64
     7
 65
   257
 75
     1
175
     1
 42
1.0
 92
        0
 66
   257
 43
1.0
 76
     1
 77
     6
 78
     2
 67
     7
 79
     5
170
     0
171
     0
290
     0
174
     0
 93
       13
 44
0.0
173
     0
291
     1
 45
0.0
1001
ACAD
1000
AcDbSavedByObjectVersion
1070
     0
  0
VISUALSTYLE
  5
2D
102
{ACAD_REACTORS
330
2A
102
}
102
{ACAD_XDICTIONARY
360
1CF
102
}
330
2A
100
AcDbVisualStyle
  2
Gouraud
 70
     2
 71
     2
 72
     2
 73
     1
 90
        2
 40
0.6
 41
30.0
 62
     5
 63
     7
421
 16777215
 74
     0
 91
        0
 64
     7
 65
   257
 75
     1
175
     1
 42
1.0
 92
        0
 66
     7
 43
1.0
 76
     1
 77
     6
 78
     2
 67
     7
 79
     5
170
     0
171
     0
290
     0
174
     0
 93
       13
 44
0.0
173
     0
291
     1
 45
0.0
1001
ACAD
1000
AcDbSavedByObjectVersion
1070
     0
  0
VISUALSTYLE
  5
2E
102
{ACAD_REACTORS
330
2A
102
}
102
{ACAD_XDICTIONARY
360
1D1
102
}
330
2A
100
AcDbVisualStyle
  2
GouraudWithEdges
 70
     3
 71
     2
 72
     2
 73
     1
 90
        2
 40
0.6
 41
30.0
 62
     5
 63
     7
421
 16777215
 74
     1
 91
        0
 64
     7
 65
   257
 75
     1
175
     1
 42
1.0
 92
        0
 66
   257
 43
1.0
 76
     1
 77
     6
 78
     2
 67
     7
 79
     5
170
     0
171
     0
290
     0
174
     0
 93
       13
 44
0.0
173
     0
291
     1
 45
0.0
1001
ACAD
1000
AcDbSavedByObjectVersion
1070
     0
  0
VISUALSTYLE
  5
31
102
{ACAD_REACTORS
330
2A
102
}
102
{ACAD_XDICTIONARY
360
1D7
102
}
330
2A
100
AcDbVisualStyle
  2
Hidden
 70
     6
 71
     1
 72
     2
 73
     2
 90
        0
 40
0.6
 41
30.0
 62
     5
 63
     7
421
 16777215
 74
     2
 91
        2
 64
     7
 65
   257
 75
     2
175
     1
 42
40.0
 92
        0
 66
   257
 43
1.0
 76
     1
 77
     6
 78
     2
 67
     7
 79
     3
170
     0
171
     0
290
     0
174
     0
 93
        1
 44
0.0
173
     0
291
     0
 45
0.0
1001
ACAD
1000
AcDbSavedByObjectVersion
1070
     0
  0
VISUALSTYLE
  5
3B
102
{ACAD_REACTORS
330
2A
102
}
102
{ACAD_XDICTIONARY
360
1EB
102
}
330
2A
100
AcDbVisualStyle
  2
JitterOff
 70
    20
 71
     2
 72
     2
 73
     0
 90
        0
 40
0.6
 41
30.0
 62
     5
 63
     7
421
 16777215
 74
     1
 91
        4
 64
     7
 65
   257
 75
     1
175
     1
 42
1.0
 92
       10
 66
     7
 43
1.0
 76
     1
 77
     6
 78
     2
 67
     7
 79
     5
170
     0
171
     0
290
     0
174
     0
 93
        1
 44
0.0
173
     0
291
     1
 45
0.0
1001
ACAD
1000
AcDbSavedByObjectVersion
1070
     0
  0
VISUALSTYLE
  5
38
102
{ACAD_REACTORS
330
2A
102
}
102
{ACAD_XDICTIONARY
360
1E5
102
}
330
2A
100
AcDbVisualStyle
  2
Linepattern
 70
    14
 71
     2
 72
     2
 73
     0
 90
        0
 40
0.6
 41
30.0
 62
     5
 63
     7
421
 16777215
 74
     1
 91
        4
 64
     7
 65
   257
 75
     7
175
     7
 42
1.0
 92
        8
 66
     7
 43
1.0
 76
     1
 77
     6
 78
     2
 67
     7
 79
     5
170
     0
171
     0
290
     0
174
     0
 93
        1
 44
0.0
173
     0
291
     1
 45
0.0
1001
ACAD
1000
AcDbSavedByObjectVersion
1070
     0
  0
VISUALSTYLE
  5
3C
102
{ACAD_REACTORS
330
2A
102
}
102
{ACAD_XDICTIONARY
360
1ED
102
}
330
2A
100
AcDbVisualStyle
  2
OverhangOff
 70
    21
 71
     2
 72
     2
 73
     0
 90
        0
 40
0.6
 41
30.0
 62
     5
 63
     7
421
 16777215
 74
     1
 91
        4
 64
     7
 65
   257
 75
     1
175
     1
 42
1.0
 92
        9
 66
     7
 43
1.0
 76
     1
 77
     6
 78
     2
 67
     7
 79
     5
170
     0
171
     0
290
     0
174
     0
 93
        1
 44
0.0
173
     0
291
     1
 45
0.0
1001
ACAD
1000
AcDbSavedByObjectVersion
1070
     0
  0
VISUALSTYLE
  5
33
102
{ACAD_REACTORS
330
2A
102
}
102
{ACAD_XDICTIONARY
360
1DB
102
}
330
2A
100
AcDbVisualStyle
  2
Realistic
 70
     8
 71
     2
 72
     3
 73
     0
 90
        2
 40
0.6
 41
30.0
 62
     5
 63
     7
421
 16777215
 74
     0
 91
        0
 64
     7
 65
   257
 75
     1
175
     1
 42
1.0
 92
        8
 66
   257
 43
1.0
 76
     1
 77
     6
 78
     2
 67
     7
 79
     3
170
     0
171
     0
290
     0
174
     0
 93
       13
 44
0.0
173
     0
291
     0
 45
0.0
1001
ACAD
1000
AcDbSavedByObjectVersion
1070
     0
  0
VISUALSTYLE
  5
42
102
{ACAD_REACTORS
330
2A
102
}
102
{ACAD_XDICTIONARY
360
1F9
102
}
330
2A
100
AcDbVisualStyle
  2
Shaded
 70
    27
 71
     2
 72
     2
 73
     1
 90
        2
 40
0.6
 41
30.0
 62
     5
 63
     7
421
 16777215
 74
     0
 91
        4
 64
     7
 65
   257
 75
     1
175
     1
 42
1.0
 92
        8
 66
   257
 43
1.0
 76
     1
 77
     6
 78
     2
 67
     8
425
  7895160
 79
     3
170
     0
171
     0
290
     0
174
     0
 93
        5
 44
0.0
173
     0
291
     0
 45
0.0
1001
ACAD
1000
AcDbSavedByObjectVersion
1070
     0
  0
VISUALSTYLE
  5
41
102
{ACAD_REACTORS
330
2A
102
}
102
{ACAD_XDICTIONARY
360
1F7
102
}
330
2A
100
AcDbVisualStyle
  2
Shaded with edges
 70
    26
 71
     2
 72
     2
 73
     1
 90
        2
 40
0.6
 41
30.0
 62
     5
 63
     7
421
 16777215
 74
     1
 91
       10
 64
     7
 65
   257
 75
     2
175
     1
 42
1.0
 92
        8
 66
   257
 43
1.0
 76
     1
 77
     6
 78
     2
 67
     7
 79
     3
170
     0
171
     0
290
     0
174
     0
 93
        5
 44
0.0
173
     0
291
     0
 45
0.0
1001
ACAD
1000
AcDbSavedByObjectVersion
1070
     0
  0
VISUALSTYLE
  5
3E
102
{ACAD_REACTORS
330
2A
102
}
102
{ACAD_XDICTIONARY
360
1F1
102
}
330
2A
100
AcDbVisualStyle
  2
Shades of Gray
 70
    23
 71
     2
 72
     2
 73
     3
 90
        0
 40
0.6
 41
30.0
 62
     5
 63
     7
421
 16777215
 74
     2
 91
        2
 64
     7
 65
     7
 75
     1
175
     1
 42
40.0
 92
        8
 66
     7
 43
1.0
 76
     1
 77
     6
 78
     2
 67
     7
 79
     3
170
     0
171
     0
290
     0
174
     0
 93
        1
 44
0.0
173
     0
291
     0
 45
0.0
1001
ACAD
1000
AcDbSavedByObjectVersion
1070
     0
  0
VISUALSTYLE
  5
3F
102
{ACAD_REACTORS
330
2A
102
}
102
{ACAD_XDICTIONARY
360
1F3
102
}
330
2A
100
AcDbVisualStyle
  2
Sketchy
 70
    24
 71
     1
 72
     2
 73
     2
 90
        0
 40
0.6
 41
30.0
 62
     5
 63
     7
421
 16777215
 74
     2
 91
        2
 64
     7
 65
     7
 75
     1
175
     1
 42
40.0
 92
       11
 66
     7
 43
1.0
 76
     1
 77
     6
 78
     2
 67
     7
 79
     6
170
     0
171
     0
290
     0
174
     0
 93
        1
 44
0.0
173
     0
291
     0
 45
0.0
1001
ACAD
1000
AcDbSavedByObjectVersion
1070
     0
  0
VISUALSTYLE
  5
37
102
{ACAD_REACTORS
330
2A
102
}
102
{ACAD_XDICTIONARY
360
1E3
102
}
330
2A
100
AcDbVisualStyle
  2
Thicken
 70
    13
 71
     2
 72
     2
 73
     0
 90
        0
 40
0.6
 41
30.0
 62
     5
 63
     7
421
 16777215
 74
     1
 91
        4
 64
     7
 65
   257
 75
     1
175
     1
 42
1.0
 92
       12
 66
     7
 43
1.0
 76
     1
 77
     6
 78
     2
 67
     7
 79
     5
170
     0
171
     0
290
     0
174
     0
 93
        1
 44
0.0
173
     0
291
     1
 45
0.0
1001
ACAD
1000
AcDbSavedByObjectVersion
1070
     0
  0
VISUALSTYLE
  5
30
102
{ACAD_REACTORS
330
2A
102
}
102
{ACAD_XDICTIONARY
360
1D5
102
}
330
2A
100
AcDbVisualStyle
  2
Wireframe
 70
     5
 71
     0
 72
     2
 73
     0
 90
        0
 40
0.6
 41
30.0
 62
     5
 63
     7
421
 16777215
 74
     1
 91
        4
 64
     7
 65
   257
 75
     1
175
     1
 42
1.0
 92
        0
 66
   257
 43
1.0
 76
     1
 77
     6
 78
     2
 67
     7
 79
     3
170
     0
171
     0
290
     0
174
     0
 93
        1
 44
0.0
173
     0
291
     0
 45
0.0
1001
ACAD
1000
AcDbSavedByObjectVersion
1070
     0
  0
VISUALSTYLE
  5
40
102
{ACAD_REACTORS
330
2A
102
}
102
{ACAD_XDICTIONARY
360
1F5
102
}
330
2A
100
AcDbVisualStyle
  2
X-Ray
 70
    25
 71
     2
 72
     2
 73
     1
 90
        1
 40
0.5
 41
30.0
 62
     5
 63
     7
421
 16777215
 74
     1
 91
        0
 64
     7
 65
   257
 75
     1
175
     1
 42
1.0
 92
        8
 66
     7
 43
1.0
 76
     1
 77
     6
 78
     2
 67
     7
 79
     3
170
     0
171
     0
290
     0
174
     0
 93
       13
 44
0.0
173
     0
291
     0
 45
0.0
1001
ACAD
1000
AcDbSavedByObjectVersion
1070
     0
  0
DICTIONARYVAR
  5
1C8
102
{ACAD_REACTORS
330
1C7
102
}
330
1C7
100
DictionaryVariables
280
     0
  1
1:1
  0
DICTIONARYVAR
  5
209
102
{ACAD_REACTORS
330
1C7
102
}
330
1C7
100
DictionaryVariables
280
     0
  1
Standard
  0
DICTIONARYVAR
  5
208
102
{ACAD_REACTORS
330
1C7
102
}
330
1C7
100
DictionaryVariables
280
     0
  1
Standard
  0
DICTIONARYVAR
  5
1C9
102
{ACAD_REACTORS
330
1C7
102
}
330
1C7
100
DictionaryVariables
280
     0
  1
1
  0
DICTIONARYVAR
  5
1CA
102
{ACAD_REACTORS
330
1C7
102
}
330
1C7
100
DictionaryVariables
280
     0
  1
2
  0
DICTIONARY
  5
1FD
330
45
100
AcDbDictionary
280
     1
281
     1
  3
ACAD_XREC_ROUNDTRIP
360
1FE
  0
DICTIONARY
  5
1FB
330
44
100
AcDbDictionary
280
     1
281
     1
  3
ACAD_XREC_ROUNDTRIP
360
1FC
  0
DICTIONARY
  5
1FF
330
46
100
AcDbDictionary
280
     1
281
     1
  3
ACAD_XREC_ROUNDTRIP
360
200
  0
DICTIONARY
  5
205
330
6C
100
AcDbDictionary
280
     1
281
     1
  3
ACAD_XREC_ROUNDTRIP
360
206
  0
DICTIONARY
  5
201
330
6A
100
AcDbDictionary
280
     1
281
     1
  3
ACAD_ROUNDTRIP_2008_TABLESTYLE_CELLSTYLEMAP
360
203
  3
ACAD_XREC_ROUNDTRIP
360
202
  0
DICTIONARY
  5
1D3
330
2F
100
AcDbDictionary
280
     1
281
     1
  3
ACAD_XREC_ROUNDTRIP
360
1D4
  0
DICTIONARY
  5
1D9
330
32
100
AcDbDictionary
280
     1
281
     1
  3
ACAD_XREC_ROUNDTRIP
360
1DA
  0
DICTIONARY
  5
1E1
330
36
100
AcDbDictionary
280
     1
281
     1
  3
ACAD_XREC_ROUNDTRIP
360
1E2
  0
DICTIONARY
  5
1E9
330
3A
100
AcDbDictionary
280
     1
281
     1
  3
ACAD_XREC_ROUNDTRIP
360
1EA
  0
DICTIONARY
  5
1DD
330
34
100
AcDbDictionary
280
     1
281
     1
  3
ACAD_XREC_ROUNDTRIP
360
1DE
  0
DICTIONARY
  5
1DF
330
35
100
AcDbDictionary
280
     1
281
     1
  3
ACAD_XREC_ROUNDTRIP
360
1E0
  0
DICTIONARY
  5
1EF
330
3D
100
AcDbDictionary
280
     1
281
     1
  3
ACAD_XREC_ROUNDTRIP
360
1F0
  0
DICTIONARY
  5
1E7
330
39
100
AcDbDictionary
280
     1
281
     1
  3
ACAD_XREC_ROUNDTRIP
360
1E8
  0
DICTIONARY
  5
1CB
330
2B
100
AcDbDictionary
280
     1
281
     1
  3
ACAD_XREC_ROUNDTRIP
360
1CC
  0
DICTIONARY
  5
1CD
330
2C
100
AcDbDictionary
280
     1
281
     1
  3
ACAD_XREC_ROUNDTRIP
360
1CE
  0
DICTIONARY
  5
1CF
330
2D
100
AcDbDictionary
280
     1
281
     1
  3
ACAD_XREC_ROUNDTRIP
360
1D0
  0
DICTIONARY
  5
1D1
330
2E
100
AcDbDictionary
280
     1
281
     1
  3
ACAD_XREC_ROUNDTRIP
360
1D2
  0
DICTIONARY
  5
1D7
330
31
100
AcDbDictionary
280
     1
281
     1
  3
ACAD_XREC_ROUNDTRIP
360
1D8
  0
DICTIONARY
  5
1EB
330
3B
100
AcDbDictionary
280
     1
281
     1
  3
ACAD_XREC_ROUNDTRIP
360
1EC
  0
DICTIONARY
  5
1E5
330
38
100
AcDbDictionary
280
     1
281
     1
  3
ACAD_XREC_ROUNDTRIP
360
1E6
  0
DICTIONARY
  5
1ED
330
3C
100
AcDbDictionary
280
     1
281
     1
  3
ACAD_XREC_ROUNDTRIP
360
1EE
  0
DICTIONARY
  5
1DB
330
33
100
AcDbDictionary
280
     1
281
     1
  3
ACAD_XREC_ROUNDTRIP
360
1DC
  0
DICTIONARY
  5
1F9
330
42
100
AcDbDictionary
280
     1
281
     1
  3
ACAD_XREC_ROUNDTRIP
360
1FA
  0
DICTIONARY
  5
1F7
330
41
100
AcDbDictionary
280
     1
281
     1
  3
ACAD_XREC_ROUNDTRIP
360
1F8
  0
DICTIONARY
  5
1F1
330
3E
100
AcDbDictionary
280
     1
281
     1
  3
ACAD_XREC_ROUNDTRIP
360
1F2
  0
DICTIONARY
  5
1F3
330
3F
100
AcDbDictionary
280
     1
281
     1
  3
ACAD_XREC_ROUNDTRIP
360
1F4
  0
DICTIONARY
  5
1E3
330
37
100
AcDbDictionary
280
     1
281
     1
  3
ACAD_XREC_ROUNDTRIP
360
1E4
  0
DICTIONARY
  5
1D5
330
30
100
AcDbDictionary
280
     1
281
     1
  3
ACAD_XREC_ROUNDTRIP
360
1D6
  0
DICTIONARY
  5
1F5
330
40
100
AcDbDictionary
280
     1
281
     1
  3
ACAD_XREC_ROUNDTRIP
360
1F6
  0
XRECORD
  5
1FE
102
{ACAD_REACTORS
330
1FD
102
}
330
1FD
100
AcDbXrecord
280
     1
102
MATERIAL
148
0.0
149
0.0
149
0.0
 93
        0
 94
      127
282
     0
 72
     1
 77
     1
171
     1
175
     1
179
     1
273
     0
  0
XRECORD
  5
1FC
102
{ACAD_REACTORS
330
1FB
102
}
330
1FB
100
AcDbXrecord
280
     1
102
MATERIAL
148
0.0
149
0.0
149
0.0
 93
        0
 94
      127
282
     0
 72
     1
 77
     1
171
     1
175
     1
179
     1
273
     0
  0
XRECORD
  5
200
102
{ACAD_REACTORS
330
1FF
102
}
330
1FF
100
AcDbXrecord
280
     1
102
MATERIAL
148
0.0
149
0.0
149
0.0
 93
        0
 94
      127
282
     0
 72
     1
 77
     1
171
     1
175
     1
179
     1
273
     0
  0
XRECORD
  5
206
102
{ACAD_REACTORS
330
205
102
}
330
205
100
AcDbXrecord
280
     1
102
ACAD_ROUNDTRIP_2010_MLEADER_STYLE
  0
CELLSTYLEMAP
  5
203
102
{ACAD_REACTORS
330
201
102
}
330
201
100
AcDbCellStyleMap
 90
        3
300
CELLSTYLE
  1
TABLEFORMAT_BEGIN
 90
        5
170
     1
 91
        0
 92
    32768
 62
   257
 93
        1
300
CONTENTFORMAT
  1
CONTENTFORMAT_BEGIN
 90
        0
 91
        0
 92
        4
 93
        0
300

 40
0.0
140
1.0
 94
        5
 62
     0
340
11
144
0.25
309
CONTENTFORMAT_END
171
     1
301
MARGIN
  1
CELLMARGIN_BEGIN
 40
0.06
 40
0.06
 40
0.06
 40
0.06
 40
0.06
 40
0.06
309
CELLMARGIN_END
 94
        6
 95
        1
302
GRIDFORMAT
  1
GRIDFORMAT_BEGIN
 90
        0
 91
        1
 62
     0
 92
       -2
340
14
 93
        0
 40
0.045
309
GRIDFORMAT_END
 95
        2
302
GRIDFORMAT
  1
GRIDFORMAT_BEGIN
 90
        0
 91
        1
 62
     0
 92
       -2
340
14
 93
        0
 40
0.045
309
GRIDFORMAT_END
 95
        4
302
GRIDFORMAT
  1
GRIDFORMAT_BEGIN
 90
        0
 91
        1
 62
     0
 92
       -2
340
14
 93
        0
 40
0.045
309
GRIDFORMAT_END
 95
        8
302
GRIDFORMAT
  1
GRIDFORMAT_BEGIN
 90
        0
 91
        1
 62
     0
 92
       -2
340
14
 93
        0
 40
0.045
309
GRIDFORMAT_END
 95
       16
302
GRIDFORMAT
  1
GRIDFORMAT_BEGIN
 90
        0
 91
        1
 62
     0
 92
       -2
340
14
 93
        0
 40
0.045
309
GRIDFORMAT_END
 95
       32
302
GRIDFORMAT
  1
GRIDFORMAT_BEGIN
 90
        0
 91
        1
 62
     0
 92
       -2
340
14
 93
        0
 40
0.045
309
GRIDFORMAT_END
309
TABLEFORMAT_END
  1
CELLSTYLE_BEGIN
 90
        1
 91
        1
300
_TITLE
309
CELLSTYLE_END
300
CELLSTYLE
  1
TABLEFORMAT_BEGIN
 90
        5
170
     1
 91
        0
 92
        0
 62
   257
 93
        1
300
CONTENTFORMAT
  1
CONTENTFORMAT_BEGIN
 90
        0
 91
        0
 92
        4
 93
        0
300

 40
0.0
140
1.0
 94
        5
 62
     0
340
11
144
0.18
309
CONTENTFORMAT_END
171
     1
301
MARGIN
  1
CELLMARGIN_BEGIN
 40
0.06
 40
0.06
 40
0.06
 40
0.06
 40
0.06
 40
0.06
309
CELLMARGIN_END
 94
        6
 95
        1
302
GRIDFORMAT
  1
GRIDFORMAT_BEGIN
 90
        0
 91
        1
 62
     0
 92
       -2
340
14
 93
        0
 40
0.045
309
GRIDFORMAT_END
 95
        2
302
GRIDFORMAT
  1
GRIDFORMAT_BEGIN
 90
        0
 91
        1
 62
     0
 92
       -2
340
14
 93
        0
 40
0.045
309
GRIDFORMAT_END
 95
        4
302
GRIDFORMAT
  1
GRIDFORMAT_BEGIN
 90
        0
 91
        1
 62
     0
 92
       -2
340
14
 93
        0
 40
0.045
309
GRIDFORMAT_END
 95
        8
302
GRIDFORMAT
  1
GRIDFORMAT_BEGIN
 90
        0
 91
        1
 62
     0
 92
       -2
340
14
 93
        0
 40
0.045
309
GRIDFORMAT_END
 95
       16
302
GRIDFORMAT
  1
GRIDFORMAT_BEGIN
 90
        0
 91
        1
 62
     0
 92
       -2
340
14
 93
        0
 40
0.045
309
GRIDFORMAT_END
 95
       32
302
GRIDFORMAT
  1
GRIDFORMAT_BEGIN
 90
        0
 91
        1
 62
     0
 92
       -2
340
14
 93
        0
 40
0.045
309
GRIDFORMAT_END
309
TABLEFORMAT_END
  1
CELLSTYLE_BEGIN
 90
        2
 91
        1
300
_HEADER
309
CELLSTYLE_END
300
CELLSTYLE
  1
TABLEFORMAT_BEGIN
 90
        5
170
     1
 91
        0
 92
        0
 62
   257
 93
        1
300
CONTENTFORMAT
  1
CONTENTFORMAT_BEGIN
 90
        0
 91
        0
 92
        4
 93
        0
300

 40
0.0
140
1.0
 94
        2
 62
     0
340
11
144
0.18
309
CONTENTFORMAT_END
171
     1
301
MARGIN
  1
CELLMARGIN_BEGIN
 40
0.06
 40
0.06
 40
0.06
 40
0.06
 40
0.06
 40
0.06
309
CELLMARGIN_END
 94
        6
 95
        1
302
GRIDFORMAT
  1
GRIDFORMAT_BEGIN
 90
        0
 91
        1
 62
     0
 92
       -2
340
14
 93
        0
 40
0.045
309
GRIDFORMAT_END
 95
        2
302
GRIDFORMAT
  1
GRIDFORMAT_BEGIN
 90
        0
 91
        1
 62
     0
 92
       -2
340
14
 93
        0
 40
0.045
309
GRIDFORMAT_END
 95
        4
302
GRIDFORMAT
  1
GRIDFORMAT_BEGIN
 90
        0
 91
        1
 62
     0
 92
       -2
340
14
 93
        0
 40
0.045
309
GRIDFORMAT_END
 95
        8
302
GRIDFORMAT
  1
GRIDFORMAT_BEGIN
 90
        0
 91
        1
 62
     0
 92
       -2
340
14
 93
        0
 40
0.045
309
GRIDFORMAT_END
 95
       16
302
GRIDFORMAT
  1
GRIDFORMAT_BEGIN
 90
        0
 91
        1
 62
     0
 92
       -2
340
14
 93
        0
 40
0.045
309
GRIDFORMAT_END
 95
       32
302
GRIDFORMAT
  1
GRIDFORMAT_BEGIN
 90
        0
 91
        1
 62
     0
 92
       -2
340
14
 93
        0
 40
0.045
309
GRIDFORMAT_END
309
TABLEFORMAT_END
  1
CELLSTYLE_BEGIN
 90
        3
 91
        2
300
_DATA
309
CELLSTYLE_END
  0
XRECORD
  5
202
102
{ACAD_REACTORS
330
201
102
}
330
201
100
AcDbXrecord
280
     1
102
ACAD_ROUNDTRIP_PRE2007_TABLESTYLE
 90
        4
 91
        0
  1

 92
        4
 93
        0
  2

 94
        4
 95
        0
  3

  0
XRECORD
  5
1D4
102
{ACAD_REACTORS
330
1D3
102
}
330
1D3
100
AcDbXrecord
280
     1
102
RTVSPropertyOp0
 70
     1
102
RTVSPropertyOp1
 70
     1
102
RTVSPropertyOp2
 70
     1
102
RTVSPropertyOp3
 70
     1
102
RTVSPropertyOp4
 70
     1
102
RTVSPropertyOp5
 70
     1
102
RTVSPropertyOp6
 70
     1
102
RTVSPropertyOp7
 70
     1
102
RTVSPropertyOp8
 70
     1
102
RTVSPropertyOp9
 70
     1
102
RTVSPropertyOp10
 70
     1
102
RTVSPropertyOp11
 70
     1
102
RTVSPropertyOp12
 70
     1
102
RTVSPropertyOp13
 70
     1
102
RTVSPropertyOp14
 70
     1
102
RTVSPropertyOp15
 70
     1
102
RTVSPropertyOp16
 70
     1
102
RTVSPropertyOp17
 70
     1
102
RTVSPropertyOp18
 70
     1
102
RTVSPropertyOp19
 70
     1
102
RTVSPropertyOp20
 70
     1
102
RTVSPropertyOp21
 70
     1
102
RTVSPropertyOp22
 70
     1
102
RTVSPropertyOp23
 70
     1
102
RTVSPropertyOp24
 70
     1
102
RTVSPropertyOp25
 70
     1
102
RTVSPropertyOp26
 70
     1
102
RTVSPropertyOp27
 70
     1
102
RTVSPropertyOp28
 70
     1
102
RTVSPropertyOp29
 70
     1
102
RTVSPropertyOp30
 70
     1
102
RTVSPropertyOp31
 70
     1
102
RTVSPropertyOp32
 70
     1
102
RTVSPropertyOp33
 70
     1
102
RTVSPropertyOp34
 70
     1
102
RTVSPropertyOp35
 70
     1
102
RTVSPropertyOp36
 70
     1
102
RTVSPropertyOp37
 70
     1
102
RTVSPropertyOp38
 70
     1
102
RTVSPropertyOp39
 70
     1
102
RTVSPropertyOp40
 70
     1
102
RTVSPropertyOp41
 70
     1
102
RTVSPropertyOp42
 70
     1
102
RTVSPropertyOp43
 70
     1
102
RTVSPropertyOp44
 70
     1
102
RTVSPropertyOp45
 70
     1
102
RTVSPropertyOp46
 70
     1
102
RTVSPropertyOp47
 70
     1
102
RTVSPropertyOp48
 70
     1
102
RTVSPropertyOp49
 70
     1
102
RTVSPropertyOp50
 70
     1
102
RTVSPropertyOp51
 70
     0
102
RTVSPropertyOp52
 70
     0
102
RTVSPropertyOp53
 70
     1
102
RTVSPropertyOp54
 70
     1
102
RTVSPropertyOp55
 70
     1
102
RTVSPropertyOp56
 70
     1
102
RTVSPropertyOp57
 70
     1
102
RTVSPost2010Prop28
280
     1
102
RTVSPost2010PropOp28
 70
     1
102
RTVSPost2010Prop29
280
     1
102
RTVSPost2010PropOp29
 70
     1
102
RTVSPost2010Prop30
280
     0
102
RTVSPost2010PropOp30
 70
     1
102
RTVSPost2010Prop31
280
     0
102
RTVSPost2010PropOp31
 70
     1
102
RTVSPost2010Prop32
280
     0
102
RTVSPost2010PropOp32
 70
     1
102
RTVSPost2010Prop33
280
     0
102
RTVSPost2010PropOp33
 70
     1
102
RTVSPost2010Prop34
280
     0
102
RTVSPost2010PropOp34
 70
     1
102
RTVSPost2010Prop35
280
     0
102
RTVSPost2010PropOp35
 70
     1
102
RTVSPost2010Prop36
280
     0
102
RTVSPost2010PropOp36
 70
     1
102
RTVSPost2010Prop37
 90
       50
102
RTVSPost2010PropOp37
 70
     1
102
RTVSPost2010Prop38
140
0.0
102
RTVSPost2010PropOp38
 70
     1
102
RTVSPost2010Prop39
140
1.0
102
RTVSPost2010PropOp39
 70
     1
102
RTVSPost2010Prop40
 90
        0
102
RTVSPost2010PropOp40
 70
     1
102
RTVSPost2010Prop41ColorIndex
 90
       18
102
RTVSPost2010Prop41ColorRGB
 90
        0
102
RTVSPost2010PropOp41
 70
     1
102
RTVSPost2010Prop42
 90
       50
102
RTVSPost2010PropOp42
 70
     1
102
RTVSPost2010Prop43
 90
        3
102
RTVSPost2010PropOp43
 70
     1
102
RTVSPost2010Prop44ColorIndex
 90
        5
102
RTVSPost2010Prop44ColorRGB
 90
      255
102
RTVSPost2010PropOp44
 70
     1
102
RTVSPost2010Prop45
280
     0
102
RTVSPost2010PropOp45
 70
     1
102
RTVSPost2010Prop46
 90
       50
102
RTVSPost2010PropOp46
 70
     1
102
RTVSPost2010Prop47
 90
       50
102
RTVSPost2010PropOp47
 70
     1
102
RTVSPost2010Prop48
 90
       50
102
RTVSPost2010PropOp48
 70
     1
102
RTVSPost2010Prop49
280
     0
102
RTVSPost2010PropOp49
 70
     1
102
RTVSPost2010Prop50
 90
       50
102
RTVSPost2010PropOp50
 70
     1
102
RTVSPost2010Prop51ColorIndex
 90
      256
102
RTVSPost2010Prop51ColorRGB
 90
-16777216
102
RTVSPost2010PropOp51
 70
     0
102
RTVSPost2010Prop52
140
1.0
102
RTVSPost2010PropOp52
 70
     0
102
RTVSPost2010Prop53
 90
        2
102
RTVSPost2010PropOp53
 70
     1
102
RTVSPost2010Prop54
  1
strokes_ogs.tif
102
RTVSPost2010PropOp54
 70
     1
102
RTVSPost2010Prop55
280
     0
102
RTVSPost2010PropOp55
 70
     1
102
RTVSPost2010Prop56
140
1.0
102
RTVSPost2010PropOp56
 70
     1
102
RTVSPost2010Prop57
140
1.0
102
RTVSPost2010PropOp57
 70
     1
  0
XRECORD
  5
1DA
102
{ACAD_REACTORS
330
1D9
102
}
330
1D9
100
AcDbXrecord
280
     1
102
RTVSPropertyOp0
 70
     1
102
RTVSPropertyOp1
 70
     1
102
RTVSPropertyOp2
 70
     1
102
RTVSPropertyOp3
 70
     1
102
RTVSPropertyOp4
 70
     1
102
RTVSPropertyOp5
 70
     1
102
RTVSPropertyOp6
 70
     1
102
RTVSPropertyOp7
 70
     1
102
RTVSPropertyOp8
 70
     1
102
RTVSPropertyOp9
 70
     1
102
RTVSPropertyOp10
 70
     1
102
RTVSPropertyOp11
 70
     1
102
RTVSPropertyOp12
 70
     1
102
RTVSPropertyOp13
 70
     1
102
RTVSPropertyOp14
 70
     1
102
RTVSPropertyOp15
 70
     1
102
RTVSPropertyOp16
 70
     1
102
RTVSPropertyOp17
 70
     1
102
RTVSPropertyOp18
 70
     1
102
RTVSPropertyOp19
 70
     1
102
RTVSPropertyOp20
 70
     1
102
RTVSPropertyOp21
 70
     1
102
RTVSPropertyOp22
 70
     1
102
RTVSPropertyOp23
 70
     1
102
RTVSPropertyOp24
 70
     1
102
RTVSPropertyOp25
 70
     1
102
RTVSPropertyOp26
 70
     1
102
RTVSPropertyOp27
 70
     1
102
RTVSPropertyOp28
 70
     1
102
RTVSPropertyOp29
 70
     1
102
RTVSPropertyOp30
 70
     1
102
RTVSPropertyOp31
 70
     1
102
RTVSPropertyOp32
 70
     1
102
RTVSPropertyOp33
 70
     1
102
RTVSPropertyOp34
 70
     1
102
RTVSPropertyOp35
 70
     1
102
RTVSPropertyOp36
 70
     1
102
RTVSPropertyOp37
 70
     1
102
RTVSPropertyOp38
 70
     1
102
RTVSPropertyOp39
 70
     1
102
RTVSPropertyOp40
 70
     1
102
RTVSPropertyOp41
 70
     1
102
RTVSPropertyOp42
 70
     1
102
RTVSPropertyOp43
 70
     1
102
RTVSPropertyOp44
 70
     1
102
RTVSPropertyOp45
 70
     1
102
RTVSPropertyOp46
 70
     1
102
RTVSPropertyOp47
 70
     1
102
RTVSPropertyOp48
 70
     1
102
RTVSPropertyOp49
 70
     1
102
RTVSPropertyOp50
 70
     1
102
RTVSPropertyOp51
 70
     0
102
RTVSPropertyOp52
 70
     0
102
RTVSPropertyOp53
 70
     1
102
RTVSPropertyOp54
 70
     1
102
RTVSPropertyOp55
 70
     1
102
RTVSPropertyOp56
 70
     1
102
RTVSPropertyOp57
 70
     1
102
RTVSPost2010Prop28
280
     0
102
RTVSPost2010PropOp28
 70
     1
102
RTVSPost2010Prop29
280
     1
102
RTVSPost2010PropOp29
 70
     1
102
RTVSPost2010Prop30
280
     1
102
RTVSPost2010PropOp30
 70
     1
102
RTVSPost2010Prop31
280
     0
102
RTVSPost2010PropOp31
 70
     1
102
RTVSPost2010Prop32
280
     0
102
RTVSPost2010PropOp32
 70
     1
102
RTVSPost2010Prop33
280
     0
102
RTVSPost2010PropOp33
 70
     1
102
RTVSPost2010Prop34
280
     0
102
RTVSPost2010PropOp34
 70
     1
102
RTVSPost2010Prop35
280
     0
102
RTVSPost2010PropOp35
 70
     1
102
RTVSPost2010Prop36
280
     0
102
RTVSPost2010PropOp36
 70
     1
102
RTVSPost2010Prop37
 90
       50
102
RTVSPost2010PropOp37
 70
     1
102
RTVSPost2010Prop38
140
0.0
102
RTVSPost2010PropOp38
 70
     1
102
RTVSPost2010Prop39
140
1.0
102
RTVSPost2010PropOp39
 70
     1
102
RTVSPost2010Prop40
 90
        0
102
RTVSPost2010PropOp40
 70
     1
102
RTVSPost2010Prop41ColorIndex
 90
       18
102
RTVSPost2010Prop41ColorRGB
 90
        0
102
RTVSPost2010PropOp41
 70
     1
102
RTVSPost2010Prop42
 90
       50
102
RTVSPost2010PropOp42
 70
     1
102
RTVSPost2010Prop43
 90
        3
102
RTVSPost2010PropOp43
 70
     1
102
RTVSPost2010Prop44ColorIndex
 90
        5
102
RTVSPost2010Prop44ColorRGB
 90
      255
102
RTVSPost2010PropOp44
 70
     1
102
RTVSPost2010Prop45
280
     0
102
RTVSPost2010PropOp45
 70
     1
102
RTVSPost2010Prop46
 90
       50
102
RTVSPost2010PropOp46
 70
     1
102
RTVSPost2010Prop47
 90
       50
102
RTVSPost2010PropOp47
 70
     1
102
RTVSPost2010Prop48
 90
       50
102
RTVSPost2010PropOp48
 70
     1
102
RTVSPost2010Prop49
280
     0
102
RTVSPost2010PropOp49
 70
     1
102
RTVSPost2010Prop50
 90
       50
102
RTVSPost2010PropOp50
 70
     1
102
RTVSPost2010Prop51ColorIndex
 90
      256
102
RTVSPost2010Prop51ColorRGB
 90
-16777216
102
RTVSPost2010PropOp51
 70
     0
102
RTVSPost2010Prop52
140
1.0
102
RTVSPost2010PropOp52
 70
     0
102
RTVSPost2010Prop53
 90
        2
102
RTVSPost2010PropOp53
 70
     1
102
RTVSPost2010Prop54
  1
strokes_ogs.tif
102
RTVSPost2010PropOp54
 70
     1
102
RTVSPost2010Prop55
280
     0
102
RTVSPost2010PropOp55
 70
     1
102
RTVSPost2010Prop56
140
1.0
102
RTVSPost2010PropOp56
 70
     1
102
RTVSPost2010Prop57
140
1.0
102
RTVSPost2010PropOp57
 70
     1
  0
XRECORD
  5
1E2
102
{ACAD_REACTORS
330
1E1
102
}
330
1E1
100
AcDbXrecord
280
     1
102
RTVSPropertyOp0
 70
     1
102
RTVSPropertyOp1
 70
     1
102
RTVSPropertyOp2
 70
     1
102
RTVSPropertyOp3
 70
     1
102
RTVSPropertyOp4
 70
     1
102
RTVSPropertyOp5
 70
     1
102
RTVSPropertyOp6
 70
     1
102
RTVSPropertyOp7
 70
     1
102
RTVSPropertyOp8
 70
     1
102
RTVSPropertyOp9
 70
     1
102
RTVSPropertyOp10
 70
     1
102
RTVSPropertyOp11
 70
     1
102
RTVSPropertyOp12
 70
     1
102
RTVSPropertyOp13
 70
     1
102
RTVSPropertyOp14
 70
     1
102
RTVSPropertyOp15
 70
     1
102
RTVSPropertyOp16
 70
     1
102
RTVSPropertyOp17
 70
     1
102
RTVSPropertyOp18
 70
     1
102
RTVSPropertyOp19
 70
     1
102
RTVSPropertyOp20
 70
     1
102
RTVSPropertyOp21
 70
     1
102
RTVSPropertyOp22
 70
     1
102
RTVSPropertyOp23
 70
     1
102
RTVSPropertyOp24
 70
     1
102
RTVSPropertyOp25
 70
     1
102
RTVSPropertyOp26
 70
     1
102
RTVSPropertyOp27
 70
     1
102
RTVSPropertyOp28
 70
     1
102
RTVSPropertyOp29
 70
     1
102
RTVSPropertyOp30
 70
     1
102
RTVSPropertyOp31
 70
     1
102
RTVSPropertyOp32
 70
     1
102
RTVSPropertyOp33
 70
     1
102
RTVSPropertyOp34
 70
     1
102
RTVSPropertyOp35
 70
     1
102
RTVSPropertyOp36
 70
     1
102
RTVSPropertyOp37
 70
     1
102
RTVSPropertyOp38
 70
     1
102
RTVSPropertyOp39
 70
     1
102
RTVSPropertyOp40
 70
     1
102
RTVSPropertyOp41
 70
     1
102
RTVSPropertyOp42
 70
     1
102
RTVSPropertyOp43
 70
     1
102
RTVSPropertyOp44
 70
     1
102
RTVSPropertyOp45
 70
     1
102
RTVSPropertyOp46
 70
     1
102
RTVSPropertyOp47
 70
     1
102
RTVSPropertyOp48
 70
     1
102
RTVSPropertyOp49
 70
     1
102
RTVSPropertyOp50
 70
     1
102
RTVSPropertyOp51
 70
     0
102
RTVSPropertyOp52
 70
     0
102
RTVSPropertyOp53
 70
     1
102
RTVSPropertyOp54
 70
     1
102
RTVSPropertyOp55
 70
     1
102
RTVSPropertyOp56
 70
     1
102
RTVSPropertyOp57
 70
     1
102
RTVSPost2010Prop28
280
     0
102
RTVSPost2010PropOp28
 70
     1
102
RTVSPost2010Prop29
280
     1
102
RTVSPost2010PropOp29
 70
     1
102
RTVSPost2010Prop30
280
     1
102
RTVSPost2010PropOp30
 70
     1
102
RTVSPost2010Prop31
280
     0
102
RTVSPost2010PropOp31
 70
     1
102
RTVSPost2010Prop32
280
     0
102
RTVSPost2010PropOp32
 70
     1
102
RTVSPost2010Prop33
280
     0
102
RTVSPost2010PropOp33
 70
     1
102
RTVSPost2010Prop34
280
     0
102
RTVSPost2010PropOp34
 70
     1
102
RTVSPost2010Prop35
280
     0
102
RTVSPost2010PropOp35
 70
     1
102
RTVSPost2010Prop36
280
     0
102
RTVSPost2010PropOp36
 70
     1
102
RTVSPost2010Prop37
 90
       50
102
RTVSPost2010PropOp37
 70
     1
102
RTVSPost2010Prop38
140
0.0
102
RTVSPost2010PropOp38
 70
     1
102
RTVSPost2010Prop39
140
1.0
102
RTVSPost2010PropOp39
 70
     1
102
RTVSPost2010Prop40
 90
        0
102
RTVSPost2010PropOp40
 70
     1
102
RTVSPost2010Prop41ColorIndex
 90
       18
102
RTVSPost2010Prop41ColorRGB
 90
        0
102
RTVSPost2010PropOp41
 70
     1
102
RTVSPost2010Prop42
 90
       50
102
RTVSPost2010PropOp42
 70
     1
102
RTVSPost2010Prop43
 90
        3
102
RTVSPost2010PropOp43
 70
     1
102
RTVSPost2010Prop44ColorIndex
 90
        5
102
RTVSPost2010Prop44ColorRGB
 90
      255
102
RTVSPost2010PropOp44
 70
     1
102
RTVSPost2010Prop45
280
     0
102
RTVSPost2010PropOp45
 70
     1
102
RTVSPost2010Prop46
 90
       50
102
RTVSPost2010PropOp46
 70
     1
102
RTVSPost2010Prop47
 90
       50
102
RTVSPost2010PropOp47
 70
     1
102
RTVSPost2010Prop48
 90
       50
102
RTVSPost2010PropOp48
 70
     1
102
RTVSPost2010Prop49
280
     0
102
RTVSPost2010PropOp49
 70
     1
102
RTVSPost2010Prop50
 90
       50
102
RTVSPost2010PropOp50
 70
     1
102
RTVSPost2010Prop51ColorIndex
 90
      256
102
RTVSPost2010Prop51ColorRGB
 90
-16777216
102
RTVSPost2010PropOp51
 70
     0
102
RTVSPost2010Prop52
140
1.0
102
RTVSPost2010PropOp52
 70
     0
102
RTVSPost2010Prop53
 90
        2
102
RTVSPost2010PropOp53
 70
     1
102
RTVSPost2010Prop54
  1
strokes_ogs.tif
102
RTVSPost2010PropOp54
 70
     1
102
RTVSPost2010Prop55
280
     0
102
RTVSPost2010PropOp55
 70
     1
102
RTVSPost2010Prop56
140
1.0
102
RTVSPost2010PropOp56
 70
     1
102
RTVSPost2010Prop57
140
1.0
102
RTVSPost2010PropOp57
 70
     1
  0
XRECORD
  5
1EA
102
{ACAD_REACTORS
330
1E9
102
}
330
1E9
100
AcDbXrecord
280
     1
102
RTVSPropertyOp0
 70
     1
102
RTVSPropertyOp1
 70
     1
102
RTVSPropertyOp2
 70
     1
102
RTVSPropertyOp3
 70
     1
102
RTVSPropertyOp4
 70
     1
102
RTVSPropertyOp5
 70
     1
102
RTVSPropertyOp6
 70
     1
102
RTVSPropertyOp7
 70
     1
102
RTVSPropertyOp8
 70
     1
102
RTVSPropertyOp9
 70
     1
102
RTVSPropertyOp10
 70
     1
102
RTVSPropertyOp11
 70
     1
102
RTVSPropertyOp12
 70
     1
102
RTVSPropertyOp13
 70
     1
102
RTVSPropertyOp14
 70
     1
102
RTVSPropertyOp15
 70
     1
102
RTVSPropertyOp16
 70
     1
102
RTVSPropertyOp17
 70
     1
102
RTVSPropertyOp18
 70
     1
102
RTVSPropertyOp19
 70
     1
102
RTVSPropertyOp20
 70
     1
102
RTVSPropertyOp21
 70
     1
102
RTVSPropertyOp22
 70
     1
102
RTVSPropertyOp23
 70
     1
102
RTVSPropertyOp24
 70
     1
102
RTVSPropertyOp25
 70
     1
102
RTVSPropertyOp26
 70
     1
102
RTVSPropertyOp27
 70
     1
102
RTVSPropertyOp28
 70
     1
102
RTVSPropertyOp29
 70
     1
102
RTVSPropertyOp30
 70
     1
102
RTVSPropertyOp31
 70
     1
102
RTVSPropertyOp32
 70
     1
102
RTVSPropertyOp33
 70
     1
102
RTVSPropertyOp34
 70
     1
102
RTVSPropertyOp35
 70
     1
102
RTVSPropertyOp36
 70
     1
102
RTVSPropertyOp37
 70
     1
102
RTVSPropertyOp38
 70
     1
102
RTVSPropertyOp39
 70
     1
102
RTVSPropertyOp40
 70
     1
102
RTVSPropertyOp41
 70
     1
102
RTVSPropertyOp42
 70
     1
102
RTVSPropertyOp43
 70
     1
102
RTVSPropertyOp44
 70
     1
102
RTVSPropertyOp45
 70
     1
102
RTVSPropertyOp46
 70
     1
102
RTVSPropertyOp47
 70
     1
102
RTVSPropertyOp48
 70
     1
102
RTVSPropertyOp49
 70
     1
102
RTVSPropertyOp50
 70
     1
102
RTVSPropertyOp51
 70
     0
102
RTVSPropertyOp52
 70
     0
102
RTVSPropertyOp53
 70
     1
102
RTVSPropertyOp54
 70
     1
102
RTVSPropertyOp55
 70
     1
102
RTVSPropertyOp56
 70
     1
102
RTVSPropertyOp57
 70
     1
102
RTVSPost2010Prop28
280
     0
102
RTVSPost2010PropOp28
 70
     1
102
RTVSPost2010Prop29
280
     1
102
RTVSPost2010PropOp29
 70
     1
102
RTVSPost2010Prop30
280
     1
102
RTVSPost2010PropOp30
 70
     1
102
RTVSPost2010Prop31
280
     0
102
RTVSPost2010PropOp31
 70
     1
102
RTVSPost2010Prop32
280
     0
102
RTVSPost2010PropOp32
 70
     1
102
RTVSPost2010Prop33
280
     0
102
RTVSPost2010PropOp33
 70
     1
102
RTVSPost2010Prop34
280
     0
102
RTVSPost2010PropOp34
 70
     1
102
RTVSPost2010Prop35
280
     0
102
RTVSPost2010PropOp35
 70
     1
102
RTVSPost2010Prop36
280
     0
102
RTVSPost2010PropOp36
 70
     1
102
RTVSPost2010Prop37
 90
       50
102
RTVSPost2010PropOp37
 70
     1
102
RTVSPost2010Prop38
140
0.0
102
RTVSPost2010PropOp38
 70
     1
102
RTVSPost2010Prop39
140
1.0
102
RTVSPost2010PropOp39
 70
     1
102
RTVSPost2010Prop40
 90
        0
102
RTVSPost2010PropOp40
 70
     1
102
RTVSPost2010Prop41ColorIndex
 90
       18
102
RTVSPost2010Prop41ColorRGB
 90
        0
102
RTVSPost2010PropOp41
 70
     1
102
RTVSPost2010Prop42
 90
       50
102
RTVSPost2010PropOp42
 70
     1
102
RTVSPost2010Prop43
 90
        3
102
RTVSPost2010PropOp43
 70
     1
102
RTVSPost2010Prop44ColorIndex
 90
        5
102
RTVSPost2010Prop44ColorRGB
 90
      255
102
RTVSPost2010PropOp44
 70
     1
102
RTVSPost2010Prop45
280
     0
102
RTVSPost2010PropOp45
 70
     1
102
RTVSPost2010Prop46
 90
       50
102
RTVSPost2010PropOp46
 70
     1
102
RTVSPost2010Prop47
 90
       50
102
RTVSPost2010PropOp47
 70
     1
102
RTVSPost2010Prop48
 90
       50
102
RTVSPost2010PropOp48
 70
     1
102
RTVSPost2010Prop49
280
     0
102
RTVSPost2010PropOp49
 70
     1
102
RTVSPost2010Prop50
 90
       50
102
RTVSPost2010PropOp50
 70
     1
102
RTVSPost2010Prop51ColorIndex
 90
      256
102
RTVSPost2010Prop51ColorRGB
 90
-16777216
102
RTVSPost2010PropOp51
 70
     0
102
RTVSPost2010Prop52
140
1.0
102
RTVSPost2010PropOp52
 70
     0
102
RTVSPost2010Prop53
 90
        2
102
RTVSPost2010PropOp53
 70
     1
102
RTVSPost2010Prop54
  1
strokes_ogs.tif
102
RTVSPost2010PropOp54
 70
     1
102
RTVSPost2010Prop55
280
     0
102
RTVSPost2010PropOp55
 70
     1
102
RTVSPost2010Prop56
140
1.0
102
RTVSPost2010PropOp56
 70
     1
102
RTVSPost2010Prop57
140
1.0
102
RTVSPost2010PropOp57
 70
     1
  0
XRECORD
  5
1DE
102
{ACAD_REACTORS
330
1DD
102
}
330
1DD
100
AcDbXrecord
280
     1
102
RTVSPropertyOp0
 70
     1
102
RTVSPropertyOp1
 70
     1
102
RTVSPropertyOp2
 70
     1
102
RTVSPropertyOp3
 70
     1
102
RTVSPropertyOp4
 70
     1
102
RTVSPropertyOp5
 70
     1
102
RTVSPropertyOp6
 70
     1
102
RTVSPropertyOp7
 70
     1
102
RTVSPropertyOp8
 70
     1
102
RTVSPropertyOp9
 70
     1
102
RTVSPropertyOp10
 70
     1
102
RTVSPropertyOp11
 70
     1
102
RTVSPropertyOp12
 70
     1
102
RTVSPropertyOp13
 70
     1
102
RTVSPropertyOp14
 70
     1
102
RTVSPropertyOp15
 70
     1
102
RTVSPropertyOp16
 70
     1
102
RTVSPropertyOp17
 70
     1
102
RTVSPropertyOp18
 70
     1
102
RTVSPropertyOp19
 70
     1
102
RTVSPropertyOp20
 70
     1
102
RTVSPropertyOp21
 70
     1
102
RTVSPropertyOp22
 70
     1
102
RTVSPropertyOp23
 70
     1
102
RTVSPropertyOp24
 70
     1
102
RTVSPropertyOp25
 70
     1
102
RTVSPropertyOp26
 70
     1
102
RTVSPropertyOp27
 70
     1
102
RTVSPropertyOp28
 70
     1
102
RTVSPropertyOp29
 70
     1
102
RTVSPropertyOp30
 70
     1
102
RTVSPropertyOp31
 70
     1
102
RTVSPropertyOp32
 70
     1
102
RTVSPropertyOp33
 70
     1
102
RTVSPropertyOp34
 70
     1
102
RTVSPropertyOp35
 70
     1
102
RTVSPropertyOp36
 70
     1
102
RTVSPropertyOp37
 70
     1
102
RTVSPropertyOp38
 70
     1
102
RTVSPropertyOp39
 70
     1
102
RTVSPropertyOp40
 70
     1
102
RTVSPropertyOp41
 70
     1
102
RTVSPropertyOp42
 70
     1
102
RTVSPropertyOp43
 70
     1
102
RTVSPropertyOp44
 70
     1
102
RTVSPropertyOp45
 70
     1
102
RTVSPropertyOp46
 70
     1
102
RTVSPropertyOp47
 70
     1
102
RTVSPropertyOp48
 70
     1
102
RTVSPropertyOp49
 70
     1
102
RTVSPropertyOp50
 70
     1
102
RTVSPropertyOp51
 70
     0
102
RTVSPropertyOp52
 70
     0
102
RTVSPropertyOp53
 70
     1
102
RTVSPropertyOp54
 70
     1
102
RTVSPropertyOp55
 70
     1
102
RTVSPropertyOp56
 70
     1
102
RTVSPropertyOp57
 70
     1
102
RTVSPost2010Prop28
280
     0
102
RTVSPost2010PropOp28
 70
     1
102
RTVSPost2010Prop29
280
     1
102
RTVSPost2010PropOp29
 70
     1
102
RTVSPost2010Prop30
280
     1
102
RTVSPost2010PropOp30
 70
     1
102
RTVSPost2010Prop31
280
     0
102
RTVSPost2010PropOp31
 70
     1
102
RTVSPost2010Prop32
280
     0
102
RTVSPost2010PropOp32
 70
     1
102
RTVSPost2010Prop33
280
     0
102
RTVSPost2010PropOp33
 70
     1
102
RTVSPost2010Prop34
280
     0
102
RTVSPost2010PropOp34
 70
     1
102
RTVSPost2010Prop35
280
     0
102
RTVSPost2010PropOp35
 70
     1
102
RTVSPost2010Prop36
280
     0
102
RTVSPost2010PropOp36
 70
     1
102
RTVSPost2010Prop37
 90
       50
102
RTVSPost2010PropOp37
 70
     1
102
RTVSPost2010Prop38
140
0.0
102
RTVSPost2010PropOp38
 70
     1
102
RTVSPost2010Prop39
140
1.0
102
RTVSPost2010PropOp39
 70
     1
102
RTVSPost2010Prop40
 90
        0
102
RTVSPost2010PropOp40
 70
     1
102
RTVSPost2010Prop41ColorIndex
 90
       18
102
RTVSPost2010Prop41ColorRGB
 90
        0
102
RTVSPost2010PropOp41
 70
     1
102
RTVSPost2010Prop42
 90
       50
102
RTVSPost2010PropOp42
 70
     1
102
RTVSPost2010Prop43
 90
        3
102
RTVSPost2010PropOp43
 70
     1
102
RTVSPost2010Prop44ColorIndex
 90
        5
102
RTVSPost2010Prop44ColorRGB
 90
      255
102
RTVSPost2010PropOp44
 70
     1
102
RTVSPost2010Prop45
280
     0
102
RTVSPost2010PropOp45
 70
     1
102
RTVSPost2010Prop46
 90
       50
102
RTVSPost2010PropOp46
 70
     1
102
RTVSPost2010Prop47
 90
       50
102
RTVSPost2010PropOp47
 70
     1
102
RTVSPost2010Prop48
 90
       50
102
RTVSPost2010PropOp48
 70
     1
102
RTVSPost2010Prop49
280
     0
102
RTVSPost2010PropOp49
 70
     1
102
RTVSPost2010Prop50
 90
       50
102
RTVSPost2010PropOp50
 70
     1
102
RTVSPost2010Prop51ColorIndex
 90
      256
102
RTVSPost2010Prop51ColorRGB
 90
-16777216
102
RTVSPost2010PropOp51
 70
     0
102
RTVSPost2010Prop52
140
1.0
102
RTVSPost2010PropOp52
 70
     0
102
RTVSPost2010Prop53
 90
        2
102
RTVSPost2010PropOp53
 70
     1
102
RTVSPost2010Prop54
  1
strokes_ogs.tif
102
RTVSPost2010PropOp54
 70
     1
102
RTVSPost2010Prop55
280
     0
102
RTVSPost2010PropOp55
 70
     1
102
RTVSPost2010Prop56
140
1.0
102
RTVSPost2010PropOp56
 70
     1
102
RTVSPost2010Prop57
140
1.0
102
RTVSPost2010PropOp57
 70
     1
  0
XRECORD
  5
1E0
102
{ACAD_REACTORS
330
1DF
102
}
330
1DF
100
AcDbXrecord
280
     1
102
RTVSPropertyOp0
 70
     1
102
RTVSPropertyOp1
 70
     1
102
RTVSPropertyOp2
 70
     1
102
RTVSPropertyOp3
 70
     1
102
RTVSPropertyOp4
 70
     1
102
RTVSPropertyOp5
 70
     1
102
RTVSPropertyOp6
 70
     1
102
RTVSPropertyOp7
 70
     1
102
RTVSPropertyOp8
 70
     1
102
RTVSPropertyOp9
 70
     1
102
RTVSPropertyOp10
 70
     1
102
RTVSPropertyOp11
 70
     1
102
RTVSPropertyOp12
 70
     1
102
RTVSPropertyOp13
 70
     1
102
RTVSPropertyOp14
 70
     1
102
RTVSPropertyOp15
 70
     1
102
RTVSPropertyOp16
 70
     1
102
RTVSPropertyOp17
 70
     1
102
RTVSPropertyOp18
 70
     1
102
RTVSPropertyOp19
 70
     1
102
RTVSPropertyOp20
 70
     1
102
RTVSPropertyOp21
 70
     1
102
RTVSPropertyOp22
 70
     1
102
RTVSPropertyOp23
 70
     1
102
RTVSPropertyOp24
 70
     1
102
RTVSPropertyOp25
 70
     1
102
RTVSPropertyOp26
 70
     1
102
RTVSPropertyOp27
 70
     1
102
RTVSPropertyOp28
 70
     1
102
RTVSPropertyOp29
 70
     1
102
RTVSPropertyOp30
 70
     1
102
RTVSPropertyOp31
 70
     1
102
RTVSPropertyOp32
 70
     1
102
RTVSPropertyOp33
 70
     1
102
RTVSPropertyOp34
 70
     1
102
RTVSPropertyOp35
 70
     1
102
RTVSPropertyOp36
 70
     1
102
RTVSPropertyOp37
 70
     1
102
RTVSPropertyOp38
 70
     1
102
RTVSPropertyOp39
 70
     1
102
RTVSPropertyOp40
 70
     1
102
RTVSPropertyOp41
 70
     1
102
RTVSPropertyOp42
 70
     1
102
RTVSPropertyOp43
 70
     1
102
RTVSPropertyOp44
 70
     1
102
RTVSPropertyOp45
 70
     1
102
RTVSPropertyOp46
 70
     1
102
RTVSPropertyOp47
 70
     1
102
RTVSPropertyOp48
 70
     1
102
RTVSPropertyOp49
 70
     1
102
RTVSPropertyOp50
 70
     1
102
RTVSPropertyOp51
 70
     0
102
RTVSPropertyOp52
 70
     0
102
RTVSPropertyOp53
 70
     1
102
RTVSPropertyOp54
 70
     1
102
RTVSPropertyOp55
 70
     1
102
RTVSPropertyOp56
 70
     1
102
RTVSPropertyOp57
 70
     1
102
RTVSPost2010Prop28
280
     0
102
RTVSPost2010PropOp28
 70
     1
102
RTVSPost2010Prop29
280
     1
102
RTVSPost2010PropOp29
 70
     1
102
RTVSPost2010Prop30
280
     1
102
RTVSPost2010PropOp30
 70
     1
102
RTVSPost2010Prop31
280
     0
102
RTVSPost2010PropOp31
 70
     1
102
RTVSPost2010Prop32
280
     0
102
RTVSPost2010PropOp32
 70
     1
102
RTVSPost2010Prop33
280
     0
102
RTVSPost2010PropOp33
 70
     1
102
RTVSPost2010Prop34
280
     0
102
RTVSPost2010PropOp34
 70
     1
102
RTVSPost2010Prop35
280
     0
102
RTVSPost2010PropOp35
 70
     1
102
RTVSPost2010Prop36
280
     0
102
RTVSPost2010PropOp36
 70
     1
102
RTVSPost2010Prop37
 90
       50
102
RTVSPost2010PropOp37
 70
     1
102
RTVSPost2010Prop38
140
0.0
102
RTVSPost2010PropOp38
 70
     1
102
RTVSPost2010Prop39
140
1.0
102
RTVSPost2010PropOp39
 70
     1
102
RTVSPost2010Prop40
 90
        0
102
RTVSPost2010PropOp40
 70
     1
102
RTVSPost2010Prop41ColorIndex
 90
       18
102
RTVSPost2010Prop41ColorRGB
 90
        0
102
RTVSPost2010PropOp41
 70
     1
102
RTVSPost2010Prop42
 90
       50
102
RTVSPost2010PropOp42
 70
     1
102
RTVSPost2010Prop43
 90
        3
102
RTVSPost2010PropOp43
 70
     1
102
RTVSPost2010Prop44ColorIndex
 90
        5
102
RTVSPost2010Prop44ColorRGB
 90
      255
102
RTVSPost2010PropOp44
 70
     1
102
RTVSPost2010Prop45
280
     0
102
RTVSPost2010PropOp45
 70
     1
102
RTVSPost2010Prop46
 90
       50
102
RTVSPost2010PropOp46
 70
     1
102
RTVSPost2010Prop47
 90
       50
102
RTVSPost2010PropOp47
 70
     1
102
RTVSPost2010Prop48
 90
       50
102
RTVSPost2010PropOp48
 70
     1
102
RTVSPost2010Prop49
280
     0
102
RTVSPost2010PropOp49
 70
     1
102
RTVSPost2010Prop50
 90
       50
102
RTVSPost2010PropOp50
 70
     1
102
RTVSPost2010Prop51ColorIndex
 90
      256
102
RTVSPost2010Prop51ColorRGB
 90
-16777216
102
RTVSPost2010PropOp51
 70
     0
102
RTVSPost2010Prop52
140
1.0
102
RTVSPost2010PropOp52
 70
     0
102
RTVSPost2010Prop53
 90
        2
102
RTVSPost2010PropOp53
 70
     1
102
RTVSPost2010Prop54
  1
strokes_ogs.tif
102
RTVSPost2010PropOp54
 70
     1
102
RTVSPost2010Prop55
280
     0
102
RTVSPost2010PropOp55
 70
     1
102
RTVSPost2010Prop56
140
1.0
102
RTVSPost2010PropOp56
 70
     1
102
RTVSPost2010Prop57
140
1.0
102
RTVSPost2010PropOp57
 70
     1
  0
XRECORD
  5
1F0
102
{ACAD_REACTORS
330
1EF
102
}
330
1EF
100
AcDbXrecord
280
     1
102
RTVSPropertyOp0
 70
     0
102
RTVSPropertyOp1
 70
     0
102
RTVSPropertyOp2
 70
     0
102
RTVSPropertyOp3
 70
     0
102
RTVSPropertyOp4
 70
     0
102
RTVSPropertyOp5
 70
     0
102
RTVSPropertyOp6
 70
     0
102
RTVSPropertyOp7
 70
     0
102
RTVSPropertyOp8
 70
     0
102
RTVSPropertyOp9
 70
     0
102
RTVSPropertyOp10
 70
     0
102
RTVSPropertyOp11
 70
     0
102
RTVSPropertyOp12
 70
     0
102
RTVSPropertyOp13
 70
     0
102
RTVSPropertyOp14
 70
     2
102
RTVSPropertyOp15
 70
     0
102
RTVSPropertyOp16
 70
     0
102
RTVSPropertyOp17
 70
     0
102
RTVSPropertyOp18
 70
     0
102
RTVSPropertyOp19
 70
     0
102
RTVSPropertyOp20
 70
     0
102
RTVSPropertyOp21
 70
     0
102
RTVSPropertyOp22
 70
     0
102
RTVSPropertyOp23
 70
     0
102
RTVSPropertyOp24
 70
     0
102
RTVSPropertyOp25
 70
     0
102
RTVSPropertyOp26
 70
     0
102
RTVSPropertyOp27
 70
     0
102
RTVSPropertyOp28
 70
     0
102
RTVSPropertyOp29
 70
     0
102
RTVSPropertyOp30
 70
     0
102
RTVSPropertyOp31
 70
     0
102
RTVSPropertyOp32
 70
     0
102
RTVSPropertyOp33
 70
     0
102
RTVSPropertyOp34
 70
     0
102
RTVSPropertyOp35
 70
     0
102
RTVSPropertyOp36
 70
     0
102
RTVSPropertyOp37
 70
     0
102
RTVSPropertyOp38
 70
     0
102
RTVSPropertyOp39
 70
     0
102
RTVSPropertyOp40
 70
     0
102
RTVSPropertyOp41
 70
     0
102
RTVSPropertyOp42
 70
     0
102
RTVSPropertyOp43
 70
     0
102
RTVSPropertyOp44
 70
     0
102
RTVSPropertyOp45
 70
     0
102
RTVSPropertyOp46
 70
     0
102
RTVSPropertyOp47
 70
     0
102
RTVSPropertyOp48
 70
     0
102
RTVSPropertyOp49
 70
     0
102
RTVSPropertyOp50
 70
     0
102
RTVSPropertyOp51
 70
     0
102
RTVSPropertyOp52
 70
     0
102
RTVSPropertyOp53
 70
     0
102
RTVSPropertyOp54
 70
     0
102
RTVSPropertyOp55
 70
     0
102
RTVSPropertyOp56
 70
     0
102
RTVSPropertyOp57
 70
     0
102
RTVSPost2010Prop28
280
     0
102
RTVSPost2010PropOp28
 70
     0
102
RTVSPost2010Prop29
280
     1
102
RTVSPost2010PropOp29
 70
     0
102
RTVSPost2010Prop30
280
     1
102
RTVSPost2010PropOp30
 70
     0
102
RTVSPost2010Prop31
280
     0
102
RTVSPost2010PropOp31
 70
     0
102
RTVSPost2010Prop32
280
     0
102
RTVSPost2010PropOp32
 70
     0
102
RTVSPost2010Prop33
280
     0
102
RTVSPost2010PropOp33
 70
     0
102
RTVSPost2010Prop34
280
     0
102
RTVSPost2010PropOp34
 70
     0
102
RTVSPost2010Prop35
280
     0
102
RTVSPost2010PropOp35
 70
     0
102
RTVSPost2010Prop36
280
     0
102
RTVSPost2010PropOp36
 70
     0
102
RTVSPost2010Prop37
 90
       50
102
RTVSPost2010PropOp37
 70
     0
102
RTVSPost2010Prop38
140
0.0
102
RTVSPost2010PropOp38
 70
     0
102
RTVSPost2010Prop39
140
1.0
102
RTVSPost2010PropOp39
 70
     0
102
RTVSPost2010Prop40
 90
        0
102
RTVSPost2010PropOp40
 70
     0
102
RTVSPost2010Prop41ColorIndex
 90
       18
102
RTVSPost2010Prop41ColorRGB
 90
        0
102
RTVSPost2010PropOp41
 70
     0
102
RTVSPost2010Prop42
 90
       50
102
RTVSPost2010PropOp42
 70
     0
102
RTVSPost2010Prop43
 90
        3
102
RTVSPost2010PropOp43
 70
     0
102
RTVSPost2010Prop44ColorIndex
 90
        5
102
RTVSPost2010Prop44ColorRGB
 90
      255
102
RTVSPost2010PropOp44
 70
     0
102
RTVSPost2010Prop45
280
     0
102
RTVSPost2010PropOp45
 70
     0
102
RTVSPost2010Prop46
 90
       50
102
RTVSPost2010PropOp46
 70
     0
102
RTVSPost2010Prop47
 90
       50
102
RTVSPost2010PropOp47
 70
     0
102
RTVSPost2010Prop48
 90
       50
102
RTVSPost2010PropOp48
 70
     0
102
RTVSPost2010Prop49
280
     0
102
RTVSPost2010PropOp49
 70
     0
102
RTVSPost2010Prop50
 90
       50
102
RTVSPost2010PropOp50
 70
     0
102
RTVSPost2010Prop51ColorIndex
 90
      256
102
RTVSPost2010Prop51ColorRGB
 90
-16777216
102
RTVSPost2010PropOp51
 70
     0
102
RTVSPost2010Prop52
140
1.0
102
RTVSPost2010PropOp52
 70
     0
102
RTVSPost2010Prop53
 90
        2
102
RTVSPost2010PropOp53
 70
     0
102
RTVSPost2010Prop54
  1
strokes_ogs.tif
102
RTVSPost2010PropOp54
 70
     0
102
RTVSPost2010Prop55
280
     0
102
RTVSPost2010PropOp55
 70
     0
102
RTVSPost2010Prop56
140
1.0
102
RTVSPost2010PropOp56
 70
     0
102
RTVSPost2010Prop57
140
1.0
102
RTVSPost2010PropOp57
 70
     0
  0
XRECORD
  5
1E8
102
{ACAD_REACTORS
330
1E7
102
}
330
1E7
100
AcDbXrecord
280
     1
102
RTVSPropertyOp0
 70
     1
102
RTVSPropertyOp1
 70
     1
102
RTVSPropertyOp2
 70
     1
102
RTVSPropertyOp3
 70
     1
102
RTVSPropertyOp4
 70
     1
102
RTVSPropertyOp5
 70
     1
102
RTVSPropertyOp6
 70
     1
102
RTVSPropertyOp7
 70
     1
102
RTVSPropertyOp8
 70
     1
102
RTVSPropertyOp9
 70
     1
102
RTVSPropertyOp10
 70
     1
102
RTVSPropertyOp11
 70
     1
102
RTVSPropertyOp12
 70
     1
102
RTVSPropertyOp13
 70
     1
102
RTVSPropertyOp14
 70
     1
102
RTVSPropertyOp15
 70
     1
102
RTVSPropertyOp16
 70
     1
102
RTVSPropertyOp17
 70
     1
102
RTVSPropertyOp18
 70
     1
102
RTVSPropertyOp19
 70
     1
102
RTVSPropertyOp20
 70
     1
102
RTVSPropertyOp21
 70
     1
102
RTVSPropertyOp22
 70
     1
102
RTVSPropertyOp23
 70
     1
102
RTVSPropertyOp24
 70
     1
102
RTVSPropertyOp25
 70
     1
102
RTVSPropertyOp26
 70
     1
102
RTVSPropertyOp27
 70
     1
102
RTVSPropertyOp28
 70
     1
102
RTVSPropertyOp29
 70
     1
102
RTVSPropertyOp30
 70
     1
102
RTVSPropertyOp31
 70
     1
102
RTVSPropertyOp32
 70
     1
102
RTVSPropertyOp33
 70
     1
102
RTVSPropertyOp34
 70
     1
102
RTVSPropertyOp35
 70
     1
102
RTVSPropertyOp36
 70
     1
102
RTVSPropertyOp37
 70
     1
102
RTVSPropertyOp38
 70
     1
102
RTVSPropertyOp39
 70
     1
102
RTVSPropertyOp40
 70
     1
102
RTVSPropertyOp41
 70
     1
102
RTVSPropertyOp42
 70
     1
102
RTVSPropertyOp43
 70
     1
102
RTVSPropertyOp44
 70
     1
102
RTVSPropertyOp45
 70
     1
102
RTVSPropertyOp46
 70
     1
102
RTVSPropertyOp47
 70
     1
102
RTVSPropertyOp48
 70
     1
102
RTVSPropertyOp49
 70
     1
102
RTVSPropertyOp50
 70
     1
102
RTVSPropertyOp51
 70
     0
102
RTVSPropertyOp52
 70
     0
102
RTVSPropertyOp53
 70
     1
102
RTVSPropertyOp54
 70
     1
102
RTVSPropertyOp55
 70
     1
102
RTVSPropertyOp56
 70
     1
102
RTVSPropertyOp57
 70
     1
102
RTVSPost2010Prop28
280
     0
102
RTVSPost2010PropOp28
 70
     1
102
RTVSPost2010Prop29
280
     1
102
RTVSPost2010PropOp29
 70
     1
102
RTVSPost2010Prop30
280
     1
102
RTVSPost2010PropOp30
 70
     1
102
RTVSPost2010Prop31
280
     0
102
RTVSPost2010PropOp31
 70
     1
102
RTVSPost2010Prop32
280
     0
102
RTVSPost2010PropOp32
 70
     1
102
RTVSPost2010Prop33
280
     0
102
RTVSPost2010PropOp33
 70
     1
102
RTVSPost2010Prop34
280
     0
102
RTVSPost2010PropOp34
 70
     1
102
RTVSPost2010Prop35
280
     0
102
RTVSPost2010PropOp35
 70
     1
102
RTVSPost2010Prop36
280
     0
102
RTVSPost2010PropOp36
 70
     1
102
RTVSPost2010Prop37
 90
       50
102
RTVSPost2010PropOp37
 70
     1
102
RTVSPost2010Prop38
140
0.0
102
RTVSPost2010PropOp38
 70
     1
102
RTVSPost2010Prop39
140
1.0
102
RTVSPost2010PropOp39
 70
     1
102
RTVSPost2010Prop40
 90
        0
102
RTVSPost2010PropOp40
 70
     1
102
RTVSPost2010Prop41ColorIndex
 90
       18
102
RTVSPost2010Prop41ColorRGB
 90
        0
102
RTVSPost2010PropOp41
 70
     1
102
RTVSPost2010Prop42
 90
       50
102
RTVSPost2010PropOp42
 70
     1
102
RTVSPost2010Prop43
 90
        3
102
RTVSPost2010PropOp43
 70
     1
102
RTVSPost2010Prop44ColorIndex
 90
        5
102
RTVSPost2010Prop44ColorRGB
 90
      255
102
RTVSPost2010PropOp44
 70
     1
102
RTVSPost2010Prop45
280
     0
102
RTVSPost2010PropOp45
 70
     1
102
RTVSPost2010Prop46
 90
       50
102
RTVSPost2010PropOp46
 70
     1
102
RTVSPost2010Prop47
 90
       50
102
RTVSPost2010PropOp47
 70
     1
102
RTVSPost2010Prop48
 90
       50
102
RTVSPost2010PropOp48
 70
     1
102
RTVSPost2010Prop49
280
     0
102
RTVSPost2010PropOp49
 70
     1
102
RTVSPost2010Prop50
 90
       50
102
RTVSPost2010PropOp50
 70
     1
102
RTVSPost2010Prop51ColorIndex
 90
      256
102
RTVSPost2010Prop51ColorRGB
 90
-16777216
102
RTVSPost2010PropOp51
 70
     0
102
RTVSPost2010Prop52
140
1.0
102
RTVSPost2010PropOp52
 70
     0
102
RTVSPost2010Prop53
 90
        2
102
RTVSPost2010PropOp53
 70
     1
102
RTVSPost2010Prop54
  1
strokes_ogs.tif
102
RTVSPost2010PropOp54
 70
     1
102
RTVSPost2010Prop55
280
     0
102
RTVSPost2010PropOp55
 70
     1
102
RTVSPost2010Prop56
140
1.0
102
RTVSPost2010PropOp56
 70
     1
102
RTVSPost2010Prop57
140
1.0
102
RTVSPost2010PropOp57
 70
     1
  0
XRECORD
  5
1CC
102
{ACAD_REACTORS
330
1CB
102
}
330
1CB
100
AcDbXrecord
280
     1
102
RTVSPropertyOp0
 70
     1
102
RTVSPropertyOp1
 70
     1
102
RTVSPropertyOp2
 70
     1
102
RTVSPropertyOp3
 70
     1
102
RTVSPropertyOp4
 70
     1
102
RTVSPropertyOp5
 70
     1
102
RTVSPropertyOp6
 70
     1
102
RTVSPropertyOp7
 70
     1
102
RTVSPropertyOp8
 70
     1
102
RTVSPropertyOp9
 70
     1
102
RTVSPropertyOp10
 70
     1
102
RTVSPropertyOp11
 70
     1
102
RTVSPropertyOp12
 70
     1
102
RTVSPropertyOp13
 70
     1
102
RTVSPropertyOp14
 70
     1
102
RTVSPropertyOp15
 70
     1
102
RTVSPropertyOp16
 70
     1
102
RTVSPropertyOp17
 70
     1
102
RTVSPropertyOp18
 70
     1
102
RTVSPropertyOp19
 70
     1
102
RTVSPropertyOp20
 70
     1
102
RTVSPropertyOp21
 70
     1
102
RTVSPropertyOp22
 70
     1
102
RTVSPropertyOp23
 70
     1
102
RTVSPropertyOp24
 70
     1
102
RTVSPropertyOp25
 70
     1
102
RTVSPropertyOp26
 70
     1
102
RTVSPropertyOp27
 70
     1
102
RTVSPropertyOp28
 70
     1
102
RTVSPropertyOp29
 70
     1
102
RTVSPropertyOp30
 70
     1
102
RTVSPropertyOp31
 70
     1
102
RTVSPropertyOp32
 70
     1
102
RTVSPropertyOp33
 70
     1
102
RTVSPropertyOp34
 70
     1
102
RTVSPropertyOp35
 70
     1
102
RTVSPropertyOp36
 70
     1
102
RTVSPropertyOp37
 70
     1
102
RTVSPropertyOp38
 70
     1
102
RTVSPropertyOp39
 70
     1
102
RTVSPropertyOp40
 70
     1
102
RTVSPropertyOp41
 70
     1
102
RTVSPropertyOp42
 70
     1
102
RTVSPropertyOp43
 70
     1
102
RTVSPropertyOp44
 70
     1
102
RTVSPropertyOp45
 70
     1
102
RTVSPropertyOp46
 70
     1
102
RTVSPropertyOp47
 70
     1
102
RTVSPropertyOp48
 70
     1
102
RTVSPropertyOp49
 70
     1
102
RTVSPropertyOp50
 70
     1
102
RTVSPropertyOp51
 70
     0
102
RTVSPropertyOp52
 70
     0
102
RTVSPropertyOp53
 70
     1
102
RTVSPropertyOp54
 70
     1
102
RTVSPropertyOp55
 70
     1
102
RTVSPropertyOp56
 70
     1
102
RTVSPropertyOp57
 70
     1
102
RTVSPost2010Prop28
280
     0
102
RTVSPost2010PropOp28
 70
     1
102
RTVSPost2010Prop29
280
     1
102
RTVSPost2010PropOp29
 70
     1
102
RTVSPost2010Prop30
280
     1
102
RTVSPost2010PropOp30
 70
     1
102
RTVSPost2010Prop31
280
     0
102
RTVSPost2010PropOp31
 70
     1
102
RTVSPost2010Prop32
280
     0
102
RTVSPost2010PropOp32
 70
     1
102
RTVSPost2010Prop33
280
     0
102
RTVSPost2010PropOp33
 70
     1
102
RTVSPost2010Prop34
280
     0
102
RTVSPost2010PropOp34
 70
     1
102
RTVSPost2010Prop35
280
     0
102
RTVSPost2010PropOp35
 70
     1
102
RTVSPost2010Prop36
280
     0
102
RTVSPost2010PropOp36
 70
     1
102
RTVSPost2010Prop37
 90
       50
102
RTVSPost2010PropOp37
 70
     1
102
RTVSPost2010Prop38
140
0.0
102
RTVSPost2010PropOp38
 70
     1
102
RTVSPost2010Prop39
140
1.0
102
RTVSPost2010PropOp39
 70
     1
102
RTVSPost2010Prop40
 90
        0
102
RTVSPost2010PropOp40
 70
     1
102
RTVSPost2010Prop41ColorIndex
 90
       18
102
RTVSPost2010Prop41ColorRGB
 90
        0
102
RTVSPost2010PropOp41
 70
     1
102
RTVSPost2010Prop42
 90
       50
102
RTVSPost2010PropOp42
 70
     1
102
RTVSPost2010Prop43
 90
        3
102
RTVSPost2010PropOp43
 70
     1
102
RTVSPost2010Prop44ColorIndex
 90
        5
102
RTVSPost2010Prop44ColorRGB
 90
      255
102
RTVSPost2010PropOp44
 70
     1
102
RTVSPost2010Prop45
280
     0
102
RTVSPost2010PropOp45
 70
     1
102
RTVSPost2010Prop46
 90
       50
102
RTVSPost2010PropOp46
 70
     1
102
RTVSPost2010Prop47
 90
       50
102
RTVSPost2010PropOp47
 70
     1
102
RTVSPost2010Prop48
 90
       50
102
RTVSPost2010PropOp48
 70
     1
102
RTVSPost2010Prop49
280
     0
102
RTVSPost2010PropOp49
 70
     1
102
RTVSPost2010Prop50
 90
       50
102
RTVSPost2010PropOp50
 70
     1
102
RTVSPost2010Prop51ColorIndex
 90
      256
102
RTVSPost2010Prop51ColorRGB
 90
-16777216
102
RTVSPost2010PropOp51
 70
     0
102
RTVSPost2010Prop52
140
1.0
102
RTVSPost2010PropOp52
 70
     0
102
RTVSPost2010Prop53
 90
        2
102
RTVSPost2010PropOp53
 70
     1
102
RTVSPost2010Prop54
  1
strokes_ogs.tif
102
RTVSPost2010PropOp54
 70
     1
102
RTVSPost2010Prop55
280
     0
102
RTVSPost2010PropOp55
 70
     1
102
RTVSPost2010Prop56
140
1.0
102
RTVSPost2010PropOp56
 70
     1
102
RTVSPost2010Prop57
140
1.0
102
RTVSPost2010PropOp57
 70
     1
  0
XRECORD
  5
1CE
102
{ACAD_REACTORS
330
1CD
102
}
330
1CD
100
AcDbXrecord
280
     1
102
RTVSPropertyOp0
 70
     1
102
RTVSPropertyOp1
 70
     1
102
RTVSPropertyOp2
 70
     1
102
RTVSPropertyOp3
 70
     1
102
RTVSPropertyOp4
 70
     1
102
RTVSPropertyOp5
 70
     1
102
RTVSPropertyOp6
 70
     1
102
RTVSPropertyOp7
 70
     1
102
RTVSPropertyOp8
 70
     1
102
RTVSPropertyOp9
 70
     1
102
RTVSPropertyOp10
 70
     1
102
RTVSPropertyOp11
 70
     1
102
RTVSPropertyOp12
 70
     1
102
RTVSPropertyOp13
 70
     1
102
RTVSPropertyOp14
 70
     1
102
RTVSPropertyOp15
 70
     1
102
RTVSPropertyOp16
 70
     1
102
RTVSPropertyOp17
 70
     1
102
RTVSPropertyOp18
 70
     1
102
RTVSPropertyOp19
 70
     1
102
RTVSPropertyOp20
 70
     1
102
RTVSPropertyOp21
 70
     1
102
RTVSPropertyOp22
 70
     1
102
RTVSPropertyOp23
 70
     1
102
RTVSPropertyOp24
 70
     1
102
RTVSPropertyOp25
 70
     1
102
RTVSPropertyOp26
 70
     1
102
RTVSPropertyOp27
 70
     1
102
RTVSPropertyOp28
 70
     1
102
RTVSPropertyOp29
 70
     1
102
RTVSPropertyOp30
 70
     1
102
RTVSPropertyOp31
 70
     1
102
RTVSPropertyOp32
 70
     1
102
RTVSPropertyOp33
 70
     1
102
RTVSPropertyOp34
 70
     1
102
RTVSPropertyOp35
 70
     1
102
RTVSPropertyOp36
 70
     1
102
RTVSPropertyOp37
 70
     1
102
RTVSPropertyOp38
 70
     1
102
RTVSPropertyOp39
 70
     1
102
RTVSPropertyOp40
 70
     1
102
RTVSPropertyOp41
 70
     1
102
RTVSPropertyOp42
 70
     1
102
RTVSPropertyOp43
 70
     1
102
RTVSPropertyOp44
 70
     1
102
RTVSPropertyOp45
 70
     1
102
RTVSPropertyOp46
 70
     1
102
RTVSPropertyOp47
 70
     1
102
RTVSPropertyOp48
 70
     1
102
RTVSPropertyOp49
 70
     1
102
RTVSPropertyOp50
 70
     1
102
RTVSPropertyOp51
 70
     0
102
RTVSPropertyOp52
 70
     0
102
RTVSPropertyOp53
 70
     1
102
RTVSPropertyOp54
 70
     1
102
RTVSPropertyOp55
 70
     1
102
RTVSPropertyOp56
 70
     1
102
RTVSPropertyOp57
 70
     1
102
RTVSPost2010Prop28
280
     0
102
RTVSPost2010PropOp28
 70
     1
102
RTVSPost2010Prop29
280
     1
102
RTVSPost2010PropOp29
 70
     1
102
RTVSPost2010Prop30
280
     1
102
RTVSPost2010PropOp30
 70
     1
102
RTVSPost2010Prop31
280
     0
102
RTVSPost2010PropOp31
 70
     1
102
RTVSPost2010Prop32
280
     0
102
RTVSPost2010PropOp32
 70
     1
102
RTVSPost2010Prop33
280
     0
102
RTVSPost2010PropOp33
 70
     1
102
RTVSPost2010Prop34
280
     0
102
RTVSPost2010PropOp34
 70
     1
102
RTVSPost2010Prop35
280
     0
102
RTVSPost2010PropOp35
 70
     1
102
RTVSPost2010Prop36
280
     0
102
RTVSPost2010PropOp36
 70
     1
102
RTVSPost2010Prop37
 90
       50
102
RTVSPost2010PropOp37
 70
     1
102
RTVSPost2010Prop38
140
0.0
102
RTVSPost2010PropOp38
 70
     1
102
RTVSPost2010Prop39
140
1.0
102
RTVSPost2010PropOp39
 70
     1
102
RTVSPost2010Prop40
 90
        0
102
RTVSPost2010PropOp40
 70
     1
102
RTVSPost2010Prop41ColorIndex
 90
       18
102
RTVSPost2010Prop41ColorRGB
 90
        0
102
RTVSPost2010PropOp41
 70
     1
102
RTVSPost2010Prop42
 90
       50
102
RTVSPost2010PropOp42
 70
     1
102
RTVSPost2010Prop43
 90
        3
102
RTVSPost2010PropOp43
 70
     1
102
RTVSPost2010Prop44ColorIndex
 90
        5
102
RTVSPost2010Prop44ColorRGB
 90
      255
102
RTVSPost2010PropOp44
 70
     1
102
RTVSPost2010Prop45
280
     0
102
RTVSPost2010PropOp45
 70
     1
102
RTVSPost2010Prop46
 90
       50
102
RTVSPost2010PropOp46
 70
     1
102
RTVSPost2010Prop47
 90
       50
102
RTVSPost2010PropOp47
 70
     1
102
RTVSPost2010Prop48
 90
       50
102
RTVSPost2010PropOp48
 70
     1
102
RTVSPost2010Prop49
280
     0
102
RTVSPost2010PropOp49
 70
     1
102
RTVSPost2010Prop50
 90
       50
102
RTVSPost2010PropOp50
 70
     1
102
RTVSPost2010Prop51ColorIndex
 90
      256
102
RTVSPost2010Prop51ColorRGB
 90
-16777216
102
RTVSPost2010PropOp51
 70
     0
102
RTVSPost2010Prop52
140
1.0
102
RTVSPost2010PropOp52
 70
     0
102
RTVSPost2010Prop53
 90
        2
102
RTVSPost2010PropOp53
 70
     1
102
RTVSPost2010Prop54
  1
strokes_ogs.tif
102
RTVSPost2010PropOp54
 70
     1
102
RTVSPost2010Prop55
280
     0
102
RTVSPost2010PropOp55
 70
     1
102
RTVSPost2010Prop56
140
1.0
102
RTVSPost2010PropOp56
 70
     1
102
RTVSPost2010Prop57
140
1.0
102
RTVSPost2010PropOp57
 70
     1
  0
XRECORD
  5
1D0
102
{ACAD_REACTORS
330
1CF
102
}
330
1CF
100
AcDbXrecord
280
     1
102
RTVSPropertyOp0
 70
     1
102
RTVSPropertyOp1
 70
     1
102
RTVSPropertyOp2
 70
     1
102
RTVSPropertyOp3
 70
     1
102
RTVSPropertyOp4
 70
     1
102
RTVSPropertyOp5
 70
     1
102
RTVSPropertyOp6
 70
     1
102
RTVSPropertyOp7
 70
     1
102
RTVSPropertyOp8
 70
     1
102
RTVSPropertyOp9
 70
     1
102
RTVSPropertyOp10
 70
     1
102
RTVSPropertyOp11
 70
     1
102
RTVSPropertyOp12
 70
     1
102
RTVSPropertyOp13
 70
     1
102
RTVSPropertyOp14
 70
     1
102
RTVSPropertyOp15
 70
     1
102
RTVSPropertyOp16
 70
     1
102
RTVSPropertyOp17
 70
     1
102
RTVSPropertyOp18
 70
     1
102
RTVSPropertyOp19
 70
     1
102
RTVSPropertyOp20
 70
     1
102
RTVSPropertyOp21
 70
     1
102
RTVSPropertyOp22
 70
     1
102
RTVSPropertyOp23
 70
     1
102
RTVSPropertyOp24
 70
     1
102
RTVSPropertyOp25
 70
     1
102
RTVSPropertyOp26
 70
     1
102
RTVSPropertyOp27
 70
     1
102
RTVSPropertyOp28
 70
     1
102
RTVSPropertyOp29
 70
     1
102
RTVSPropertyOp30
 70
     1
102
RTVSPropertyOp31
 70
     1
102
RTVSPropertyOp32
 70
     1
102
RTVSPropertyOp33
 70
     1
102
RTVSPropertyOp34
 70
     1
102
RTVSPropertyOp35
 70
     1
102
RTVSPropertyOp36
 70
     1
102
RTVSPropertyOp37
 70
     1
102
RTVSPropertyOp38
 70
     1
102
RTVSPropertyOp39
 70
     1
102
RTVSPropertyOp40
 70
     1
102
RTVSPropertyOp41
 70
     1
102
RTVSPropertyOp42
 70
     1
102
RTVSPropertyOp43
 70
     1
102
RTVSPropertyOp44
 70
     1
102
RTVSPropertyOp45
 70
     1
102
RTVSPropertyOp46
 70
     1
102
RTVSPropertyOp47
 70
     1
102
RTVSPropertyOp48
 70
     1
102
RTVSPropertyOp49
 70
     1
102
RTVSPropertyOp50
 70
     1
102
RTVSPropertyOp51
 70
     0
102
RTVSPropertyOp52
 70
     0
102
RTVSPropertyOp53
 70
     1
102
RTVSPropertyOp54
 70
     1
102
RTVSPropertyOp55
 70
     1
102
RTVSPropertyOp56
 70
     1
102
RTVSPropertyOp57
 70
     1
102
RTVSPost2010Prop28
280
     0
102
RTVSPost2010PropOp28
 70
     1
102
RTVSPost2010Prop29
280
     1
102
RTVSPost2010PropOp29
 70
     1
102
RTVSPost2010Prop30
280
     1
102
RTVSPost2010PropOp30
 70
     1
102
RTVSPost2010Prop31
280
     0
102
RTVSPost2010PropOp31
 70
     1
102
RTVSPost2010Prop32
280
     0
102
RTVSPost2010PropOp32
 70
     1
102
RTVSPost2010Prop33
280
     0
102
RTVSPost2010PropOp33
 70
     1
102
RTVSPost2010Prop34
280
     0
102
RTVSPost2010PropOp34
 70
     1
102
RTVSPost2010Prop35
280
     0
102
RTVSPost2010PropOp35
 70
     1
102
RTVSPost2010Prop36
280
     0
102
RTVSPost2010PropOp36
 70
     1
102
RTVSPost2010Prop37
 90
       50
102
RTVSPost2010PropOp37
 70
     1
102
RTVSPost2010Prop38
140
0.0
102
RTVSPost2010PropOp38
 70
     1
102
RTVSPost2010Prop39
140
1.0
102
RTVSPost2010PropOp39
 70
     1
102
RTVSPost2010Prop40
 90
        0
102
RTVSPost2010PropOp40
 70
     1
102
RTVSPost2010Prop41ColorIndex
 90
       18
102
RTVSPost2010Prop41ColorRGB
 90
        0
102
RTVSPost2010PropOp41
 70
     1
102
RTVSPost2010Prop42
 90
       50
102
RTVSPost2010PropOp42
 70
     1
102
RTVSPost2010Prop43
 90
        3
102
RTVSPost2010PropOp43
 70
     1
102
RTVSPost2010Prop44ColorIndex
 90
        5
102
RTVSPost2010Prop44ColorRGB
 90
      255
102
RTVSPost2010PropOp44
 70
     1
102
RTVSPost2010Prop45
280
     0
102
RTVSPost2010PropOp45
 70
     1
102
RTVSPost2010Prop46
 90
       50
102
RTVSPost2010PropOp46
 70
     1
102
RTVSPost2010Prop47
 90
       50
102
RTVSPost2010PropOp47
 70
     1
102
RTVSPost2010Prop48
 90
       50
102
RTVSPost2010PropOp48
 70
     1
102
RTVSPost2010Prop49
280
     0
102
RTVSPost2010PropOp49
 70
     1
102
RTVSPost2010Prop50
 90
       50
102
RTVSPost2010PropOp50
 70
     1
102
RTVSPost2010Prop51ColorIndex
 90
      256
102
RTVSPost2010Prop51ColorRGB
 90
-16777216
102
RTVSPost2010PropOp51
 70
     0
102
RTVSPost2010Prop52
140
1.0
102
RTVSPost2010PropOp52
 70
     0
102
RTVSPost2010Prop53
 90
        2
102
RTVSPost2010PropOp53
 70
     1
102
RTVSPost2010Prop54
  1
strokes_ogs.tif
102
RTVSPost2010PropOp54
 70
     1
102
RTVSPost2010Prop55
280
     0
102
RTVSPost2010PropOp55
 70
     1
102
RTVSPost2010Prop56
140
1.0
102
RTVSPost2010PropOp56
 70
     1
102
RTVSPost2010Prop57
140
1.0
102
RTVSPost2010PropOp57
 70
     1
  0
XRECORD
  5
1D2
102
{ACAD_REACTORS
330
1D1
102
}
330
1D1
100
AcDbXrecord
280
     1
102
RTVSPropertyOp0
 70
     1
102
RTVSPropertyOp1
 70
     1
102
RTVSPropertyOp2
 70
     1
102
RTVSPropertyOp3
 70
     1
102
RTVSPropertyOp4
 70
     1
102
RTVSPropertyOp5
 70
     1
102
RTVSPropertyOp6
 70
     1
102
RTVSPropertyOp7
 70
     1
102
RTVSPropertyOp8
 70
     1
102
RTVSPropertyOp9
 70
     1
102
RTVSPropertyOp10
 70
     1
102
RTVSPropertyOp11
 70
     1
102
RTVSPropertyOp12
 70
     1
102
RTVSPropertyOp13
 70
     1
102
RTVSPropertyOp14
 70
     1
102
RTVSPropertyOp15
 70
     1
102
RTVSPropertyOp16
 70
     1
102
RTVSPropertyOp17
 70
     1
102
RTVSPropertyOp18
 70
     1
102
RTVSPropertyOp19
 70
     1
102
RTVSPropertyOp20
 70
     1
102
RTVSPropertyOp21
 70
     1
102
RTVSPropertyOp22
 70
     1
102
RTVSPropertyOp23
 70
     1
102
RTVSPropertyOp24
 70
     1
102
RTVSPropertyOp25
 70
     1
102
RTVSPropertyOp26
 70
     1
102
RTVSPropertyOp27
 70
     1
102
RTVSPropertyOp28
 70
     1
102
RTVSPropertyOp29
 70
     1
102
RTVSPropertyOp30
 70
     1
102
RTVSPropertyOp31
 70
     1
102
RTVSPropertyOp32
 70
     1
102
RTVSPropertyOp33
 70
     1
102
RTVSPropertyOp34
 70
     1
102
RTVSPropertyOp35
 70
     1
102
RTVSPropertyOp36
 70
     1
102
RTVSPropertyOp37
 70
     1
102
RTVSPropertyOp38
 70
     1
102
RTVSPropertyOp39
 70
     1
102
RTVSPropertyOp40
 70
     1
102
RTVSPropertyOp41
 70
     1
102
RTVSPropertyOp42
 70
     1
102
RTVSPropertyOp43
 70
     1
102
RTVSPropertyOp44
 70
     1
102
RTVSPropertyOp45
 70
     1
102
RTVSPropertyOp46
 70
     1
102
RTVSPropertyOp47
 70
     1
102
RTVSPropertyOp48
 70
     1
102
RTVSPropertyOp49
 70
     1
102
RTVSPropertyOp50
 70
     1
102
RTVSPropertyOp51
 70
     0
102
RTVSPropertyOp52
 70
     0
102
RTVSPropertyOp53
 70
     1
102
RTVSPropertyOp54
 70
     1
102
RTVSPropertyOp55
 70
     1
102
RTVSPropertyOp56
 70
     1
102
RTVSPropertyOp57
 70
     1
102
RTVSPost2010Prop28
280
     0
102
RTVSPost2010PropOp28
 70
     1
102
RTVSPost2010Prop29
280
     1
102
RTVSPost2010PropOp29
 70
     1
102
RTVSPost2010Prop30
280
     1
102
RTVSPost2010PropOp30
 70
     1
102
RTVSPost2010Prop31
280
     0
102
RTVSPost2010PropOp31
 70
     1
102
RTVSPost2010Prop32
280
     0
102
RTVSPost2010PropOp32
 70
     1
102
RTVSPost2010Prop33
280
     0
102
RTVSPost2010PropOp33
 70
     1
102
RTVSPost2010Prop34
280
     0
102
RTVSPost2010PropOp34
 70
     1
102
RTVSPost2010Prop35
280
     0
102
RTVSPost2010PropOp35
 70
     1
102
RTVSPost2010Prop36
280
     0
102
RTVSPost2010PropOp36
 70
     1
102
RTVSPost2010Prop37
 90
       50
102
RTVSPost2010PropOp37
 70
     1
102
RTVSPost2010Prop38
140
0.0
102
RTVSPost2010PropOp38
 70
     1
102
RTVSPost2010Prop39
140
1.0
102
RTVSPost2010PropOp39
 70
     1
102
RTVSPost2010Prop40
 90
        0
102
RTVSPost2010PropOp40
 70
     1
102
RTVSPost2010Prop41ColorIndex
 90
       18
102
RTVSPost2010Prop41ColorRGB
 90
        0
102
RTVSPost2010PropOp41
 70
     1
102
RTVSPost2010Prop42
 90
       50
102
RTVSPost2010PropOp42
 70
     1
102
RTVSPost2010Prop43
 90
        3
102
RTVSPost2010PropOp43
 70
     1
102
RTVSPost2010Prop44ColorIndex
 90
        5
102
RTVSPost2010Prop44ColorRGB
 90
      255
102
RTVSPost2010PropOp44
 70
     1
102
RTVSPost2010Prop45
280
     0
102
RTVSPost2010PropOp45
 70
     1
102
RTVSPost2010Prop46
 90
       50
102
RTVSPost2010PropOp46
 70
     1
102
RTVSPost2010Prop47
 90
       50
102
RTVSPost2010PropOp47
 70
     1
102
RTVSPost2010Prop48
 90
       50
102
RTVSPost2010PropOp48
 70
     1
102
RTVSPost2010Prop49
280
     0
102
RTVSPost2010PropOp49
 70
     1
102
RTVSPost2010Prop50
 90
       50
102
RTVSPost2010PropOp50
 70
     1
102
RTVSPost2010Prop51ColorIndex
 90
      256
102
RTVSPost2010Prop51ColorRGB
 90
-16777216
102
RTVSPost2010PropOp51
 70
     0
102
RTVSPost2010Prop52
140
1.0
102
RTVSPost2010PropOp52
 70
     0
102
RTVSPost2010Prop53
 90
        2
102
RTVSPost2010PropOp53
 70
     1
102
RTVSPost2010Prop54
  1
strokes_ogs.tif
102
RTVSPost2010PropOp54
 70
     1
102
RTVSPost2010Prop55
280
     0
102
RTVSPost2010PropOp55
 70
     1
102
RTVSPost2010Prop56
140
1.0
102
RTVSPost2010PropOp56
 70
     1
102
RTVSPost2010Prop57
140
1.0
102
RTVSPost2010PropOp57
 70
     1
  0
XRECORD
  5
1D8
102
{ACAD_REACTORS
330
1D7
102
}
330
1D7
100
AcDbXrecord
280
     1
102
RTVSPropertyOp0
 70
     1
102
RTVSPropertyOp1
 70
     1
102
RTVSPropertyOp2
 70
     1
102
RTVSPropertyOp3
 70
     1
102
RTVSPropertyOp4
 70
     1
102
RTVSPropertyOp5
 70
     1
102
RTVSPropertyOp6
 70
     1
102
RTVSPropertyOp7
 70
     1
102
RTVSPropertyOp8
 70
     1
102
RTVSPropertyOp9
 70
     1
102
RTVSPropertyOp10
 70
     1
102
RTVSPropertyOp11
 70
     1
102
RTVSPropertyOp12
 70
     1
102
RTVSPropertyOp13
 70
     1
102
RTVSPropertyOp14
 70
     1
102
RTVSPropertyOp15
 70
     1
102
RTVSPropertyOp16
 70
     1
102
RTVSPropertyOp17
 70
     1
102
RTVSPropertyOp18
 70
     1
102
RTVSPropertyOp19
 70
     1
102
RTVSPropertyOp20
 70
     1
102
RTVSPropertyOp21
 70
     1
102
RTVSPropertyOp22
 70
     1
102
RTVSPropertyOp23
 70
     1
102
RTVSPropertyOp24
 70
     1
102
RTVSPropertyOp25
 70
     1
102
RTVSPropertyOp26
 70
     1
102
RTVSPropertyOp27
 70
     1
102
RTVSPropertyOp28
 70
     1
102
RTVSPropertyOp29
 70
     1
102
RTVSPropertyOp30
 70
     1
102
RTVSPropertyOp31
 70
     1
102
RTVSPropertyOp32
 70
     1
102
RTVSPropertyOp33
 70
     1
102
RTVSPropertyOp34
 70
     1
102
RTVSPropertyOp35
 70
     1
102
RTVSPropertyOp36
 70
     1
102
RTVSPropertyOp37
 70
     1
102
RTVSPropertyOp38
 70
     1
102
RTVSPropertyOp39
 70
     1
102
RTVSPropertyOp40
 70
     1
102
RTVSPropertyOp41
 70
     1
102
RTVSPropertyOp42
 70
     1
102
RTVSPropertyOp43
 70
     1
102
RTVSPropertyOp44
 70
     1
102
RTVSPropertyOp45
 70
     1
102
RTVSPropertyOp46
 70
     1
102
RTVSPropertyOp47
 70
     1
102
RTVSPropertyOp48
 70
     1
102
RTVSPropertyOp49
 70
     1
102
RTVSPropertyOp50
 70
     1
102
RTVSPropertyOp51
 70
     0
102
RTVSPropertyOp52
 70
     0
102
RTVSPropertyOp53
 70
     1
102
RTVSPropertyOp54
 70
     1
102
RTVSPropertyOp55
 70
     1
102
RTVSPropertyOp56
 70
     1
102
RTVSPropertyOp57
 70
     1
102
RTVSPost2010Prop28
280
     0
102
RTVSPost2010PropOp28
 70
     1
102
RTVSPost2010Prop29
280
     1
102
RTVSPost2010PropOp29
 70
     1
102
RTVSPost2010Prop30
280
     1
102
RTVSPost2010PropOp30
 70
     1
102
RTVSPost2010Prop31
280
     0
102
RTVSPost2010PropOp31
 70
     1
102
RTVSPost2010Prop32
280
     0
102
RTVSPost2010PropOp32
 70
     1
102
RTVSPost2010Prop33
280
     0
102
RTVSPost2010PropOp33
 70
     1
102
RTVSPost2010Prop34
280
     0
102
RTVSPost2010PropOp34
 70
     1
102
RTVSPost2010Prop35
280
     0
102
RTVSPost2010PropOp35
 70
     1
102
RTVSPost2010Prop36
280
     0
102
RTVSPost2010PropOp36
 70
     1
102
RTVSPost2010Prop37
 90
       50
102
RTVSPost2010PropOp37
 70
     1
102
RTVSPost2010Prop38
140
0.0
102
RTVSPost2010PropOp38
 70
     1
102
RTVSPost2010Prop39
140
1.0
102
RTVSPost2010PropOp39
 70
     1
102
RTVSPost2010Prop40
 90
        0
102
RTVSPost2010PropOp40
 70
     1
102
RTVSPost2010Prop41ColorIndex
 90
       18
102
RTVSPost2010Prop41ColorRGB
 90
        0
102
RTVSPost2010PropOp41
 70
     1
102
RTVSPost2010Prop42
 90
       50
102
RTVSPost2010PropOp42
 70
     1
102
RTVSPost2010Prop43
 90
        3
102
RTVSPost2010PropOp43
 70
     1
102
RTVSPost2010Prop44ColorIndex
 90
        5
102
RTVSPost2010Prop44ColorRGB
 90
      255
102
RTVSPost2010PropOp44
 70
     1
102
RTVSPost2010Prop45
280
     0
102
RTVSPost2010PropOp45
 70
     1
102
RTVSPost2010Prop46
 90
       50
102
RTVSPost2010PropOp46
 70
     1
102
RTVSPost2010Prop47
 90
       50
102
RTVSPost2010PropOp47
 70
     1
102
RTVSPost2010Prop48
 90
       50
102
RTVSPost2010PropOp48
 70
     1
102
RTVSPost2010Prop49
280
     0
102
RTVSPost2010PropOp49
 70
     1
102
RTVSPost2010Prop50
 90
       50
102
RTVSPost2010PropOp50
 70
     1
102
RTVSPost2010Prop51ColorIndex
 90
      256
102
RTVSPost2010Prop51ColorRGB
 90
-16777216
102
RTVSPost2010PropOp51
 70
     0
102
RTVSPost2010Prop52
140
1.0
102
RTVSPost2010PropOp52
 70
     0
102
RTVSPost2010Prop53
 90
        2
102
RTVSPost2010PropOp53
 70
     1
102
RTVSPost2010Prop54
  1
strokes_ogs.tif
102
RTVSPost2010PropOp54
 70
     1
102
RTVSPost2010Prop55
280
     0
102
RTVSPost2010PropOp55
 70
     1
102
RTVSPost2010Prop56
140
1.0
102
RTVSPost2010PropOp56
 70
     1
102
RTVSPost2010Prop57
140
1.0
102
RTVSPost2010PropOp57
 70
     1
  0
XRECORD
  5
1EC
102
{ACAD_REACTORS
330
1EB
102
}
330
1EB
100
AcDbXrecord
280
     1
102
RTVSPropertyOp0
 70
     0
102
RTVSPropertyOp1
 70
     0
102
RTVSPropertyOp2
 70
     0
102
RTVSPropertyOp3
 70
     0
102
RTVSPropertyOp4
 70
     0
102
RTVSPropertyOp5
 70
     0
102
RTVSPropertyOp6
 70
     0
102
RTVSPropertyOp7
 70
     0
102
RTVSPropertyOp8
 70
     0
102
RTVSPropertyOp9
 70
     0
102
RTVSPropertyOp10
 70
     0
102
RTVSPropertyOp11
 70
     0
102
RTVSPropertyOp12
 70
     0
102
RTVSPropertyOp13
 70
     0
102
RTVSPropertyOp14
 70
     2
102
RTVSPropertyOp15
 70
     0
102
RTVSPropertyOp16
 70
     0
102
RTVSPropertyOp17
 70
     0
102
RTVSPropertyOp18
 70
     0
102
RTVSPropertyOp19
 70
     0
102
RTVSPropertyOp20
 70
     0
102
RTVSPropertyOp21
 70
     0
102
RTVSPropertyOp22
 70
     0
102
RTVSPropertyOp23
 70
     0
102
RTVSPropertyOp24
 70
     0
102
RTVSPropertyOp25
 70
     0
102
RTVSPropertyOp26
 70
     0
102
RTVSPropertyOp27
 70
     0
102
RTVSPropertyOp28
 70
     0
102
RTVSPropertyOp29
 70
     0
102
RTVSPropertyOp30
 70
     0
102
RTVSPropertyOp31
 70
     0
102
RTVSPropertyOp32
 70
     0
102
RTVSPropertyOp33
 70
     0
102
RTVSPropertyOp34
 70
     0
102
RTVSPropertyOp35
 70
     0
102
RTVSPropertyOp36
 70
     0
102
RTVSPropertyOp37
 70
     0
102
RTVSPropertyOp38
 70
     0
102
RTVSPropertyOp39
 70
     0
102
RTVSPropertyOp40
 70
     0
102
RTVSPropertyOp41
 70
     0
102
RTVSPropertyOp42
 70
     0
102
RTVSPropertyOp43
 70
     0
102
RTVSPropertyOp44
 70
     0
102
RTVSPropertyOp45
 70
     0
102
RTVSPropertyOp46
 70
     0
102
RTVSPropertyOp47
 70
     0
102
RTVSPropertyOp48
 70
     0
102
RTVSPropertyOp49
 70
     0
102
RTVSPropertyOp50
 70
     0
102
RTVSPropertyOp51
 70
     0
102
RTVSPropertyOp52
 70
     0
102
RTVSPropertyOp53
 70
     0
102
RTVSPropertyOp54
 70
     0
102
RTVSPropertyOp55
 70
     0
102
RTVSPropertyOp56
 70
     0
102
RTVSPropertyOp57
 70
     0
102
RTVSPost2010Prop28
280
     0
102
RTVSPost2010PropOp28
 70
     0
102
RTVSPost2010Prop29
280
     1
102
RTVSPost2010PropOp29
 70
     0
102
RTVSPost2010Prop30
280
     1
102
RTVSPost2010PropOp30
 70
     0
102
RTVSPost2010Prop31
280
     0
102
RTVSPost2010PropOp31
 70
     0
102
RTVSPost2010Prop32
280
     0
102
RTVSPost2010PropOp32
 70
     0
102
RTVSPost2010Prop33
280
     0
102
RTVSPost2010PropOp33
 70
     0
102
RTVSPost2010Prop34
280
     0
102
RTVSPost2010PropOp34
 70
     0
102
RTVSPost2010Prop35
280
     0
102
RTVSPost2010PropOp35
 70
     0
102
RTVSPost2010Prop36
280
     0
102
RTVSPost2010PropOp36
 70
     0
102
RTVSPost2010Prop37
 90
       50
102
RTVSPost2010PropOp37
 70
     0
102
RTVSPost2010Prop38
140
0.0
102
RTVSPost2010PropOp38
 70
     0
102
RTVSPost2010Prop39
140
1.0
102
RTVSPost2010PropOp39
 70
     0
102
RTVSPost2010Prop40
 90
        0
102
RTVSPost2010PropOp40
 70
     0
102
RTVSPost2010Prop41ColorIndex
 90
       18
102
RTVSPost2010Prop41ColorRGB
 90
        0
102
RTVSPost2010PropOp41
 70
     0
102
RTVSPost2010Prop42
 90
       50
102
RTVSPost2010PropOp42
 70
     0
102
RTVSPost2010Prop43
 90
        3
102
RTVSPost2010PropOp43
 70
     0
102
RTVSPost2010Prop44ColorIndex
 90
        5
102
RTVSPost2010Prop44ColorRGB
 90
      255
102
RTVSPost2010PropOp44
 70
     0
102
RTVSPost2010Prop45
280
     0
102
RTVSPost2010PropOp45
 70
     0
102
RTVSPost2010Prop46
 90
       50
102
RTVSPost2010PropOp46
 70
     0
102
RTVSPost2010Prop47
 90
       50
102
RTVSPost2010PropOp47
 70
     0
102
RTVSPost2010Prop48
 90
       50
102
RTVSPost2010PropOp48
 70
     0
102
RTVSPost2010Prop49
280
     0
102
RTVSPost2010PropOp49
 70
     0
102
RTVSPost2010Prop50
 90
       50
102
RTVSPost2010PropOp50
 70
     0
102
RTVSPost2010Prop51ColorIndex
 90
      256
102
RTVSPost2010Prop51ColorRGB
 90
-16777216
102
RTVSPost2010PropOp51
 70
     0
102
RTVSPost2010Prop52
140
1.0
102
RTVSPost2010PropOp52
 70
     0
102
RTVSPost2010Prop53
 90
        2
102
RTVSPost2010PropOp53
 70
     0
102
RTVSPost2010Prop54
  1
strokes_ogs.tif
102
RTVSPost2010PropOp54
 70
     0
102
RTVSPost2010Prop55
280
     0
102
RTVSPost2010PropOp55
 70
     0
102
RTVSPost2010Prop56
140
1.0
102
RTVSPost2010PropOp56
 70
     0
102
RTVSPost2010Prop57
140
1.0
102
RTVSPost2010PropOp57
 70
     0
  0
XRECORD
  5
1E6
102
{ACAD_REACTORS
330
1E5
102
}
330
1E5
100
AcDbXrecord
280
     1
102
RTVSPropertyOp0
 70
     1
102
RTVSPropertyOp1
 70
     1
102
RTVSPropertyOp2
 70
     1
102
RTVSPropertyOp3
 70
     1
102
RTVSPropertyOp4
 70
     1
102
RTVSPropertyOp5
 70
     1
102
RTVSPropertyOp6
 70
     1
102
RTVSPropertyOp7
 70
     1
102
RTVSPropertyOp8
 70
     1
102
RTVSPropertyOp9
 70
     1
102
RTVSPropertyOp10
 70
     1
102
RTVSPropertyOp11
 70
     1
102
RTVSPropertyOp12
 70
     1
102
RTVSPropertyOp13
 70
     1
102
RTVSPropertyOp14
 70
     1
102
RTVSPropertyOp15
 70
     1
102
RTVSPropertyOp16
 70
     1
102
RTVSPropertyOp17
 70
     1
102
RTVSPropertyOp18
 70
     1
102
RTVSPropertyOp19
 70
     1
102
RTVSPropertyOp20
 70
     1
102
RTVSPropertyOp21
 70
     1
102
RTVSPropertyOp22
 70
     1
102
RTVSPropertyOp23
 70
     1
102
RTVSPropertyOp24
 70
     1
102
RTVSPropertyOp25
 70
     1
102
RTVSPropertyOp26
 70
     1
102
RTVSPropertyOp27
 70
     1
102
RTVSPropertyOp28
 70
     1
102
RTVSPropertyOp29
 70
     1
102
RTVSPropertyOp30
 70
     1
102
RTVSPropertyOp31
 70
     1
102
RTVSPropertyOp32
 70
     1
102
RTVSPropertyOp33
 70
     1
102
RTVSPropertyOp34
 70
     1
102
RTVSPropertyOp35
 70
     1
102
RTVSPropertyOp36
 70
     1
102
RTVSPropertyOp37
 70
     1
102
RTVSPropertyOp38
 70
     1
102
RTVSPropertyOp39
 70
     1
102
RTVSPropertyOp40
 70
     1
102
RTVSPropertyOp41
 70
     1
102
RTVSPropertyOp42
 70
     1
102
RTVSPropertyOp43
 70
     1
102
RTVSPropertyOp44
 70
     1
102
RTVSPropertyOp45
 70
     1
102
RTVSPropertyOp46
 70
     1
102
RTVSPropertyOp47
 70
     1
102
RTVSPropertyOp48
 70
     1
102
RTVSPropertyOp49
 70
     1
102
RTVSPropertyOp50
 70
     1
102
RTVSPropertyOp51
 70
     0
102
RTVSPropertyOp52
 70
     0
102
RTVSPropertyOp53
 70
     1
102
RTVSPropertyOp54
 70
     1
102
RTVSPropertyOp55
 70
     1
102
RTVSPropertyOp56
 70
     1
102
RTVSPropertyOp57
 70
     1
102
RTVSPost2010Prop28
280
     0
102
RTVSPost2010PropOp28
 70
     1
102
RTVSPost2010Prop29
280
     1
102
RTVSPost2010PropOp29
 70
     1
102
RTVSPost2010Prop30
280
     1
102
RTVSPost2010PropOp30
 70
     1
102
RTVSPost2010Prop31
280
     0
102
RTVSPost2010PropOp31
 70
     1
102
RTVSPost2010Prop32
280
     0
102
RTVSPost2010PropOp32
 70
     1
102
RTVSPost2010Prop33
280
     0
102
RTVSPost2010PropOp33
 70
     1
102
RTVSPost2010Prop34
280
     0
102
RTVSPost2010PropOp34
 70
     1
102
RTVSPost2010Prop35
280
     0
102
RTVSPost2010PropOp35
 70
     1
102
RTVSPost2010Prop36
280
     0
102
RTVSPost2010PropOp36
 70
     1
102
RTVSPost2010Prop37
 90
       50
102
RTVSPost2010PropOp37
 70
     1
102
RTVSPost2010Prop38
140
0.0
102
RTVSPost2010PropOp38
 70
     1
102
RTVSPost2010Prop39
140
1.0
102
RTVSPost2010PropOp39
 70
     1
102
RTVSPost2010Prop40
 90
        0
102
RTVSPost2010PropOp40
 70
     1
102
RTVSPost2010Prop41ColorIndex
 90
       18
102
RTVSPost2010Prop41ColorRGB
 90
        0
102
RTVSPost2010PropOp41
 70
     1
102
RTVSPost2010Prop42
 90
       50
102
RTVSPost2010PropOp42
 70
     1
102
RTVSPost2010Prop43
 90
        3
102
RTVSPost2010PropOp43
 70
     1
102
RTVSPost2010Prop44ColorIndex
 90
        5
102
RTVSPost2010Prop44ColorRGB
 90
      255
102
RTVSPost2010PropOp44
 70
     1
102
RTVSPost2010Prop45
280
     0
102
RTVSPost2010PropOp45
 70
     1
102
RTVSPost2010Prop46
 90
       50
102
RTVSPost2010PropOp46
 70
     1
102
RTVSPost2010Prop47
 90
       50
102
RTVSPost2010PropOp47
 70
     1
102
RTVSPost2010Prop48
 90
       50
102
RTVSPost2010PropOp48
 70
     1
102
RTVSPost2010Prop49
280
     0
102
RTVSPost2010PropOp49
 70
     1
102
RTVSPost2010Prop50
 90
       50
102
RTVSPost2010PropOp50
 70
     1
102
RTVSPost2010Prop51ColorIndex
 90
      256
102
RTVSPost2010Prop51ColorRGB
 90
-16777216
102
RTVSPost2010PropOp51
 70
     0
102
RTVSPost2010Prop52
140
1.0
102
RTVSPost2010PropOp52
 70
     0
102
RTVSPost2010Prop53
 90
        2
102
RTVSPost2010PropOp53
 70
     1
102
RTVSPost2010Prop54
  1
strokes_ogs.tif
102
RTVSPost2010PropOp54
 70
     1
102
RTVSPost2010Prop55
280
     0
102
RTVSPost2010PropOp55
 70
     1
102
RTVSPost2010Prop56
140
1.0
102
RTVSPost2010PropOp56
 70
     1
102
RTVSPost2010Prop57
140
1.0
102
RTVSPost2010PropOp57
 70
     1
  0
XRECORD
  5
1EE
102
{ACAD_REACTORS
330
1ED
102
}
330
1ED
100
AcDbXrecord
280
     1
102
RTVSPropertyOp0
 70
     0
102
RTVSPropertyOp1
 70
     0
102
RTVSPropertyOp2
 70
     0
102
RTVSPropertyOp3
 70
     0
102
RTVSPropertyOp4
 70
     0
102
RTVSPropertyOp5
 70
     0
102
RTVSPropertyOp6
 70
     0
102
RTVSPropertyOp7
 70
     0
102
RTVSPropertyOp8
 70
     0
102
RTVSPropertyOp9
 70
     0
102
RTVSPropertyOp10
 70
     0
102
RTVSPropertyOp11
 70
     0
102
RTVSPropertyOp12
 70
     0
102
RTVSPropertyOp13
 70
     0
102
RTVSPropertyOp14
 70
     2
102
RTVSPropertyOp15
 70
     0
102
RTVSPropertyOp16
 70
     0
102
RTVSPropertyOp17
 70
     0
102
RTVSPropertyOp18
 70
     0
102
RTVSPropertyOp19
 70
     0
102
RTVSPropertyOp20
 70
     0
102
RTVSPropertyOp21
 70
     0
102
RTVSPropertyOp22
 70
     0
102
RTVSPropertyOp23
 70
     0
102
RTVSPropertyOp24
 70
     0
102
RTVSPropertyOp25
 70
     0
102
RTVSPropertyOp26
 70
     0
102
RTVSPropertyOp27
 70
     0
102
RTVSPropertyOp28
 70
     0
102
RTVSPropertyOp29
 70
     0
102
RTVSPropertyOp30
 70
     0
102
RTVSPropertyOp31
 70
     0
102
RTVSPropertyOp32
 70
     0
102
RTVSPropertyOp33
 70
     0
102
RTVSPropertyOp34
 70
     0
102
RTVSPropertyOp35
 70
     0
102
RTVSPropertyOp36
 70
     0
102
RTVSPropertyOp37
 70
     0
102
RTVSPropertyOp38
 70
     0
102
RTVSPropertyOp39
 70
     0
102
RTVSPropertyOp40
 70
     0
102
RTVSPropertyOp41
 70
     0
102
RTVSPropertyOp42
 70
     0
102
RTVSPropertyOp43
 70
     0
102
RTVSPropertyOp44
 70
     0
102
RTVSPropertyOp45
 70
     0
102
RTVSPropertyOp46
 70
     0
102
RTVSPropertyOp47
 70
     0
102
RTVSPropertyOp48
 70
     0
102
RTVSPropertyOp49
 70
     0
102
RTVSPropertyOp50
 70
     0
102
RTVSPropertyOp51
 70
     0
102
RTVSPropertyOp52
 70
     0
102
RTVSPropertyOp53
 70
     0
102
RTVSPropertyOp54
 70
     0
102
RTVSPropertyOp55
 70
     0
102
RTVSPropertyOp56
 70
     0
102
RTVSPropertyOp57
 70
     0
102
RTVSPost2010Prop28
280
     0
102
RTVSPost2010PropOp28
 70
     0
102
RTVSPost2010Prop29
280
     1
102
RTVSPost2010PropOp29
 70
     0
102
RTVSPost2010Prop30
280
     1
102
RTVSPost2010PropOp30
 70
     0
102
RTVSPost2010Prop31
280
     0
102
RTVSPost2010PropOp31
 70
     0
102
RTVSPost2010Prop32
280
     0
102
RTVSPost2010PropOp32
 70
     0
102
RTVSPost2010Prop33
280
     0
102
RTVSPost2010PropOp33
 70
     0
102
RTVSPost2010Prop34
280
     0
102
RTVSPost2010PropOp34
 70
     0
102
RTVSPost2010Prop35
280
     0
102
RTVSPost2010PropOp35
 70
     0
102
RTVSPost2010Prop36
280
     0
102
RTVSPost2010PropOp36
 70
     0
102
RTVSPost2010Prop37
 90
       50
102
RTVSPost2010PropOp37
 70
     0
102
RTVSPost2010Prop38
140
0.0
102
RTVSPost2010PropOp38
 70
     0
102
RTVSPost2010Prop39
140
1.0
102
RTVSPost2010PropOp39
 70
     0
102
RTVSPost2010Prop40
 90
        0
102
RTVSPost2010PropOp40
 70
     0
102
RTVSPost2010Prop41ColorIndex
 90
       18
102
RTVSPost2010Prop41ColorRGB
 90
        0
102
RTVSPost2010PropOp41
 70
     0
102
RTVSPost2010Prop42
 90
       50
102
RTVSPost2010PropOp42
 70
     0
102
RTVSPost2010Prop43
 90
        3
102
RTVSPost2010PropOp43
 70
     0
102
RTVSPost2010Prop44ColorIndex
 90
        5
102
RTVSPost2010Prop44ColorRGB
 90
      255
102
RTVSPost2010PropOp44
 70
     0
102
RTVSPost2010Prop45
280
     0
102
RTVSPost2010PropOp45
 70
     0
102
RTVSPost2010Prop46
 90
       50
102
RTVSPost2010PropOp46
 70
     0
102
RTVSPost2010Prop47
 90
       50
102
RTVSPost2010PropOp47
 70
     0
102
RTVSPost2010Prop48
 90
       50
102
RTVSPost2010PropOp48
 70
     0
102
RTVSPost2010Prop49
280
     0
102
RTVSPost2010PropOp49
 70
     0
102
RTVSPost2010Prop50
 90
       50
102
RTVSPost2010PropOp50
 70
     0
102
RTVSPost2010Prop51ColorIndex
 90
      256
102
RTVSPost2010Prop51ColorRGB
 90
-16777216
102
RTVSPost2010PropOp51
 70
     0
102
RTVSPost2010Prop52
140
1.0
102
RTVSPost2010PropOp52
 70
     0
102
RTVSPost2010Prop53
 90
        2
102
RTVSPost2010PropOp53
 70
     0
102
RTVSPost2010Prop54
  1
strokes_ogs.tif
102
RTVSPost2010PropOp54
 70
     0
102
RTVSPost2010Prop55
280
     0
102
RTVSPost2010PropOp55
 70
     0
102
RTVSPost2010Prop56
140
1.0
102
RTVSPost2010PropOp56
 70
     0
102
RTVSPost2010Prop57
140
1.0
102
RTVSPost2010PropOp57
 70
     0
  0
XRECORD
  5
1DC
102
{ACAD_REACTORS
330
1DB
102
}
330
1DB
100
AcDbXrecord
280
     1
102
RTVSPropertyOp0
 70
     1
102
RTVSPropertyOp1
 70
     1
102
RTVSPropertyOp2
 70
     1
102
RTVSPropertyOp3
 70
     1
102
RTVSPropertyOp4
 70
     1
102
RTVSPropertyOp5
 70
     1
102
RTVSPropertyOp6
 70
     1
102
RTVSPropertyOp7
 70
     1
102
RTVSPropertyOp8
 70
     1
102
RTVSPropertyOp9
 70
     1
102
RTVSPropertyOp10
 70
     1
102
RTVSPropertyOp11
 70
     1
102
RTVSPropertyOp12
 70
     1
102
RTVSPropertyOp13
 70
     1
102
RTVSPropertyOp14
 70
     1
102
RTVSPropertyOp15
 70
     1
102
RTVSPropertyOp16
 70
     1
102
RTVSPropertyOp17
 70
     1
102
RTVSPropertyOp18
 70
     1
102
RTVSPropertyOp19
 70
     1
102
RTVSPropertyOp20
 70
     1
102
RTVSPropertyOp21
 70
     1
102
RTVSPropertyOp22
 70
     1
102
RTVSPropertyOp23
 70
     1
102
RTVSPropertyOp24
 70
     1
102
RTVSPropertyOp25
 70
     1
102
RTVSPropertyOp26
 70
     1
102
RTVSPropertyOp27
 70
     1
102
RTVSPropertyOp28
 70
     1
102
RTVSPropertyOp29
 70
     1
102
RTVSPropertyOp30
 70
     1
102
RTVSPropertyOp31
 70
     1
102
RTVSPropertyOp32
 70
     1
102
RTVSPropertyOp33
 70
     1
102
RTVSPropertyOp34
 70
     1
102
RTVSPropertyOp35
 70
     1
102
RTVSPropertyOp36
 70
     1
102
RTVSPropertyOp37
 70
     1
102
RTVSPropertyOp38
 70
     1
102
RTVSPropertyOp39
 70
     1
102
RTVSPropertyOp40
 70
     1
102
RTVSPropertyOp41
 70
     1
102
RTVSPropertyOp42
 70
     1
102
RTVSPropertyOp43
 70
     1
102
RTVSPropertyOp44
 70
     1
102
RTVSPropertyOp45
 70
     1
102
RTVSPropertyOp46
 70
     1
102
RTVSPropertyOp47
 70
     1
102
RTVSPropertyOp48
 70
     1
102
RTVSPropertyOp49
 70
     1
102
RTVSPropertyOp50
 70
     1
102
RTVSPropertyOp51
 70
     0
102
RTVSPropertyOp52
 70
     0
102
RTVSPropertyOp53
 70
     1
102
RTVSPropertyOp54
 70
     1
102
RTVSPropertyOp55
 70
     1
102
RTVSPropertyOp56
 70
     1
102
RTVSPropertyOp57
 70
     1
102
RTVSPost2010Prop28
280
     0
102
RTVSPost2010PropOp28
 70
     1
102
RTVSPost2010Prop29
280
     1
102
RTVSPost2010PropOp29
 70
     1
102
RTVSPost2010Prop30
280
     1
102
RTVSPost2010PropOp30
 70
     1
102
RTVSPost2010Prop31
280
     0
102
RTVSPost2010PropOp31
 70
     1
102
RTVSPost2010Prop32
280
     0
102
RTVSPost2010PropOp32
 70
     1
102
RTVSPost2010Prop33
280
     0
102
RTVSPost2010PropOp33
 70
     1
102
RTVSPost2010Prop34
280
     0
102
RTVSPost2010PropOp34
 70
     1
102
RTVSPost2010Prop35
280
     0
102
RTVSPost2010PropOp35
 70
     1
102
RTVSPost2010Prop36
280
     0
102
RTVSPost2010PropOp36
 70
     1
102
RTVSPost2010Prop37
 90
       50
102
RTVSPost2010PropOp37
 70
     1
102
RTVSPost2010Prop38
140
0.0
102
RTVSPost2010PropOp38
 70
     1
102
RTVSPost2010Prop39
140
1.0
102
RTVSPost2010PropOp39
 70
     1
102
RTVSPost2010Prop40
 90
        0
102
RTVSPost2010PropOp40
 70
     1
102
RTVSPost2010Prop41ColorIndex
 90
       18
102
RTVSPost2010Prop41ColorRGB
 90
        0
102
RTVSPost2010PropOp41
 70
     1
102
RTVSPost2010Prop42
 90
       50
102
RTVSPost2010PropOp42
 70
     1
102
RTVSPost2010Prop43
 90
        3
102
RTVSPost2010PropOp43
 70
     1
102
RTVSPost2010Prop44ColorIndex
 90
        5
102
RTVSPost2010Prop44ColorRGB
 90
      255
102
RTVSPost2010PropOp44
 70
     1
102
RTVSPost2010Prop45
280
     0
102
RTVSPost2010PropOp45
 70
     1
102
RTVSPost2010Prop46
 90
       50
102
RTVSPost2010PropOp46
 70
     1
102
RTVSPost2010Prop47
 90
       50
102
RTVSPost2010PropOp47
 70
     1
102
RTVSPost2010Prop48
 90
       50
102
RTVSPost2010PropOp48
 70
     1
102
RTVSPost2010Prop49
280
     0
102
RTVSPost2010PropOp49
 70
     1
102
RTVSPost2010Prop50
 90
       50
102
RTVSPost2010PropOp50
 70
     1
102
RTVSPost2010Prop51ColorIndex
 90
      256
102
RTVSPost2010Prop51ColorRGB
 90
-16777216
102
RTVSPost2010PropOp51
 70
     0
102
RTVSPost2010Prop52
140
1.0
102
RTVSPost2010PropOp52
 70
     0
102
RTVSPost2010Prop53
 90
        2
102
RTVSPost2010PropOp53
 70
     1
102
RTVSPost2010Prop54
  1
strokes_ogs.tif
102
RTVSPost2010PropOp54
 70
     1
102
RTVSPost2010Prop55
280
     0
102
RTVSPost2010PropOp55
 70
     1
102
RTVSPost2010Prop56
140
1.0
102
RTVSPost2010PropOp56
 70
     1
102
RTVSPost2010Prop57
140
1.0
102
RTVSPost2010PropOp57
 70
     1
  0
XRECORD
  5
1FA
102
{ACAD_REACTORS
330
1F9
102
}
330
1F9
100
AcDbXrecord
280
     1
102
RTVSPropertyOp0
 70
     1
102
RTVSPropertyOp1
 70
     1
102
RTVSPropertyOp2
 70
     1
102
RTVSPropertyOp3
 70
     1
102
RTVSPropertyOp4
 70
     1
102
RTVSPropertyOp5
 70
     1
102
RTVSPropertyOp6
 70
     1
102
RTVSPropertyOp7
 70
     1
102
RTVSPropertyOp8
 70
     1
102
RTVSPropertyOp9
 70
     1
102
RTVSPropertyOp10
 70
     1
102
RTVSPropertyOp11
 70
     1
102
RTVSPropertyOp12
 70
     1
102
RTVSPropertyOp13
 70
     1
102
RTVSPropertyOp14
 70
     1
102
RTVSPropertyOp15
 70
     1
102
RTVSPropertyOp16
 70
     1
102
RTVSPropertyOp17
 70
     1
102
RTVSPropertyOp18
 70
     1
102
RTVSPropertyOp19
 70
     1
102
RTVSPropertyOp20
 70
     1
102
RTVSPropertyOp21
 70
     1
102
RTVSPropertyOp22
 70
     1
102
RTVSPropertyOp23
 70
     1
102
RTVSPropertyOp24
 70
     1
102
RTVSPropertyOp25
 70
     1
102
RTVSPropertyOp26
 70
     1
102
RTVSPropertyOp27
 70
     1
102
RTVSPropertyOp28
 70
     1
102
RTVSPropertyOp29
 70
     1
102
RTVSPropertyOp30
 70
     1
102
RTVSPropertyOp31
 70
     1
102
RTVSPropertyOp32
 70
     1
102
RTVSPropertyOp33
 70
     1
102
RTVSPropertyOp34
 70
     1
102
RTVSPropertyOp35
 70
     1
102
RTVSPropertyOp36
 70
     1
102
RTVSPropertyOp37
 70
     1
102
RTVSPropertyOp38
 70
     1
102
RTVSPropertyOp39
 70
     1
102
RTVSPropertyOp40
 70
     1
102
RTVSPropertyOp41
 70
     1
102
RTVSPropertyOp42
 70
     1
102
RTVSPropertyOp43
 70
     1
102
RTVSPropertyOp44
 70
     1
102
RTVSPropertyOp45
 70
     1
102
RTVSPropertyOp46
 70
     1
102
RTVSPropertyOp47
 70
     1
102
RTVSPropertyOp48
 70
     1
102
RTVSPropertyOp49
 70
     1
102
RTVSPropertyOp50
 70
     1
102
RTVSPropertyOp51
 70
     0
102
RTVSPropertyOp52
 70
     0
102
RTVSPropertyOp53
 70
     1
102
RTVSPropertyOp54
 70
     1
102
RTVSPropertyOp55
 70
     1
102
RTVSPropertyOp56
 70
     1
102
RTVSPropertyOp57
 70
     1
102
RTVSPost2010Prop28
280
     0
102
RTVSPost2010PropOp28
 70
     1
102
RTVSPost2010Prop29
280
     1
102
RTVSPost2010PropOp29
 70
     1
102
RTVSPost2010Prop30
280
     1
102
RTVSPost2010PropOp30
 70
     1
102
RTVSPost2010Prop31
280
     0
102
RTVSPost2010PropOp31
 70
     1
102
RTVSPost2010Prop32
280
     0
102
RTVSPost2010PropOp32
 70
     1
102
RTVSPost2010Prop33
280
     0
102
RTVSPost2010PropOp33
 70
     1
102
RTVSPost2010Prop34
280
     0
102
RTVSPost2010PropOp34
 70
     1
102
RTVSPost2010Prop35
280
     0
102
RTVSPost2010PropOp35
 70
     1
102
RTVSPost2010Prop36
280
     0
102
RTVSPost2010PropOp36
 70
     1
102
RTVSPost2010Prop37
 90
       50
102
RTVSPost2010PropOp37
 70
     1
102
RTVSPost2010Prop38
140
0.0
102
RTVSPost2010PropOp38
 70
     1
102
RTVSPost2010Prop39
140
1.0
102
RTVSPost2010PropOp39
 70
     1
102
RTVSPost2010Prop40
 90
        0
102
RTVSPost2010PropOp40
 70
     1
102
RTVSPost2010Prop41ColorIndex
 90
       18
102
RTVSPost2010Prop41ColorRGB
 90
        0
102
RTVSPost2010PropOp41
 70
     1
102
RTVSPost2010Prop42
 90
       50
102
RTVSPost2010PropOp42
 70
     1
102
RTVSPost2010Prop43
 90
        3
102
RTVSPost2010PropOp43
 70
     1
102
RTVSPost2010Prop44ColorIndex
 90
        5
102
RTVSPost2010Prop44ColorRGB
 90
      255
102
RTVSPost2010PropOp44
 70
     1
102
RTVSPost2010Prop45
280
     0
102
RTVSPost2010PropOp45
 70
     1
102
RTVSPost2010Prop46
 90
       50
102
RTVSPost2010PropOp46
 70
     1
102
RTVSPost2010Prop47
 90
       50
102
RTVSPost2010PropOp47
 70
     1
102
RTVSPost2010Prop48
 90
       50
102
RTVSPost2010PropOp48
 70
     1
102
RTVSPost2010Prop49
280
     0
102
RTVSPost2010PropOp49
 70
     1
102
RTVSPost2010Prop50
 90
       50
102
RTVSPost2010PropOp50
 70
     1
102
RTVSPost2010Prop51ColorIndex
 90
      256
102
RTVSPost2010Prop51ColorRGB
 90
-16777216
102
RTVSPost2010PropOp51
 70
     0
102
RTVSPost2010Prop52
140
1.0
102
RTVSPost2010PropOp52
 70
     0
102
RTVSPost2010Prop53
 90
        2
102
RTVSPost2010PropOp53
 70
     1
102
RTVSPost2010Prop54
  1
strokes_ogs.tif
102
RTVSPost2010PropOp54
 70
     1
102
RTVSPost2010Prop55
280
     0
102
RTVSPost2010PropOp55
 70
     1
102
RTVSPost2010Prop56
140
1.0
102
RTVSPost2010PropOp56
 70
     1
102
RTVSPost2010Prop57
140
1.0
102
RTVSPost2010PropOp57
 70
     1
  0
XRECORD
  5
1F8
102
{ACAD_REACTORS
330
1F7
102
}
330
1F7
100
AcDbXrecord
280
     1
102
RTVSPropertyOp0
 70
     1
102
RTVSPropertyOp1
 70
     1
102
RTVSPropertyOp2
 70
     1
102
RTVSPropertyOp3
 70
     1
102
RTVSPropertyOp4
 70
     1
102
RTVSPropertyOp5
 70
     1
102
RTVSPropertyOp6
 70
     1
102
RTVSPropertyOp7
 70
     1
102
RTVSPropertyOp8
 70
     1
102
RTVSPropertyOp9
 70
     1
102
RTVSPropertyOp10
 70
     1
102
RTVSPropertyOp11
 70
     1
102
RTVSPropertyOp12
 70
     1
102
RTVSPropertyOp13
 70
     1
102
RTVSPropertyOp14
 70
     1
102
RTVSPropertyOp15
 70
     1
102
RTVSPropertyOp16
 70
     1
102
RTVSPropertyOp17
 70
     1
102
RTVSPropertyOp18
 70
     1
102
RTVSPropertyOp19
 70
     1
102
RTVSPropertyOp20
 70
     1
102
RTVSPropertyOp21
 70
     1
102
RTVSPropertyOp22
 70
     1
102
RTVSPropertyOp23
 70
     1
102
RTVSPropertyOp24
 70
     1
102
RTVSPropertyOp25
 70
     1
102
RTVSPropertyOp26
 70
     1
102
RTVSPropertyOp27
 70
     1
102
RTVSPropertyOp28
 70
     1
102
RTVSPropertyOp29
 70
     1
102
RTVSPropertyOp30
 70
     1
102
RTVSPropertyOp31
 70
     1
102
RTVSPropertyOp32
 70
     1
102
RTVSPropertyOp33
 70
     1
102
RTVSPropertyOp34
 70
     1
102
RTVSPropertyOp35
 70
     1
102
RTVSPropertyOp36
 70
     1
102
RTVSPropertyOp37
 70
     1
102
RTVSPropertyOp38
 70
     1
102
RTVSPropertyOp39
 70
     1
102
RTVSPropertyOp40
 70
     1
102
RTVSPropertyOp41
 70
     1
102
RTVSPropertyOp42
 70
     1
102
RTVSPropertyOp43
 70
     1
102
RTVSPropertyOp44
 70
     1
102
RTVSPropertyOp45
 70
     1
102
RTVSPropertyOp46
 70
     1
102
RTVSPropertyOp47
 70
     1
102
RTVSPropertyOp48
 70
     1
102
RTVSPropertyOp49
 70
     1
102
RTVSPropertyOp50
 70
     1
102
RTVSPropertyOp51
 70
     0
102
RTVSPropertyOp52
 70
     0
102
RTVSPropertyOp53
 70
     1
102
RTVSPropertyOp54
 70
     1
102
RTVSPropertyOp55
 70
     1
102
RTVSPropertyOp56
 70
     1
102
RTVSPropertyOp57
 70
     1
102
RTVSPost2010Prop28
280
     0
102
RTVSPost2010PropOp28
 70
     1
102
RTVSPost2010Prop29
280
     1
102
RTVSPost2010PropOp29
 70
     1
102
RTVSPost2010Prop30
280
     1
102
RTVSPost2010PropOp30
 70
     1
102
RTVSPost2010Prop31
280
     0
102
RTVSPost2010PropOp31
 70
     1
102
RTVSPost2010Prop32
280
     0
102
RTVSPost2010PropOp32
 70
     1
102
RTVSPost2010Prop33
280
     0
102
RTVSPost2010PropOp33
 70
     1
102
RTVSPost2010Prop34
280
     0
102
RTVSPost2010PropOp34
 70
     1
102
RTVSPost2010Prop35
280
     0
102
RTVSPost2010PropOp35
 70
     1
102
RTVSPost2010Prop36
280
     0
102
RTVSPost2010PropOp36
 70
     1
102
RTVSPost2010Prop37
 90
       50
102
RTVSPost2010PropOp37
 70
     1
102
RTVSPost2010Prop38
140
0.0
102
RTVSPost2010PropOp38
 70
     1
102
RTVSPost2010Prop39
140
1.0
102
RTVSPost2010PropOp39
 70
     1
102
RTVSPost2010Prop40
 90
        0
102
RTVSPost2010PropOp40
 70
     1
102
RTVSPost2010Prop41ColorIndex
 90
       18
102
RTVSPost2010Prop41ColorRGB
 90
        0
102
RTVSPost2010PropOp41
 70
     1
102
RTVSPost2010Prop42
 90
       50
102
RTVSPost2010PropOp42
 70
     1
102
RTVSPost2010Prop43
 90
        3
102
RTVSPost2010PropOp43
 70
     1
102
RTVSPost2010Prop44ColorIndex
 90
        5
102
RTVSPost2010Prop44ColorRGB
 90
      255
102
RTVSPost2010PropOp44
 70
     1
102
RTVSPost2010Prop45
280
     0
102
RTVSPost2010PropOp45
 70
     1
102
RTVSPost2010Prop46
 90
       50
102
RTVSPost2010PropOp46
 70
     1
102
RTVSPost2010Prop47
 90
       50
102
RTVSPost2010PropOp47
 70
     1
102
RTVSPost2010Prop48
 90
       50
102
RTVSPost2010PropOp48
 70
     1
102
RTVSPost2010Prop49
280
     0
102
RTVSPost2010PropOp49
 70
     1
102
RTVSPost2010Prop50
 90
       50
102
RTVSPost2010PropOp50
 70
     1
102
RTVSPost2010Prop51ColorIndex
 90
      256
102
RTVSPost2010Prop51ColorRGB
 90
-16777216
102
RTVSPost2010PropOp51
 70
     0
102
RTVSPost2010Prop52
140
1.0
102
RTVSPost2010PropOp52
 70
     0
102
RTVSPost2010Prop53
 90
        2
102
RTVSPost2010PropOp53
 70
     1
102
RTVSPost2010Prop54
  1
strokes_ogs.tif
102
RTVSPost2010PropOp54
 70
     1
102
RTVSPost2010Prop55
280
     0
102
RTVSPost2010PropOp55
 70
     1
102
RTVSPost2010Prop56
140
1.0
102
RTVSPost2010PropOp56
 70
     1
102
RTVSPost2010Prop57
140
1.0
102
RTVSPost2010PropOp57
 70
     1
  0
XRECORD
  5
1F2
102
{ACAD_REACTORS
330
1F1
102
}
330
1F1
100
AcDbXrecord
280
     1
102
RTVSPropertyOp0
 70
     1
102
RTVSPropertyOp1
 70
     1
102
RTVSPropertyOp2
 70
     1
102
RTVSPropertyOp3
 70
     1
102
RTVSPropertyOp4
 70
     1
102
RTVSPropertyOp5
 70
     1
102
RTVSPropertyOp6
 70
     1
102
RTVSPropertyOp7
 70
     1
102
RTVSPropertyOp8
 70
     1
102
RTVSPropertyOp9
 70
     1
102
RTVSPropertyOp10
 70
     1
102
RTVSPropertyOp11
 70
     1
102
RTVSPropertyOp12
 70
     1
102
RTVSPropertyOp13
 70
     1
102
RTVSPropertyOp14
 70
     1
102
RTVSPropertyOp15
 70
     1
102
RTVSPropertyOp16
 70
     1
102
RTVSPropertyOp17
 70
     1
102
RTVSPropertyOp18
 70
     1
102
RTVSPropertyOp19
 70
     1
102
RTVSPropertyOp20
 70
     1
102
RTVSPropertyOp21
 70
     1
102
RTVSPropertyOp22
 70
     1
102
RTVSPropertyOp23
 70
     1
102
RTVSPropertyOp24
 70
     1
102
RTVSPropertyOp25
 70
     1
102
RTVSPropertyOp26
 70
     1
102
RTVSPropertyOp27
 70
     1
102
RTVSPropertyOp28
 70
     1
102
RTVSPropertyOp29
 70
     1
102
RTVSPropertyOp30
 70
     1
102
RTVSPropertyOp31
 70
     1
102
RTVSPropertyOp32
 70
     1
102
RTVSPropertyOp33
 70
     1
102
RTVSPropertyOp34
 70
     1
102
RTVSPropertyOp35
 70
     1
102
RTVSPropertyOp36
 70
     1
102
RTVSPropertyOp37
 70
     1
102
RTVSPropertyOp38
 70
     1
102
RTVSPropertyOp39
 70
     1
102
RTVSPropertyOp40
 70
     1
102
RTVSPropertyOp41
 70
     1
102
RTVSPropertyOp42
 70
     1
102
RTVSPropertyOp43
 70
     1
102
RTVSPropertyOp44
 70
     1
102
RTVSPropertyOp45
 70
     1
102
RTVSPropertyOp46
 70
     1
102
RTVSPropertyOp47
 70
     1
102
RTVSPropertyOp48
 70
     1
102
RTVSPropertyOp49
 70
     1
102
RTVSPropertyOp50
 70
     1
102
RTVSPropertyOp51
 70
     0
102
RTVSPropertyOp52
 70
     0
102
RTVSPropertyOp53
 70
     1
102
RTVSPropertyOp54
 70
     1
102
RTVSPropertyOp55
 70
     1
102
RTVSPropertyOp56
 70
     1
102
RTVSPropertyOp57
 70
     1
102
RTVSPost2010Prop28
280
     0
102
RTVSPost2010PropOp28
 70
     1
102
RTVSPost2010Prop29
280
     1
102
RTVSPost2010PropOp29
 70
     1
102
RTVSPost2010Prop30
280
     1
102
RTVSPost2010PropOp30
 70
     1
102
RTVSPost2010Prop31
280
     0
102
RTVSPost2010PropOp31
 70
     1
102
RTVSPost2010Prop32
280
     0
102
RTVSPost2010PropOp32
 70
     1
102
RTVSPost2010Prop33
280
     0
102
RTVSPost2010PropOp33
 70
     1
102
RTVSPost2010Prop34
280
     0
102
RTVSPost2010PropOp34
 70
     1
102
RTVSPost2010Prop35
280
     0
102
RTVSPost2010PropOp35
 70
     1
102
RTVSPost2010Prop36
280
     0
102
RTVSPost2010PropOp36
 70
     1
102
RTVSPost2010Prop37
 90
       50
102
RTVSPost2010PropOp37
 70
     1
102
RTVSPost2010Prop38
140
0.0
102
RTVSPost2010PropOp38
 70
     1
102
RTVSPost2010Prop39
140
1.0
102
RTVSPost2010PropOp39
 70
     1
102
RTVSPost2010Prop40
 90
        0
102
RTVSPost2010PropOp40
 70
     1
102
RTVSPost2010Prop41ColorIndex
 90
       18
102
RTVSPost2010Prop41ColorRGB
 90
        0
102
RTVSPost2010PropOp41
 70
     1
102
RTVSPost2010Prop42
 90
       50
102
RTVSPost2010PropOp42
 70
     1
102
RTVSPost2010Prop43
 90
        3
102
RTVSPost2010PropOp43
 70
     1
102
RTVSPost2010Prop44ColorIndex
 90
        5
102
RTVSPost2010Prop44ColorRGB
 90
      255
102
RTVSPost2010PropOp44
 70
     1
102
RTVSPost2010Prop45
280
     0
102
RTVSPost2010PropOp45
 70
     1
102
RTVSPost2010Prop46
 90
       50
102
RTVSPost2010PropOp46
 70
     1
102
RTVSPost2010Prop47
 90
       50
102
RTVSPost2010PropOp47
 70
     1
102
RTVSPost2010Prop48
 90
       50
102
RTVSPost2010PropOp48
 70
     1
102
RTVSPost2010Prop49
280
     0
102
RTVSPost2010PropOp49
 70
     1
102
RTVSPost2010Prop50
 90
       50
102
RTVSPost2010PropOp50
 70
     1
102
RTVSPost2010Prop51ColorIndex
 90
      256
102
RTVSPost2010Prop51ColorRGB
 90
-16777216
102
RTVSPost2010PropOp51
 70
     0
102
RTVSPost2010Prop52
140
1.0
102
RTVSPost2010PropOp52
 70
     0
102
RTVSPost2010Prop53
 90
        2
102
RTVSPost2010PropOp53
 70
     1
102
RTVSPost2010Prop54
  1
strokes_ogs.tif
102
RTVSPost2010PropOp54
 70
     1
102
RTVSPost2010Prop55
280
     0
102
RTVSPost2010PropOp55
 70
     1
102
RTVSPost2010Prop56
140
1.0
102
RTVSPost2010PropOp56
 70
     1
102
RTVSPost2010Prop57
140
1.0
102
RTVSPost2010PropOp57
 70
     1
  0
XRECORD
  5
1F4
102
{ACAD_REACTORS
330
1F3
102
}
330
1F3
100
AcDbXrecord
280
     1
102
RTVSPropertyOp0
 70
     1
102
RTVSPropertyOp1
 70
     1
102
RTVSPropertyOp2
 70
     1
102
RTVSPropertyOp3
 70
     1
102
RTVSPropertyOp4
 70
     1
102
RTVSPropertyOp5
 70
     1
102
RTVSPropertyOp6
 70
     1
102
RTVSPropertyOp7
 70
     1
102
RTVSPropertyOp8
 70
     1
102
RTVSPropertyOp9
 70
     1
102
RTVSPropertyOp10
 70
     1
102
RTVSPropertyOp11
 70
     1
102
RTVSPropertyOp12
 70
     1
102
RTVSPropertyOp13
 70
     1
102
RTVSPropertyOp14
 70
     1
102
RTVSPropertyOp15
 70
     1
102
RTVSPropertyOp16
 70
     1
102
RTVSPropertyOp17
 70
     1
102
RTVSPropertyOp18
 70
     1
102
RTVSPropertyOp19
 70
     1
102
RTVSPropertyOp20
 70
     1
102
RTVSPropertyOp21
 70
     1
102
RTVSPropertyOp22
 70
     1
102
RTVSPropertyOp23
 70
     1
102
RTVSPropertyOp24
 70
     1
102
RTVSPropertyOp25
 70
     1
102
RTVSPropertyOp26
 70
     1
102
RTVSPropertyOp27
 70
     1
102
RTVSPropertyOp28
 70
     1
102
RTVSPropertyOp29
 70
     1
102
RTVSPropertyOp30
 70
     1
102
RTVSPropertyOp31
 70
     1
102
RTVSPropertyOp32
 70
     1
102
RTVSPropertyOp33
 70
     1
102
RTVSPropertyOp34
 70
     1
102
RTVSPropertyOp35
 70
     1
102
RTVSPropertyOp36
 70
     1
102
RTVSPropertyOp37
 70
     1
102
RTVSPropertyOp38
 70
     1
102
RTVSPropertyOp39
 70
     1
102
RTVSPropertyOp40
 70
     1
102
RTVSPropertyOp41
 70
     1
102
RTVSPropertyOp42
 70
     1
102
RTVSPropertyOp43
 70
     1
102
RTVSPropertyOp44
 70
     1
102
RTVSPropertyOp45
 70
     1
102
RTVSPropertyOp46
 70
     1
102
RTVSPropertyOp47
 70
     1
102
RTVSPropertyOp48
 70
     1
102
RTVSPropertyOp49
 70
     1
102
RTVSPropertyOp50
 70
     1
102
RTVSPropertyOp51
 70
     0
102
RTVSPropertyOp52
 70
     0
102
RTVSPropertyOp53
 70
     1
102
RTVSPropertyOp54
 70
     1
102
RTVSPropertyOp55
 70
     1
102
RTVSPropertyOp56
 70
     1
102
RTVSPropertyOp57
 70
     1
102
RTVSPost2010Prop28
280
     0
102
RTVSPost2010PropOp28
 70
     1
102
RTVSPost2010Prop29
280
     1
102
RTVSPost2010PropOp29
 70
     1
102
RTVSPost2010Prop30
280
     1
102
RTVSPost2010PropOp30
 70
     1
102
RTVSPost2010Prop31
280
     0
102
RTVSPost2010PropOp31
 70
     1
102
RTVSPost2010Prop32
280
     0
102
RTVSPost2010PropOp32
 70
     1
102
RTVSPost2010Prop33
280
     0
102
RTVSPost2010PropOp33
 70
     1
102
RTVSPost2010Prop34
280
     0
102
RTVSPost2010PropOp34
 70
     1
102
RTVSPost2010Prop35
280
     0
102
RTVSPost2010PropOp35
 70
     1
102
RTVSPost2010Prop36
280
     0
102
RTVSPost2010PropOp36
 70
     1
102
RTVSPost2010Prop37
 90
       50
102
RTVSPost2010PropOp37
 70
     1
102
RTVSPost2010Prop38
140
0.0
102
RTVSPost2010PropOp38
 70
     1
102
RTVSPost2010Prop39
140
1.0
102
RTVSPost2010PropOp39
 70
     1
102
RTVSPost2010Prop40
 90
        0
102
RTVSPost2010PropOp40
 70
     1
102
RTVSPost2010Prop41ColorIndex
 90
       18
102
RTVSPost2010Prop41ColorRGB
 90
        0
102
RTVSPost2010PropOp41
 70
     1
102
RTVSPost2010Prop42
 90
       50
102
RTVSPost2010PropOp42
 70
     1
102
RTVSPost2010Prop43
 90
        3
102
RTVSPost2010PropOp43
 70
     1
102
RTVSPost2010Prop44ColorIndex
 90
        5
102
RTVSPost2010Prop44ColorRGB
 90
      255
102
RTVSPost2010PropOp44
 70
     1
102
RTVSPost2010Prop45
280
     0
102
RTVSPost2010PropOp45
 70
     1
102
RTVSPost2010Prop46
 90
       50
102
RTVSPost2010PropOp46
 70
     1
102
RTVSPost2010Prop47
 90
       50
102
RTVSPost2010PropOp47
 70
     1
102
RTVSPost2010Prop48
 90
       50
102
RTVSPost2010PropOp48
 70
     1
102
RTVSPost2010Prop49
280
     0
102
RTVSPost2010PropOp49
 70
     1
102
RTVSPost2010Prop50
 90
       50
102
RTVSPost2010PropOp50
 70
     1
102
RTVSPost2010Prop51ColorIndex
 90
      256
102
RTVSPost2010Prop51ColorRGB
 90
-16777216
102
RTVSPost2010PropOp51
 70
     0
102
RTVSPost2010Prop52
140
1.0
102
RTVSPost2010PropOp52
 70
     0
102
RTVSPost2010Prop53
 90
        2
102
RTVSPost2010PropOp53
 70
     1
102
RTVSPost2010Prop54
  1
strokes_ogs.tif
102
RTVSPost2010PropOp54
 70
     1
102
RTVSPost2010Prop55
280
     0
102
RTVSPost2010PropOp55
 70
     1
102
RTVSPost2010Prop56
140
1.0
102
RTVSPost2010PropOp56
 70
     1
102
RTVSPost2010Prop57
140
1.0
102
RTVSPost2010PropOp57
 70
     1
  0
XRECORD
  5
1E4
102
{ACAD_REACTORS
330
1E3
102
}
330
1E3
100
AcDbXrecord
280
     1
102
RTVSPropertyOp0
 70
     1
102
RTVSPropertyOp1
 70
     1
102
RTVSPropertyOp2
 70
     1
102
RTVSPropertyOp3
 70
     1
102
RTVSPropertyOp4
 70
     1
102
RTVSPropertyOp5
 70
     1
102
RTVSPropertyOp6
 70
     1
102
RTVSPropertyOp7
 70
     1
102
RTVSPropertyOp8
 70
     1
102
RTVSPropertyOp9
 70
     1
102
RTVSPropertyOp10
 70
     1
102
RTVSPropertyOp11
 70
     1
102
RTVSPropertyOp12
 70
     1
102
RTVSPropertyOp13
 70
     1
102
RTVSPropertyOp14
 70
     1
102
RTVSPropertyOp15
 70
     1
102
RTVSPropertyOp16
 70
     1
102
RTVSPropertyOp17
 70
     1
102
RTVSPropertyOp18
 70
     1
102
RTVSPropertyOp19
 70
     1
102
RTVSPropertyOp20
 70
     1
102
RTVSPropertyOp21
 70
     1
102
RTVSPropertyOp22
 70
     1
102
RTVSPropertyOp23
 70
     1
102
RTVSPropertyOp24
 70
     1
102
RTVSPropertyOp25
 70
     1
102
RTVSPropertyOp26
 70
     1
102
RTVSPropertyOp27
 70
     1
102
RTVSPropertyOp28
 70
     1
102
RTVSPropertyOp29
 70
     1
102
RTVSPropertyOp30
 70
     1
102
RTVSPropertyOp31
 70
     1
102
RTVSPropertyOp32
 70
     1
102
RTVSPropertyOp33
 70
     1
102
RTVSPropertyOp34
 70
     1
102
RTVSPropertyOp35
 70
     1
102
RTVSPropertyOp36
 70
     1
102
RTVSPropertyOp37
 70
     1
102
RTVSPropertyOp38
 70
     1
102
RTVSPropertyOp39
 70
     1
102
RTVSPropertyOp40
 70
     1
102
RTVSPropertyOp41
 70
     1
102
RTVSPropertyOp42
 70
     1
102
RTVSPropertyOp43
 70
     1
102
RTVSPropertyOp44
 70
     1
102
RTVSPropertyOp45
 70
     1
102
RTVSPropertyOp46
 70
     1
102
RTVSPropertyOp47
 70
     1
102
RTVSPropertyOp48
 70
     1
102
RTVSPropertyOp49
 70
     1
102
RTVSPropertyOp50
 70
     1
102
RTVSPropertyOp51
 70
     0
102
RTVSPropertyOp52
 70
     0
102
RTVSPropertyOp53
 70
     1
102
RTVSPropertyOp54
 70
     1
102
RTVSPropertyOp55
 70
     1
102
RTVSPropertyOp56
 70
     1
102
RTVSPropertyOp57
 70
     1
102
RTVSPost2010Prop28
280
     0
102
RTVSPost2010PropOp28
 70
     1
102
RTVSPost2010Prop29
280
     1
102
RTVSPost2010PropOp29
 70
     1
102
RTVSPost2010Prop30
280
     1
102
RTVSPost2010PropOp30
 70
     1
102
RTVSPost2010Prop31
280
     0
102
RTVSPost2010PropOp31
 70
     1
102
RTVSPost2010Prop32
280
     0
102
RTVSPost2010PropOp32
 70
     1
102
RTVSPost2010Prop33
280
     0
102
RTVSPost2010PropOp33
 70
     1
102
RTVSPost2010Prop34
280
     0
102
RTVSPost2010PropOp34
 70
     1
102
RTVSPost2010Prop35
280
     0
102
RTVSPost2010PropOp35
 70
     1
102
RTVSPost2010Prop36
280
     0
102
RTVSPost2010PropOp36
 70
     1
102
RTVSPost2010Prop37
 90
       50
102
RTVSPost2010PropOp37
 70
     1
102
RTVSPost2010Prop38
140
0.0
102
RTVSPost2010PropOp38
 70
     1
102
RTVSPost2010Prop39
140
1.0
102
RTVSPost2010PropOp39
 70
     1
102
RTVSPost2010Prop40
 90
        0
102
RTVSPost2010PropOp40
 70
     1
102
RTVSPost2010Prop41ColorIndex
 90
       18
102
RTVSPost2010Prop41ColorRGB
 90
        0
102
RTVSPost2010PropOp41
 70
     1
102
RTVSPost2010Prop42
 90
       50
102
RTVSPost2010PropOp42
 70
     1
102
RTVSPost2010Prop43
 90
        3
102
RTVSPost2010PropOp43
 70
     1
102
RTVSPost2010Prop44ColorIndex
 90
        5
102
RTVSPost2010Prop44ColorRGB
 90
      255
102
RTVSPost2010PropOp44
 70
     1
102
RTVSPost2010Prop45
280
     0
102
RTVSPost2010PropOp45
 70
     1
102
RTVSPost2010Prop46
 90
       50
102
RTVSPost2010PropOp46
 70
     1
102
RTVSPost2010Prop47
 90
       50
102
RTVSPost2010PropOp47
 70
     1
102
RTVSPost2010Prop48
 90
       50
102
RTVSPost2010PropOp48
 70
     1
102
RTVSPost2010Prop49
280
     0
102
RTVSPost2010PropOp49
 70
     1
102
RTVSPost2010Prop50
 90
       50
102
RTVSPost2010PropOp50
 70
     1
102
RTVSPost2010Prop51ColorIndex
 90
      256
102
RTVSPost2010Prop51ColorRGB
 90
-16777216
102
RTVSPost2010PropOp51
 70
     0
102
RTVSPost2010Prop52
140
1.0
102
RTVSPost2010PropOp52
 70
     0
102
RTVSPost2010Prop53
 90
        2
102
RTVSPost2010PropOp53
 70
     1
102
RTVSPost2010Prop54
  1
strokes_ogs.tif
102
RTVSPost2010PropOp54
 70
     1
102
RTVSPost2010Prop55
280
     0
102
RTVSPost2010PropOp55
 70
     1
102
RTVSPost2010Prop56
140
1.0
102
RTVSPost2010PropOp56
 70
     1
102
RTVSPost2010Prop57
140
1.0
102
RTVSPost2010PropOp57
 70
     1
  0
XRECORD
  5
1D6
102
{ACAD_REACTORS
330
1D5
102
}
330
1D5
100
AcDbXrecord
280
     1
102
RTVSPropertyOp0
 70
     1
102
RTVSPropertyOp1
 70
     1
102
RTVSPropertyOp2
 70
     1
102
RTVSPropertyOp3
 70
     1
102
RTVSPropertyOp4
 70
     1
102
RTVSPropertyOp5
 70
     1
102
RTVSPropertyOp6
 70
     1
102
RTVSPropertyOp7
 70
     1
102
RTVSPropertyOp8
 70
     1
102
RTVSPropertyOp9
 70
     1
102
RTVSPropertyOp10
 70
     1
102
RTVSPropertyOp11
 70
     1
102
RTVSPropertyOp12
 70
     1
102
RTVSPropertyOp13
 70
     1
102
RTVSPropertyOp14
 70
     1
102
RTVSPropertyOp15
 70
     1
102
RTVSPropertyOp16
 70
     1
102
RTVSPropertyOp17
 70
     1
102
RTVSPropertyOp18
 70
     1
102
RTVSPropertyOp19
 70
     1
102
RTVSPropertyOp20
 70
     1
102
RTVSPropertyOp21
 70
     1
102
RTVSPropertyOp22
 70
     1
102
RTVSPropertyOp23
 70
     1
102
RTVSPropertyOp24
 70
     1
102
RTVSPropertyOp25
 70
     1
102
RTVSPropertyOp26
 70
     1
102
RTVSPropertyOp27
 70
     1
102
RTVSPropertyOp28
 70
     1
102
RTVSPropertyOp29
 70
     1
102
RTVSPropertyOp30
 70
     1
102
RTVSPropertyOp31
 70
     1
102
RTVSPropertyOp32
 70
     1
102
RTVSPropertyOp33
 70
     1
102
RTVSPropertyOp34
 70
     1
102
RTVSPropertyOp35
 70
     1
102
RTVSPropertyOp36
 70
     1
102
RTVSPropertyOp37
 70
     1
102
RTVSPropertyOp38
 70
     1
102
RTVSPropertyOp39
 70
     1
102
RTVSPropertyOp40
 70
     1
102
RTVSPropertyOp41
 70
     1
102
RTVSPropertyOp42
 70
     1
102
RTVSPropertyOp43
 70
     1
102
RTVSPropertyOp44
 70
     1
102
RTVSPropertyOp45
 70
     1
102
RTVSPropertyOp46
 70
     1
102
RTVSPropertyOp47
 70
     1
102
RTVSPropertyOp48
 70
     1
102
RTVSPropertyOp49
 70
     1
102
RTVSPropertyOp50
 70
     1
102
RTVSPropertyOp51
 70
     0
102
RTVSPropertyOp52
 70
     0
102
RTVSPropertyOp53
 70
     1
102
RTVSPropertyOp54
 70
     1
102
RTVSPropertyOp55
 70
     1
102
RTVSPropertyOp56
 70
     1
102
RTVSPropertyOp57
 70
     1
102
RTVSPost2010Prop28
280
     0
102
RTVSPost2010PropOp28
 70
     1
102
RTVSPost2010Prop29
280
     1
102
RTVSPost2010PropOp29
 70
     1
102
RTVSPost2010Prop30
280
     1
102
RTVSPost2010PropOp30
 70
     1
102
RTVSPost2010Prop31
280
     0
102
RTVSPost2010PropOp31
 70
     1
102
RTVSPost2010Prop32
280
     0
102
RTVSPost2010PropOp32
 70
     1
102
RTVSPost2010Prop33
280
     0
102
RTVSPost2010PropOp33
 70
     1
102
RTVSPost2010Prop34
280
     0
102
RTVSPost2010PropOp34
 70
     1
102
RTVSPost2010Prop35
280
     0
102
RTVSPost2010PropOp35
 70
     1
102
RTVSPost2010Prop36
280
     0
102
RTVSPost2010PropOp36
 70
     1
102
RTVSPost2010Prop37
 90
       50
102
RTVSPost2010PropOp37
 70
     1
102
RTVSPost2010Prop38
140
0.0
102
RTVSPost2010PropOp38
 70
     1
102
RTVSPost2010Prop39
140
1.0
102
RTVSPost2010PropOp39
 70
     1
102
RTVSPost2010Prop40
 90
        0
102
RTVSPost2010PropOp40
 70
     1
102
RTVSPost2010Prop41ColorIndex
 90
       18
102
RTVSPost2010Prop41ColorRGB
 90
        0
102
RTVSPost2010PropOp41
 70
     1
102
RTVSPost2010Prop42
 90
       50
102
RTVSPost2010PropOp42
 70
     1
102
RTVSPost2010Prop43
 90
        3
102
RTVSPost2010PropOp43
 70
     1
102
RTVSPost2010Prop44ColorIndex
 90
        5
102
RTVSPost2010Prop44ColorRGB
 90
      255
102
RTVSPost2010PropOp44
 70
     1
102
RTVSPost2010Prop45
280
     0
102
RTVSPost2010PropOp45
 70
     1
102
RTVSPost2010Prop46
 90
       50
102
RTVSPost2010PropOp46
 70
     1
102
RTVSPost2010Prop47
 90
       50
102
RTVSPost2010PropOp47
 70
     1
102
RTVSPost2010Prop48
 90
       50
102
RTVSPost2010PropOp48
 70
     1
102
RTVSPost2010Prop49
280
     0
102
RTVSPost2010PropOp49
 70
     1
102
RTVSPost2010Prop50
 90
       50
102
RTVSPost2010PropOp50
 70
     1
102
RTVSPost2010Prop51ColorIndex
 90
      256
102
RTVSPost2010Prop51ColorRGB
 90
-16777216
102
RTVSPost2010PropOp51
 70
     0
102
RTVSPost2010Prop52
140
1.0
102
RTVSPost2010PropOp52
 70
     0
102
RTVSPost2010Prop53
 90
        2
102
RTVSPost2010PropOp53
 70
     1
102
RTVSPost2010Prop54
  1
strokes_ogs.tif
102
RTVSPost2010PropOp54
 70
     1
102
RTVSPost2010Prop55
280
     0
102
RTVSPost2010PropOp55
 70
     1
102
RTVSPost2010Prop56
140
1.0
102
RTVSPost2010PropOp56
 70
     1
102
RTVSPost2010Prop57
140
1.0
102
RTVSPost2010PropOp57
 70
     1
  0
XRECORD
  5
1F6
102
{ACAD_REACTORS
330
1F5
102
}
330
1F5
100
AcDbXrecord
280
     1
102
RTVSPropertyOp0
 70
     1
102
RTVSPropertyOp1
 70
     1
102
RTVSPropertyOp2
 70
     1
102
RTVSPropertyOp3
 70
     1
102
RTVSPropertyOp4
 70
     1
102
RTVSPropertyOp5
 70
     1
102
RTVSPropertyOp6
 70
     1
102
RTVSPropertyOp7
 70
     1
102
RTVSPropertyOp8
 70
     1
102
RTVSPropertyOp9
 70
     1
102
RTVSPropertyOp10
 70
     1
102
RTVSPropertyOp11
 70
     1
102
RTVSPropertyOp12
 70
     1
102
RTVSPropertyOp13
 70
     1
102
RTVSPropertyOp14
 70
     1
102
RTVSPropertyOp15
 70
     1
102
RTVSPropertyOp16
 70
     1
102
RTVSPropertyOp17
 70
     1
102
RTVSPropertyOp18
 70
     1
102
RTVSPropertyOp19
 70
     1
102
RTVSPropertyOp20
 70
     1
102
RTVSPropertyOp21
 70
     1
102
RTVSPropertyOp22
 70
     1
102
RTVSPropertyOp23
 70
     1
102
RTVSPropertyOp24
 70
     1
102
RTVSPropertyOp25
 70
     1
102
RTVSPropertyOp26
 70
     1
102
RTVSPropertyOp27
 70
     1
102
RTVSPropertyOp28
 70
     1
102
RTVSPropertyOp29
 70
     1
102
RTVSPropertyOp30
 70
     1
102
RTVSPropertyOp31
 70
     1
102
RTVSPropertyOp32
 70
     1
102
RTVSPropertyOp33
 70
     1
102
RTVSPropertyOp34
 70
     1
102
RTVSPropertyOp35
 70
     1
102
RTVSPropertyOp36
 70
     1
102
RTVSPropertyOp37
 70
     1
102
RTVSPropertyOp38
 70
     1
102
RTVSPropertyOp39
 70
     1
102
RTVSPropertyOp40
 70
     1
102
RTVSPropertyOp41
 70
     1
102
RTVSPropertyOp42
 70
     1
102
RTVSPropertyOp43
 70
     1
102
RTVSPropertyOp44
 70
     1
102
RTVSPropertyOp45
 70
     1
102
RTVSPropertyOp46
 70
     1
102
RTVSPropertyOp47
 70
     1
102
RTVSPropertyOp48
 70
     1
102
RTVSPropertyOp49
 70
     1
102
RTVSPropertyOp50
 70
     1
102
RTVSPropertyOp51
 70
     0
102
RTVSPropertyOp52
 70
     0
102
RTVSPropertyOp53
 70
     1
102
RTVSPropertyOp54
 70
     1
102
RTVSPropertyOp55
 70
     1
102
RTVSPropertyOp56
 70
     1
102
RTVSPropertyOp57
 70
     1
102
RTVSPost2010Prop28
280
     0
102
RTVSPost2010PropOp28
 70
     1
102
RTVSPost2010Prop29
280
     1
102
RTVSPost2010PropOp29
 70
     1
102
RTVSPost2010Prop30
280
     1
102
RTVSPost2010PropOp30
 70
     1
102
RTVSPost2010Prop31
280
     0
102
RTVSPost2010PropOp31
 70
     1
102
RTVSPost2010Prop32
280
     0
102
RTVSPost2010PropOp32
 70
     1
102
RTVSPost2010Prop33
280
     0
102
RTVSPost2010PropOp33
 70
     1
102
RTVSPost2010Prop34
280
     0
102
RTVSPost2010PropOp34
 70
     1
102
RTVSPost2010Prop35
280
     0
102
RTVSPost2010PropOp35
 70
     1
102
RTVSPost2010Prop36
280
     0
102
RTVSPost2010PropOp36
 70
     1
102
RTVSPost2010Prop37
 90
       50
102
RTVSPost2010PropOp37
 70
     1
102
RTVSPost2010Prop38
140
0.0
102
RTVSPost2010PropOp38
 70
     1
102
RTVSPost2010Prop39
140
1.0
102
RTVSPost2010PropOp39
 70
     1
102
RTVSPost2010Prop40
 90
        0
102
RTVSPost2010PropOp40
 70
     1
102
RTVSPost2010Prop41ColorIndex
 90
       18
102
RTVSPost2010Prop41ColorRGB
 90
        0
102
RTVSPost2010PropOp41
 70
     1
102
RTVSPost2010Prop42
 90
       50
102
RTVSPost2010PropOp42
 70
     1
102
RTVSPost2010Prop43
 90
        3
102
RTVSPost2010PropOp43
 70
     1
102
RTVSPost2010Prop44ColorIndex
 90
        5
102
RTVSPost2010Prop44ColorRGB
 90
      255
102
RTVSPost2010PropOp44
 70
     1
102
RTVSPost2010Prop45
280
     0
102
RTVSPost2010PropOp45
 70
     1
102
RTVSPost2010Prop46
 90
       50
102
RTVSPost2010PropOp46
 70
     1
102
RTVSPost2010Prop47
 90
       50
102
RTVSPost2010PropOp47
 70
     1
102
RTVSPost2010Prop48
 90
       50
102
RTVSPost2010PropOp48
 70
     1
102
RTVSPost2010Prop49
280
     0
102
RTVSPost2010PropOp49
 70
     1
102
RTVSPost2010Prop50
 90
       50
102
RTVSPost2010PropOp50
 70
     1
102
RTVSPost2010Prop51ColorIndex
 90
      256
102
RTVSPost2010Prop51ColorRGB
 90
-16777216
102
RTVSPost2010PropOp51
 70
     0
102
RTVSPost2010Prop52
140
1.0
102
RTVSPost2010PropOp52
 70
     0
102
RTVSPost2010Prop53
 90
        2
102
RTVSPost2010PropOp53
 70
     1
102
RTVSPost2010Prop54
  1
strokes_ogs.tif
102
RTVSPost2010PropOp54
 70
     1
102
RTVSPost2010Prop55
280
     0
102
RTVSPost2010PropOp55
 70
     1
102
RTVSPost2010Prop56
140
1.0
102
RTVSPost2010PropOp56
 70
     1
102
RTVSPost2010Prop57
140
1.0
102
RTVSPost2010PropOp57
 70
     1
  0
ENDSEC
  0
EOF
