  0
SECTION
  2
HEADER
  9
$ACADVER
  1
AC1018
  9
$ACADMAINTVER
 70
     0
  9
$DWGCODEPAGE
  3
ANSI_936
  9
$INSBASE
 10
0.0
 20
0.0
 30
0.0
  9
$EXTMIN
 10
308.9991261229924
 20
-17.39266161858131
 30
0.0
  9
$EXTMAX
 10
949.7649227889847
 20
746.6073350736706
 30
0.0
  9
$LIMMIN
 10
0.0
 20
0.0
  9
$LIMMAX
 10
12.0
 20
9.0
  9
$ORTHOMODE
 70
     0
  9
$REGENMODE
 70
     1
  9
$FILLMODE
 70
     1
  9
$QTEXTMODE
 70
     0
  9
$MIRRTEXT
 70
     1
  9
$LTSCALE
 40
1.0
  9
$ATTMODE
 70
     1
  9
$TEXTSIZE
 40
0.2
  9
$TRACEWID
 40
0.05
  9
$TEXTSTYLE
  7
Standard
  9
$CLAYER
  8
0
  9
$CELTYPE
  6
ByLayer
  9
$CECOLOR
 62
   256
  9
$CELTSCALE
 40
1.0
  9
$DISPSILH
 70
     0
  9
$DIMSCALE
 40
1.0
  9
$DIMASZ
 40
0.18
  9
$DIMEXO
 40
0.0625
  9
$DIMDLI
 40
0.38
  9
$DIMRND
 40
0.0
  9
$DIMDLE
 40
0.0
  9
$DIMEXE
 40
0.18
  9
$DIMTP
 40
0.0
  9
$DIMTM
 40
0.0
  9
$DIMTXT
 40
0.18
  9
$DIMCEN
 40
0.09
  9
$DIMTSZ
 40
0.0
  9
$DIMTOL
 70
     0
  9
$DIMLIM
 70
     0
  9
$DIMTIH
 70
     1
  9
$DIMTOH
 70
     1
  9
$DIMSE1
 70
     0
  9
$DIMSE2
 70
     0
  9
$DIMTAD
 70
     0
  9
$DIMZIN
 70
     0
  9
$DIMBLK
  1

  9
$DIMASO
 70
     1
  9
$DIMSHO
 70
     1
  9
$DIMPOST
  1

  9
$DIMAPOST
  1

  9
$DIMALT
 70
     0
  9
$DIMALTD
 70
     2
  9
$DIMALTF
 40
25.4
  9
$DIMLFAC
 40
1.0
  9
$DIMTOFL
 70
     0
  9
$DIMTVP
 40
0.0
  9
$DIMTIX
 70
     0
  9
$DIMSOXD
 70
     0
  9
$DIMSAH
 70
     0
  9
$DIMBLK1
  1

  9
$DIMBLK2
  1

  9
$DIMSTYLE
  2
Standard
  9
$DIMCLRD
 70
     0
  9
$DIMCLRE
 70
     0
  9
$DIMCLRT
 70
     0
  9
$DIMTFAC
 40
1.0
  9
$DIMGAP
 40
0.09
  9
$DIMJUST
 70
     0
  9
$DIMSD1
 70
     0
  9
$DIMSD2
 70
     0
  9
$DIMTOLJ
 70
     1
  9
$DIMTZIN
 70
     0
  9
$DIMALTZ
 70
     0
  9
$DIMALTTZ
 70
     0
  9
$DIMUPT
 70
     0
  9
$DIMDEC
 70
     4
  9
$DIMTDEC
 70
     4
  9
$DIMALTU
 70
     2
  9
$DIMALTTD
 70
     2
  9
$DIMTXSTY
  7
Standard
  9
$DIMAUNIT
 70
     0
  9
$DIMADEC
 70
     0
  9
$DIMALTRND
 40
0.0
  9
$DIMAZIN
 70
     0
  9
$DIMDSEP
 70
    46
  9
$DIMATFIT
 70
     3
  9
$DIMFRAC
 70
     0
  9
$DIMLDRBLK
  1

  9
$DIMLUNIT
 70
     2
  9
$DIMLWD
 70
    -2
  9
$DIMLWE
 70
    -2
  9
$DIMTMOVE
 70
     2
  9
$LUNITS
 70
     2
  9
$LUPREC
 70
     3
  9
$SKETCHINC
 40
0.1
  9
$FILLETRAD
 40
0.5
  9
$AUNITS
 70
     0
  9
$AUPREC
 70
     0
  9
$MENU
  1
.
  9
$ELEVATION
 40
0.0
  9
$PELEVATION
 40
0.0
  9
$THICKNESS
 40
0.0
  9
$LIMCHECK
 70
     0
  9
$CHAMFERA
 40
0.5
  9
$CHAMFERB
 40
0.5
  9
$CHAMFERC
 40
1.0
  9
$CHAMFERD
 40
0.0
  9
$SKPOLY
 70
     0
  9
$TDCREATE
 40
2458236.369573021
  9
$TDUCREATE
 40
2458236.036239687
  9
$TDUPDATE
 40
2458236.369573125
  9
$TDUUPDATE
 40
2458236.036239792
  9
$TDINDWG
 40
0.0000000116
  9
$TDUSRTIMER
 40
0.0000000116
  9
$USRTIMER
 70
     1
  9
$ANGBASE
 50
0.0
  9
$ANGDIR
 70
     0
  9
$PDMODE
 70
     0
  9
$PDSIZE
 40
0.0
  9
$PLINEWID
 40
0.0
  9
$SPLFRAME
 70
     0
  9
$SPLINETYPE
 70
     6
  9
$SPLINESEGS
 70
     8
  9
$HANDSEED
  5
2B4
  9
$SURFTAB1
 70
     6
  9
$SURFTAB2
 70
     6
  9
$SURFTYPE
 70
     6
  9
$SURFU
 70
     6
  9
$SURFV
 70
     6
  9
$UCSBASE
  2

  9
$UCSNAME
  2

  9
$UCSORG
 10
0.0
 20
0.0
 30
0.0
  9
$UCSXDIR
 10
1.0
 20
0.0
 30
0.0
  9
$UCSYDIR
 10
0.0
 20
1.0
 30
0.0
  9
$UCSORTHOREF
  2

  9
$UCSORTHOVIEW
 70
     0
  9
$UCSORGTOP
 10
0.0
 20
0.0
 30
0.0
  9
$UCSORGBOTTOM
 10
0.0
 20
0.0
 30
0.0
  9
$UCSORGLEFT
 10
0.0
 20
0.0
 30
0.0
  9
$UCSORGRIGHT
 10
0.0
 20
0.0
 30
0.0
  9
$UCSORGFRONT
 10
0.0
 20
0.0
 30
0.0
  9
$UCSORGBACK
 10
0.0
 20
0.0
 30
0.0
  9
$PUCSBASE
  2

  9
$PUCSNAME
  2

  9
$PUCSORG
 10
0.0
 20
0.0
 30
0.0
  9
$PUCSXDIR
 10
1.0
 20
0.0
 30
0.0
  9
$PUCSYDIR
 10
0.0
 20
1.0
 30
0.0
  9
$PUCSORTHOREF
  2

  9
$PUCSORTHOVIEW
 70
     0
  9
$PUCSORGTOP
 10
0.0
 20
0.0
 30
0.0
  9
$PUCSORGBOTTOM
 10
0.0
 20
0.0
 30
0.0
  9
$PUCSORGLEFT
 10
0.0
 20
0.0
 30
0.0
  9
$PUCSORGRIGHT
 10
0.0
 20
0.0
 30
0.0
  9
$PUCSORGFRONT
 10
0.0
 20
0.0
 30
0.0
  9
$PUCSORGBACK
 10
0.0
 20
0.0
 30
0.0
  9
$USERI1
 70
     0
  9
$USERI2
 70
     0
  9
$USERI3
 70
     0
  9
$USERI4
 70
     0
  9
$USERI5
 70
     0
  9
$USERR1
 40
0.0
  9
$USERR2
 40
0.0
  9
$USERR3
 40
0.0
  9
$USERR4
 40
0.0
  9
$USERR5
 40
0.0
  9
$WORLDVIEW
 70
     1
  9
$SHADEDGE
 70
     3
  9
$SHADEDIF
 70
    70
  9
$TILEMODE
 70
     1
  9
$MAXACTVP
 70
    64
  9
$PINSBASE
 10
0.0
 20
0.0
 30
0.0
  9
$PLIMCHECK
 70
     0
  9
$PEXTMIN
 10
1.000000000000000E+20
 20
1.000000000000000E+20
 30
1.000000000000000E+20
  9
$PEXTMAX
 10
-1.000000000000000E+20
 20
-1.000000000000000E+20
 30
-1.000000000000000E+20
  9
$PLIMMIN
 10
0.0
 20
0.0
  9
$PLIMMAX
 10
12.0
 20
9.0
  9
$UNITMODE
 70
     0
  9
$VISRETAIN
 70
     1
  9
$PLINEGEN
 70
     0
  9
$PSLTSCALE
 70
     1
  9
$TREEDEPTH
 70
  3020
  9
$CMLSTYLE
  2
Standard
  9
$CMLJUST
 70
     0
  9
$CMLSCALE
 40
1.0
  9
$PROXYGRAPHICS
 70
     1
  9
$MEASUREMENT
 70
     0
  9
$CELWEIGHT
370
    -1
  9
$ENDCAPS
280
     0
  9
$JOINSTYLE
280
     0
  9
$LWDISPLAY
290
     0
  9
$INSUNITS
 70
     4
  9
$HYPERLINKBASE
  1

  9
$STYLESHEET
  1

  9
$XEDIT
290
     1
  9
$CEPSNTYPE
380
     0
  9
$PSTYLEMODE
290
     1
  9
$FINGERPRINTGUID
  2
{44989ABE-AF20-4338-8FCC-508CCFD1207C}
  9
$VERSIONGUID
  2
{FAEB1C32-E019-11D5-929B-00C0DF256EC4}
  9
$EXTNAMES
290
     1
  9
$PSVPSCALE
 40
0.0
  9
$OLESTARTUP
290
     0
  9
$SORTENTS
280
   127
  9
$INDEXCTL
280
     0
  9
$HIDETEXT
280
     1
  9
$XCLIPFRAME
290
     0
  9
$HALOGAP
280
     0
  9
$OBSCOLOR
 70
   257
  9
$OBSLTYPE
280
     0
  9
$INTERSECTIONDISPLAY
280
     0
  9
$INTERSECTIONCOLOR
 70
   257
  9
$DIMASSOC
280
     2
  9
$PROJECTNAME
  1

  0
ENDSEC
  0
SECTION
  2
CLASSES
  0
CLASS
  1
ACDBDICTIONARYWDFLT
  2
AcDbDictionaryWithDefault
  3
ObjectDBX Classes
 90
        0
 91
        4
280
     0
281
     0
  0
CLASS
  1
VISUALSTYLE
  2
AcDbVisualStyle
  3
ObjectDBX Classes
 90
     4095
 91
        4
280
     0
281
     0
  0
CLASS
  1
MATERIAL
  2
AcDbMaterial
  3
ObjectDBX Classes
 90
     1153
 91
        4
280
     0
281
     0
  0
CLASS
  1
SCALE
  2
AcDbScale
  3
ObjectDBX Classes
 90
     1153
 91
        4
280
     0
281
     0
  0
CLASS
  1
SUN
  2
AcDbSun
  3
SCENEOE
 90
     1153
 91
        4
280
     0
281
     0
  0
CLASS
  1
DICTIONARYVAR
  2
AcDbDictionaryVar
  3
ObjectDBX Classes
 90
        0
 91
        4
280
     0
281
     0
  0
ENDSEC
  0
SECTION
  2
TABLES
  0
TABLE
  2
VPORT
  5
8
330
0
100
AcDbSymbolTable
 70
     1
  0
VPORT
  5
29
330
8
100
AcDbSymbolTableRecord
100
AcDbViewportTableRecord
  2
*Active
 70
     0
 10
0.0
 20
0.0
 11
1.0
 21
1.0
 12
629.3820244559886
 22
364.6073367275446
 13
0.0
 23
0.0
 14
0.5
 24
0.5
 15
0.5
 25
0.5
 16
0.0
 26
0.0
 36
1.0
 17
0.0
 27
0.0
 37
0.0
 40
779.2799966260969
 41
0.8386986903667489
 42
50.0
 43
0.0
 44
0.0
 50
0.0
 51
0.0
 71
     0
 72
   100
 73
     1
 74
     3
 75
     0
 76
     0
 77
     0
 78
     0
281
     0
 65
     1
110
0.0
120
0.0
130
0.0
111
1.0
121
0.0
131
0.0
112
0.0
122
1.0
132
0.0
 79
     0
146
0.0
  0
ENDTAB
  0
TABLE
  2
LTYPE
  5
5
330
0
100
AcDbSymbolTable
 70
     1
  0
LTYPE
  5
14
330
5
100
AcDbSymbolTableRecord
100
AcDbLinetypeTableRecord
  2
ByBlock
 70
     0
  3

 72
    65
 73
     0
 40
0.0
  0
LTYPE
  5
15
330
5
100
AcDbSymbolTableRecord
100
AcDbLinetypeTableRecord
  2
ByLayer
 70
     0
  3

 72
    65
 73
     0
 40
0.0
  0
LTYPE
  5
16
330
5
100
AcDbSymbolTableRecord
100
AcDbLinetypeTableRecord
  2
Continuous
 70
     0
  3
Solid line
 72
    65
 73
     0
 40
0.0
  0
ENDTAB
  0
TABLE
  2
LAYER
  5
2
330
0
100
AcDbSymbolTable
 70
     3
  0
LAYER
  5
10
330
2
100
AcDbSymbolTableRecord
100
AcDbLayerTableRecord
  2
0
 70
     0
 62
     7
  6
Continuous
370
    -3
390
F
  0
LAYER
  5
62
330
2
100
AcDbSymbolTableRecord
100
AcDbLayerTableRecord
  2
Make2D$可见线$普通线
 70
     0
 62
    18
420
        0
  6
Continuous
370
    -3
390
F
  0
LAYER
  5
65
330
2
100
AcDbSymbolTableRecord
100
AcDbLayerTableRecord
  2
预设值
 70
     0
 62
    18
420
        0
  6
Continuous
370
    -3
390
F
  0
ENDTAB
  0
TABLE
  2
STYLE
  5
3
330
0
100
AcDbSymbolTable
 70
     1
  0
STYLE
  5
11
330
3
100
AcDbSymbolTableRecord
100
AcDbTextStyleTableRecord
  2
Standard
 70
     0
 40
0.0
 41
1.0
 50
0.0
 71
     0
 42
0.2
  3
txt
  4

  0
ENDTAB
  0
TABLE
  2
VIEW
  5
6
330
0
100
AcDbSymbolTable
 70
     0
  0
ENDTAB
  0
TABLE
  2
UCS
  5
7
330
0
100
AcDbSymbolTable
 70
     0
  0
ENDTAB
  0
TABLE
  2
APPID
  5
9
330
0
100
AcDbSymbolTable
 70
     1
  0
APPID
  5
12
330
9
100
AcDbSymbolTableRecord
100
AcDbRegAppTableRecord
  2
ACAD
 70
     0
  0
ENDTAB
  0
TABLE
  2
DIMSTYLE
  5
A
330
0
100
AcDbSymbolTable
 70
     1
100
AcDbDimStyleTable
  0
DIMSTYLE
105
27
330
A
100
AcDbSymbolTableRecord
100
AcDbDimStyleTableRecord
  2
Standard
 70
     0
178
     0
340
11
  0
ENDTAB
  0
TABLE
  2
BLOCK_RECORD
  5
1
330
0
100
AcDbSymbolTable
 70
     1
  0
BLOCK_RECORD
  5
1F
330
1
100
AcDbSymbolTableRecord
100
AcDbBlockTableRecord
  2
*Model_Space
340
22
  0
BLOCK_RECORD
  5
1B
330
1
100
AcDbSymbolTableRecord
100
AcDbBlockTableRecord
  2
*Paper_Space
340
1E
  0
BLOCK_RECORD
  5
23
330
1
100
AcDbSymbolTableRecord
100
AcDbBlockTableRecord
  2
*Paper_Space0
340
26
  0
ENDTAB
  0
ENDSEC
  0
SECTION
  2
BLOCKS
  0
BLOCK
  5
20
330
1F
100
AcDbEntity
  8
0
100
AcDbBlockBegin
  2
*Model_Space
 70
     0
 10
0.0
 20
0.0
 30
0.0
  3
*Model_Space
  1
*Model_Space
  0
ENDBLK
  5
21
330
1F
100
AcDbEntity
  8
0
100
AcDbBlockEnd
  0
BLOCK
  5
1C
330
1B
100
AcDbEntity
 67
     1
  8
0
100
AcDbBlockBegin
  2
*Paper_Space
 70
     0
 10
0.0
 20
0.0
 30
0.0
  3
*Paper_Space
  1
*Paper_Space
  0
ENDBLK
  5
1D
330
1B
100
AcDbEntity
 67
     1
  8
0
100
AcDbBlockEnd
  0
BLOCK
  5
24
330
23
100
AcDbEntity
  8
0
100
AcDbBlockBegin
  2
*Paper_Space0
 70
     0
 10
0.0
 20
0.0
 30
0.0
  3
*Paper_Space0
  1
*Paper_Space0
  0
ENDBLK
  5
25
330
23
100
AcDbEntity
  8
0
100
AcDbBlockEnd
  0
ENDSEC
  0
SECTION
  2
ENTITIES
  0
ARC
  5
63
330
1F
100
AcDbEntity
  8
Make2D$可见线$普通线
100
AcDbCircle
 10
662.5226230598693
 20
366.6733205821445
 30
0.0
 40
26.14694840349524
100
AcDbArc
 50
166.6990529247006
 51
166.8244064564065
  0
LINE
  5
64
330
1F
100
AcDbEntity
  8
Make2D$可见线$普通线
100
AcDbLine
 10
374.5291698240881
 20
372.6872107032573
 30
0.0
 11
374.5302184711527
 21
372.6671422874063
 31
0.0
  0
SPLINE
  5
66
330
1F
100
AcDbEntity
  8
预设值
100
AcDbSpline
210
0.0
220
0.0
230
1.0
 70
    12
 71
     3
 72
    23
 73
    19
 74
     0
 42
0.000000001
 43
0.0000000001
 12
1.0
 22
0.0
 32
0.0
 13
1.0
 23
0.0
 33
0.0
 40
0.0
 40
0.0
 40
0.0
 40
0.0
 40
285.2877073734522
 40
285.2877073734522
 40
285.2877073734522
 40
285.548518752623
 40
285.8093302268379
 40
286.0701417010528
 40
286.2863798009957
 40
286.2863798009957
 40
286.2863798009957
 40
293.8375069558335
 40
293.8375069558335
 40
293.8375069558335
 40
301.3886193138264
 40
301.3886193138264
 40
301.3886193138264
 40
304.5160060960473
 40
304.5160060960473
 40
304.5160060960473
 40
304.5160060960473
 10
412.8437602014114
 20
410.0687957535379
 30
0.0
 41
1.0
 10
507.9030990469498
 20
412.7067487602854
 30
0.0
 41
0.9999993328108562
 10
602.966074848225
 20
415.2102122856526
 30
0.0
 41
0.9999993328108562
 10
698.0324973302811
 20
417.5791813187866
 30
0.0
 41
1.0
 10
700.3023597588681
 20
417.6357442296021
 30
0.0
 41
1.0
 10
704.3653377916125
 20
417.7047879249426
 30
0.0
 41
1.0
 10
708.6695948700653
 20
416.1548591941041
 30
0.0
 41
1.0
 10
711.3015468500826
 20
412.6181454317984
 30
0.0
 41
1.0
 10
712.5276266759245
 20
409.1885876232727
 30
0.0
 41
1.0
 10
713.0607793681575
 20
407.4534745111455
 30
0.0
 41
1.0
 10
713.8002903961699
 20
405.0467807066123
 30
0.0
 41
0.9994401428051741
 10
714.4405685898596
 20
402.6118073055226
 30
0.0
 41
0.9994401428051741
 10
714.9805385561658
 20
400.1526440200091
 30
0.0
 41
1.0
 10
715.5205079932435
 20
397.6934831447401
 30
0.0
 41
0.9994381853365634
 10
715.9590848763356
 20
395.2142313380349
 30
0.0
 41
0.9994381853365634
 10
716.2955300086703
 20
392.7190672399529
 30
0.0
 41
1.0
 10
716.434840970241
 20
391.6859011264492
 30
0.0
 41
0.9998967692353196
 10
716.5559493276722
 20
390.6504434846962
 30
0.0
 41
0.9998967692353196
 10
716.658817574639
 20
389.6130149879455
 30
0.0
 41
1.0
  0
SPLINE
  5
67
330
1F
100
AcDbEntity
  8
Make2D$可见线$普通线
100
AcDbSpline
210
0.0
220
0.0
230
1.0
 70
     8
 71
     3
 72
    34
 73
    30
 74
     0
 42
0.000000001
 43
0.0000000001
 12
1.0
 22
0.0
 32
0.0
 13
1.0
 23
0.0
 33
0.0
 40
-0.0267672050827624
 40
-0.0267672050827624
 40
-0.0267672050827624
 40
-0.0267672050827624
 40
0.0
 40
0.0
 40
0.0
 40
0.3763499925573501
 40
0.7325839687466339
 40
1.182204964673493
 40
1.747546407780711
 40
3.448316511493725
 40
5.793521381082678
 40
8.984692192235528
 40
12.72256113205297
 40
22.71754344084152
 40
22.71754344084152
 40
22.71754344084152
 40
23.71754344084152
 40
23.71754344084152
 40
23.71754344084152
 40
243.7456910151606
 40
243.7456910151606
 40
243.7456910151606
 40
244.4787425424687
 40
244.4787425424687
 40
244.4787425424687
 40
245.1569662097708
 40
245.1569662097708
 40
245.1569662097708
 40
247.4793483942875
 40
247.4793483942875
 40
247.4793483942875
 40
247.4793483942875
 10
687.2225065998091
 20
375.6889946774918
 30
0.0
 10
687.2333993071842
 20
375.5664473909537
 30
0.0
 10
687.2442920145592
 20
375.4439001044157
 30
0.0
 10
687.2551847219343
 20
375.3213528178776
 30
0.0
 10
687.2633098570557
 20
375.1990011572484
 30
0.0
 10
687.274268473119
 20
374.9429376807834
 30
0.0
 10
687.0698690714953
 20
374.5941074392772
 30
0.0
 10
686.7016556201881
 20
374.3141504684795
 30
0.0
 10
685.8746426844143
 20
373.9384093154645
 30
0.0
 10
684.377100842124
 20
373.5704403037248
 30
0.0
 10
681.9892451477197
 20
373.2239901364219
 30
0.0
 10
678.9075519658152
 20
372.963229736516
 30
0.0
 10
673.2718772191042
 20
372.6983550824662
 30
0.0
 10
668.6926678031712
 20
372.6880127135751
 30
0.0
 10
665.3613780167855
 20
372.6888334679502
 30
0.0
 10
622.4771264722843
 20
372.6888490224857
 30
0.0
 10
579.5928749277833
 20
372.6888645770212
 30
0.0
 10
536.7086233832822
 20
372.6888801315567
 30
0.0
 10
463.3659075417172
 20
372.6877364270187
 30
0.0
 10
390.0231917001522
 20
372.6865927224806
 30
0.0
 10
316.6804758585872
 20
372.6854490179426
 30
0.0
 10
316.4361380950549
 20
372.68581643943
 30
0.0
 10
316.1918003315226
 20
372.6861838609173
 30
0.0
 10
315.9474625679904
 20
372.6865512824047
 30
0.0
 10
315.9513696207117
 20
372.9126069147454
 30
0.0
 10
315.955276673433
 20
373.1386625470861
 30
0.0
 10
315.9591837261543
 20
373.3647181794267
 30
0.0
 10
315.977799824988
 20
374.1386096448261
 30
0.0
 10
315.9964159238218
 20
374.9125011102254
 30
0.0
 10
316.0150320226555
 20
375.6863925756247
 30
0.0
  0
SPLINE
  5
68
330
1F
100
AcDbEntity
  8
Make2D$可见线$普通线
100
AcDbSpline
210
0.0
220
0.0
230
1.0
 70
     8
 71
     2
 72
     8
 73
     5
 74
     0
 42
0.000000001
 43
0.0000000001
 12
1.0
 22
0.0
 32
0.0
 13
1.0
 23
0.0
 33
0.0
 40
-0.0009820080055459
 40
-0.0009820080055459
 40
-0.0009820080055459
 40
0.0
 40
0.0
 40
0.7510583510707116
 40
0.7510583510707116
 40
0.7510583510707116
 10
713.063335247527
 20
407.445154610893
 30
0.0
 10
713.0669658960858
 20
407.4333255246336
 30
0.0
 10
713.0705965446446
 20
407.4214964383741
 30
0.0
 10
713.068086436207
 20
407.4266507334946
 30
0.0
 10
713.0655763277693
 20
407.4318050286151
 30
0.0
  0
SPLINE
  5
69
330
1F
100
AcDbEntity
  8
Make2D$可见线$普通线
100
AcDbSpline
210
0.0
220
0.0
230
1.0
 70
     8
 71
     3
 72
    11
 73
     7
 74
     0
 42
0.000000001
 43
0.0000000001
 12
1.0
 22
0.0
 32
0.0
 13
1.0
 23
0.0
 33
0.0
 40
-0.9994615346527512
 40
-0.9994615346527512
 40
-0.9994615346527512
 40
-0.9994615346527512
 40
0.0
 40
0.0
 40
0.0
 40
1.0
 40
1.0
 40
1.0
 40
1.0
 10
324.5211262326638
 20
406.4085385500234
 30
0.0
 10
351.6462338000711
 20
408.3559716408863
 30
0.0
 10
381.5687255292752
 20
409.2008827571794
 30
0.0
 10
412.804617789196
 20
410.0677095206979
 30
0.0
 10
413.0153324427918
 20
410.0529630945513
 30
0.0
 10
413.2260470963876
 20
410.0382166684047
 30
0.0
 10
413.4367617499834
 20
410.0234702422581
 30
0.0
  0
SPLINE
  5
6A
330
1F
100
AcDbEntity
  8
Make2D$可见线$普通线
100
AcDbSpline
210
0.0
220
0.0
230
1.0
 70
     8
 71
     3
 72
    42
 73
    38
 74
     0
 42
0.000000001
 43
0.0000000001
 12
1.0
 22
0.0
 32
0.0
 13
1.0
 23
0.0
 33
0.0
 40
0.0
 40
0.0
 40
0.0
 40
0.0
 40
0.0011159113296777
 40
2.548867872335796
 40
4.80036171712588
 40
9.091430232960036
 40
13.08982049807404
 40
17.46641988903414
 40
17.46641988903414
 40
17.46641988903414
 40
17.96634292476811
 40
17.96634292476811
 40
18.4664174149779
 40
18.4664174149779
 40
18.4664174149779
 40
19.4664174149779
 40
19.4664174149779
 40
19.4664174149779
 40
246.4721450954564
 40
246.4721450954564
 40
246.4721450954564
 40
247.2156147752778
 40
247.2156147752778
 40
247.2156147752778
 40
261.8622721417747
 40
261.8622721417747
 40
261.8622721417747
 40
264.7217176849908
 40
266.7967135842836
 40
270.0019502426196
 40
272.6328683366763
 40
275.0196982221264
 40
277.4101850053551
 40
280.0488773941804
 40
283.2606196008897
 40
285.3371902427031
 40
288.1947856551964
 40
288.1947856551964
 40
288.1947856551964
 40
288.1947856551964
 10
716.6614246903187
 20
389.5866691454348
 30
0.0
 10
716.6619475323798
 20
389.5882715632838
 30
0.0
 10
716.4726043993662
 20
388.7612386597375
 30
0.0
 10
716.044511376379
 20
387.2145632720035
 30
0.0
 10
714.9341938549255
 20
384.3949860597704
 30
0.0
 10
713.0707099670351
 20
381.3739219364493
 30
0.0
 10
709.8465603041268
 20
378.5718555778649
 30
0.0
 10
707.2567053590465
 20
377.4484999723259
 30
0.0
 10
705.867770439482
 20
377.0119085218439
 30
0.0
 10
703.5692213791463
 20
376.2952683675176
 30
0.0
 10
701.2054005192881
 20
375.9946454228093
 30
0.0
 10
696.4392993554952
 20
375.6809172703115
 30
0.0
 10
694.0573473601837
 20
375.6888169165873
 30
0.0
 10
691.6683662797652
 20
375.6888154601934
 30
0.0
 10
640.0283347446639
 20
375.6888475169882
 30
0.0
 10
588.3883032095627
 20
375.688879573783
 30
0.0
 10
536.7482716744612
 20
375.6889116305779
 30
0.0
 10
461.0796957931739
 20
375.6879255346016
 30
0.0
 10
385.4111199118867
 20
375.6869394386254
 30
0.0
 10
309.7425440305994
 20
375.6859533426491
 30
0.0
 10
309.4947380613974
 20
375.6859521710841
 30
0.0
 10
309.2469320921955
 20
375.6859509995191
 30
0.0
 10
308.9991261229936
 20
375.6859498279541
 30
0.0
 10
309.0840879694901
 20
380.567445187939
 30
0.0
 10
309.1690498159866
 20
385.4489405479239
 30
0.0
 10
309.2540116624832
 20
390.3304359079088
 30
0.0
 10
309.2714025012746
 20
391.2832201726633
 30
0.0
 10
309.2979770136121
 20
392.9285014344514
 30
0.0
 10
309.4378043786128
 20
395.6377833600363
 30
0.0
 10
309.7638960292543
 20
398.2604954056801
 30
0.0
 10
310.5976594189396
 20
400.889951426223
 30
0.0
 10
311.99036294783
 20
402.969370416356
 30
0.0
 10
313.9976734075994
 20
404.4677179171808
 30
0.0
 10
316.5825001728289
 20
405.4462331652312
 30
0.0
 10
319.1873877086693
 20
405.9231132832833
 30
0.0
 10
321.8863073939634
 20
406.2178578113426
 30
0.0
 10
323.5274690917074
 20
406.3364540339903
 30
0.0
 10
324.4772872703103
 20
406.405390019238
 30
0.0
  0
LINE
  5
6B
330
1F
100
AcDbEntity
  8
Make2D$可见线$普通线
100
AcDbLine
 10
856.6861955220365
 20
741.6073350736701
 30
0.0
 11
856.6861955220365
 21
742.6073350736697
 31
0.0
  0
LINE
  5
6C
330
1F
100
AcDbEntity
  8
Make2D$可见线$普通线
100
AcDbLine
 10
888.6861955220365
 20
742.6073350736697
 30
0.0
 11
888.6861955220365
 21
741.6073350736694
 31
0.0
  0
LINE
  5
6D
330
1F
100
AcDbEntity
  8
Make2D$可见线$普通线
100
AcDbLine
 10
883.1191228534672
 20
746.6073350736699
 30
0.0
 11
882.834805375006
 21
746.6073350736692
 31
0.0
  0
LINE
  5
6E
330
1F
100
AcDbEntity
  8
Make2D$可见线$普通线
100
AcDbLine
 10
883.3975477538997
 20
746.6073350736692
 30
0.0
 11
883.1363973941739
 21
746.6073350736692
 31
0.0
  0
LINE
  5
6F
330
1F
100
AcDbEntity
  8
Make2D$可见线$普通线
100
AcDbLine
 10
883.6494190250733
 20
746.6073350736699
 30
0.0
 11
883.413277328254
 21
746.6073350736692
 31
0.0
  0
LINE
  5
70
330
1F
100
AcDbEntity
  8
Make2D$可见线$普通线
100
AcDbLine
 10
883.8745065981011
 20
746.6073350736697
 30
0.0
 11
883.6647548092888
 21
746.6073350736697
 31
0.0
  0
LINE
  5
71
330
1F
100
AcDbEntity
  8
Make2D$可见线$普通线
100
AcDbLine
 10
884.0725803820201
 20
746.6073350736697
 30
0.0
 11
883.8901394691256
 21
746.6073350736697
 31
0.0
  0
LINE
  5
72
330
1F
100
AcDbEntity
  8
Make2D$可见线$普通线
100
AcDbLine
 10
884.3867662782563
 20
746.6073350736706
 30
0.0
 11
884.0887409395691
 21
746.6073350736699
 31
0.0
  0
LINE
  5
73
330
1F
100
AcDbEntity
  8
Make2D$可见线$普通线
100
AcDbLine
 10
884.5024182348984
 20
746.6073350736694
 30
0.0
 11
884.4028328431182
 21
746.6073350736694
 31
0.0
  0
LINE
  5
74
330
1F
100
AcDbEntity
  8
Make2D$可见线$普通线
100
AcDbLine
 10
884.5595765176631
 20
746.6073350736694
 30
0.0
 11
884.5445928081012
 21
746.6073350736694
 31
0.0
  0
LINE
  5
75
330
1F
100
AcDbEntity
  8
Make2D$可见线$普通线
100
AcDbLine
 10
884.6833842079322
 20
746.6073350736697
 30
0.0
 11
884.6769388917119
 21
746.6073350736697
 31
0.0
  0
ARC
  5
76
330
1F
100
AcDbEntity
  8
Make2D$可见线$普通线
100
AcDbCircle
 10
884.6857594193286
 20
742.6073973630546
 30
0.0
 40
3.999937711099935
100
AcDbArc
 50
359.99910775638
 51
89.99910748015247
  0
ARC
  5
77
330
1F
100
AcDbEntity
  8
Make2D$可见线$普通线
100
AcDbCircle
 10
860.68663162474
 20
742.6073973630039
 30
0.0
 40
3.999937711150907
100
AcDbArc
 50
90.00089251917171
 51
180.0008922428904
  0
LINE
  5
78
330
1F
100
AcDbEntity
  8
Make2D$可见线$普通线
100
AcDbLine
 10
860.6970528979055
 20
746.6073350736692
 30
0.0
 11
860.6950563078772
 21
746.6073350736692
 31
0.0
  0
LINE
  5
79
330
1F
100
AcDbEntity
  8
Make2D$可见线$普通线
100
AcDbLine
 10
860.7285987998657
 20
746.6073350736692
 30
0.0
 11
860.7153261971898
 21
746.6073350736692
 31
0.0
  0
LINE
  5
7A
330
1F
100
AcDbEntity
  8
Make2D$可见线$普通线
100
AcDbLine
 10
860.8554485038894
 20
746.6073350736688
 30
0.0
 11
860.780574948265
 21
746.6073350736688
 31
0.0
  0
LINE
  5
7B
330
1F
100
AcDbEntity
  8
Make2D$可见线$普通线
100
AcDbLine
 10
892.6861955220365
 20
740.6073350736692
 30
0.0
 11
892.6861955220365
 21
738.345701598515
 31
0.0
  0
LINE
  5
7C
330
1F
100
AcDbEntity
  8
Make2D$可见线$普通线
100
AcDbLine
 10
852.6861955220365
 20
740.6073350736692
 30
0.0
 11
852.6861955220365
 21
738.2757135153756
 31
0.0
  0
LINE
  5
7D
330
1F
100
AcDbEntity
  8
Make2D$可见线$普通线
100
AcDbLine
 10
887.9459255611287
 20
741.6073350736692
 30
0.0
 11
886.1250662782945
 21
741.6073350736692
 31
0.0
  0
LINE
  5
7E
330
1F
100
AcDbEntity
  8
Make2D$可见线$普通线
100
AcDbLine
 10
888.7165330900043
 20
741.6073350736699
 30
0.0
 11
888.5442718154582
 21
741.6073350736692
 31
0.0
  0
LINE
  5
7F
330
1F
100
AcDbEntity
  8
Make2D$可见线$普通线
100
AcDbLine
 10
889.1926449644707
 20
741.6073350736692
 30
0.0
 11
889.1788763982854
 21
741.6073350736692
 31
0.0
  0
LINE
  5
80
330
1F
100
AcDbEntity
  8
Make2D$可见线$普通线
100
AcDbLine
 10
890.0286964802244
 20
741.6073350736699
 30
0.0
 11
889.5077398139892
 21
741.6073350736697
 31
0.0
  0
LINE
  5
81
330
1F
100
AcDbEntity
  8
Make2D$可见线$普通线
100
AcDbLine
 10
890.2127939163179
 20
741.6073350736692
 30
0.0
 11
890.0517137033266
 21
741.6073350736697
 31
0.0
  0
LINE
  5
82
330
1F
100
AcDbEntity
  8
Make2D$可见线$普通线
100
AcDbLine
 10
890.3866807543827
 20
741.6073350736697
 30
0.0
 11
890.2360176116904
 21
741.6073350736697
 31
0.0
  0
LINE
  5
83
330
1F
100
AcDbEntity
  8
Make2D$可见线$普通线
100
AcDbLine
 10
890.5502347839729
 20
741.6073350736697
 30
0.0
 11
890.4099278359417
 21
741.6073350736697
 31
0.0
  0
LINE
  5
84
330
1F
100
AcDbEntity
  8
Make2D$可见线$普通线
100
AcDbLine
 10
890.7033337946432
 20
741.6073350736697
 30
0.0
 11
890.5733192404459
 21
741.6073350736697
 31
0.0
  0
LINE
  5
85
330
1F
100
AcDbEntity
  8
Make2D$可见线$普通线
100
AcDbLine
 10
890.845855575948
 20
741.6073350736697
 30
0.0
 11
890.7260665535023
 21
741.6073350736697
 31
0.0
  0
LINE
  5
86
330
1F
100
AcDbEntity
  8
Make2D$可见线$普通线
100
AcDbLine
 10
890.9776779174422
 20
741.6073350736692
 30
0.0
 11
890.8680445609839
 21
741.6073350736692
 31
0.0
  0
LINE
  5
87
330
1F
100
AcDbEntity
  8
Make2D$可见线$普通线
100
AcDbLine
 10
891.0986786086801
 20
741.6073350736692
 30
0.0
 11
890.999128047923
 21
741.6073350736692
 31
0.0
  0
LINE
  5
88
330
1F
100
AcDbEntity
  8
Make2D$可见线$普通线
100
AcDbLine
 10
891.2087354392156
 20
741.6073350736697
 30
0.0
 11
891.1191917956962
 21
741.6073350736697
 31
0.0
  0
LINE
  5
89
330
1F
100
AcDbEntity
  8
Make2D$可见线$普通线
100
AcDbLine
 10
891.3077261986036
 20
741.607335073669
 30
0.0
 11
891.2281105856773
 21
741.6073350736692
 31
0.0
  0
LINE
  5
8A
330
1F
100
AcDbEntity
  8
Make2D$可见线$普通线
100
AcDbLine
 10
891.395528676399
 20
741.6073350736692
 30
0.0
 11
891.3257591992433
 21
741.6073350736692
 31
0.0
  0
LINE
  5
8B
330
1F
100
AcDbEntity
  8
Make2D$可见线$普通线
100
AcDbLine
 10
891.4720206621569
 20
741.6073350736706
 30
0.0
 11
891.4120124177643
 21
741.6073350736701
 31
0.0
  0
LINE
  5
8C
330
1F
100
AcDbEntity
  8
Make2D$可见线$普通线
100
AcDbLine
 10
891.5370799454295
 20
741.6073350736692
 30
0.0
 11
891.4867450226011
 21
741.6073350736692
 31
0.0
  0
LINE
  5
8D
330
1F
100
AcDbEntity
  8
Make2D$可见线$普通线
100
AcDbLine
 10
891.6011475162986
 20
741.607335073669
 30
0.0
 11
891.5498317950746
 21
741.6073350736692
 31
0.0
  0
LINE
  5
8E
330
1F
100
AcDbEntity
  8
Make2D$可见线$普通线
100
AcDbLine
 10
891.6832161902403
 20
741.6073350736692
 30
0.0
 11
891.6324115627417
 21
741.6073350736692
 31
0.0
  0
ARC
  5
8F
330
1F
100
AcDbEntity
  8
Make2D$可见线$普通线
100
AcDbCircle
 10
891.6866262728797
 20
740.6073311542351
 30
0.0
 40
1.000003919592775
100
AcDbArc
 50
0.0002245661522061
 51
90.00102065937389
  0
ARC
  5
90
330
1F
100
AcDbEntity
  8
Make2D$可见线$普通线
100
AcDbCircle
 10
853.6861014210965
 20
740.6069944970158
 30
0.0
 40
1.000340627464144
100
AcDbArc
 50
90.0182617351102
 51
179.9804930393858
  0
LINE
  5
91
330
1F
100
AcDbEntity
  8
Make2D$可见线$普通线
100
AcDbLine
 10
853.7399794813309
 20
741.6073350736692
 30
0.0
 11
853.6891748538333
 21
741.6073350736692
 31
0.0
  0
LINE
  5
92
330
1F
100
AcDbEntity
  8
Make2D$可见线$普通线
100
AcDbLine
 10
853.8225592489971
 20
741.6073350736694
 30
0.0
 11
853.7712435277731
 21
741.6073350736694
 31
0.0
  0
LINE
  5
93
330
1F
100
AcDbEntity
  8
Make2D$可见线$普通线
100
AcDbLine
 10
853.8856460214711
 20
741.6073350736694
 30
0.0
 11
853.8353110986436
 21
741.6073350736694
 31
0.0
  0
LINE
  5
94
330
1F
100
AcDbEntity
  8
Make2D$可见线$普通线
100
AcDbLine
 10
853.9603786263083
 20
741.6073350736701
 30
0.0
 11
853.9003703819167
 21
741.6073350736701
 31
0.0
  0
LINE
  5
95
330
1F
100
AcDbEntity
  8
Make2D$可见线$普通线
100
AcDbLine
 10
854.046631844828
 20
741.6073350736692
 30
0.0
 11
853.9768623676737
 21
741.6073350736692
 31
0.0
  0
LINE
  5
96
330
1F
100
AcDbEntity
  8
Make2D$可见线$普通线
100
AcDbLine
 10
854.144280458394
 20
741.6073350736697
 30
0.0
 11
854.064664845469
 21
741.6073350736697
 31
0.0
  0
LINE
  5
97
330
1F
100
AcDbEntity
  8
Make2D$可见线$普通线
100
AcDbLine
 10
854.2531992483755
 20
741.6073350736692
 30
0.0
 11
854.163655604857
 21
741.6073350736692
 31
0.0
  0
LINE
  5
98
330
1F
100
AcDbEntity
  8
Make2D$可见线$普通线
100
AcDbLine
 10
854.3732629961492
 20
741.6073350736704
 30
0.0
 11
854.273712435393
 21
741.6073350736697
 31
0.0
  0
LINE
  5
99
330
1F
100
AcDbEntity
  8
Make2D$可见线$普通线
100
AcDbLine
 10
854.5043464830887
 20
741.6073350736697
 30
0.0
 11
854.3947131266309
 21
741.6073350736697
 31
0.0
  0
LINE
  5
9A
330
1F
100
AcDbEntity
  8
Make2D$可见线$普通线
100
AcDbLine
 10
854.6463244905699
 20
741.6073350736692
 30
0.0
 11
854.5265354681246
 21
741.6073350736692
 31
0.0
  0
LINE
  5
9B
330
1F
100
AcDbEntity
  8
Make2D$可见线$普通线
100
AcDbLine
 10
854.7990718036272
 20
741.6073350736697
 30
0.0
 11
854.6690572494299
 21
741.6073350736697
 31
0.0
  0
LINE
  5
9C
330
1F
100
AcDbEntity
  8
Make2D$可见线$普通线
100
AcDbLine
 10
854.9624632081313
 20
741.6073350736699
 30
0.0
 11
854.8221562601002
 21
741.6073350736692
 31
0.0
  0
LINE
  5
9D
330
1F
100
AcDbEntity
  8
Make2D$可见线$普通线
100
AcDbLine
 10
855.1363734323818
 20
741.6073350736692
 30
0.0
 11
854.9857102896904
 21
741.6073350736694
 31
0.0
  0
LINE
  5
9E
330
1F
100
AcDbEntity
  8
Make2D$可见线$普通线
100
AcDbLine
 10
855.3206773407455
 20
741.6073350736694
 30
0.0
 11
855.1595971277552
 21
741.6073350736694
 31
0.0
  0
LINE
  5
9F
330
1F
100
AcDbEntity
  8
Make2D$可见线$普通线
100
AcDbLine
 10
855.8196147145404
 20
741.6073350736697
 30
0.0
 11
855.3436945638487
 21
741.6073350736697
 31
0.0
  0
LINE
  5
A0
330
1F
100
AcDbEntity
  8
Make2D$可见线$普通线
100
AcDbLine
 10
856.1935146457872
 20
741.607335073669
 30
0.0
 11
856.179746079602
 21
741.607335073669
 31
0.0
  0
LINE
  5
A1
330
1F
100
AcDbEntity
  8
Make2D$可见线$普通线
100
AcDbLine
 10
856.8281192286149
 20
741.6073350736694
 30
0.0
 11
856.6558579540688
 21
741.607335073669
 31
0.0
  0
LINE
  5
A2
330
1F
100
AcDbEntity
  8
Make2D$可见线$普通线
100
AcDbLine
 10
859.2473247657776
 20
741.607335073669
 30
0.0
 11
857.4264654829444
 21
741.6073350736692
 31
0.0
  0
LINE
  5
A3
330
1F
100
AcDbEntity
  8
Make2D$可见线$普通线
100
AcDbLine
 10
804.5649132511999
 20
705.6077341342275
 30
0.0
 11
804.9608231221482
 21
707.6073435132396
 31
0.0
  0
ARC
  5
A4
330
1F
100
AcDbEntity
  8
Make2D$可见线$普通线
100
AcDbCircle
 10
808.6059609309164
 20
378.6073427298923
 30
0.0
 40
6.000003914131949
100
AcDbArc
 50
180.6152440977815
 51
183.1291929712683
  0
ARC
  5
A5
330
1F
100
AcDbEntity
  8
Make2D$可见线$普通线
100
AcDbCircle
 10
808.6102580763159
 20
378.607342041436
 30
0.0
 40
6.000004252177332
100
AcDbArc
 50
180.6114154523994
 51
224.8362537444069
  0
ARC
  5
A6
330
1F
100
AcDbEntity
  8
Make2D$可见线$普通线
100
AcDbCircle
 10
808.610246336387
 20
378.6073304502125
 30
0.0
 40
5.999987754319701
100
AcDbArc
 50
224.8367604295549
 51
267.3671464776177
  0
LINE
  5
A7
330
1F
100
AcDbEntity
  8
Make2D$可见线$普通线
100
AcDbLine
 10
802.600881486032
 20
378.5430143241642
 30
0.0
 11
799.0889058932444
 21
703.5855985249455
 31
0.0
  0
ARC
  5
A8
330
1F
100
AcDbEntity
  8
Make2D$可见线$普通线
100
AcDbCircle
 10
801.0941349479687
 20
703.6073442656539
 30
0.0
 40
1.999998464737033
100
AcDbArc
 50
90.00913663162477
 51
180.6208892550694
  0
ARC
  5
A9
330
1F
100
AcDbEntity
  8
Make2D$可见线$普通线
100
AcDbCircle
 10
907.6861984904577
 20
344.3711128264005
 30
0.0
 40
29.99999750951423
100
AcDbArc
 50
277.4999724692849
 51
359.9999232830942
  0
SPLINE
  5
AA
330
1F
100
AcDbEntity
  8
Make2D$可见线$普通线
100
AcDbSpline
210
0.0
220
0.0
230
1.0
 70
    12
 71
     3
 72
    20
 73
    16
 74
     0
 42
0.000000001
 43
0.0000000001
 12
1.0
 22
0.0
 32
0.0
 13
1.0
 23
0.0
 33
0.0
 40
0.0
 40
0.0
 40
0.0
 40
0.0
 40
7.700565551339821
 40
7.700565551339821
 40
7.700565551339821
 40
27.98631211338006
 40
27.98631211338006
 40
27.98631211338006
 40
33.44885119249841
 40
33.44885119249841
 40
33.44885119249841
 40
86.02048658124056
 40
86.02048658124056
 40
86.02048658124056
 40
113.9195312580364
 40
113.9195312580364
 40
113.9195312580364
 40
113.9195312580364
 10
766.1055261982578
 20
116.8351235000193
 30
0.0
 41
1.0
 10
766.2945842068591
 20
114.275228819335
 30
0.0
 41
0.9999911710471375
 10
766.4968142646085
 20
111.7163410315344
 30
0.0
 41
0.9999911710471375
 10
766.7122110150673
 20
109.1585279135165
 30
0.0
 41
1.0
 10
767.2857364118353
 20
102.4208982816374
 30
0.0
 41
0.9999776557520305
 10
767.9144050308382
 20
95.68819490213956
 30
0.0
 41
0.9999776557573566
 10
768.5981751408899
 20
88.9608642676908
 30
0.0
 41
1.000000000015982
 10
768.7597612999375
 20
87.35970068910001
 30
0.0
 41
1.000000000015982
 10
768.934977447409
 20
85.64493302458732
 30
0.0
 41
1.000000000015982
 10
769.1242745930981
 20
83.81360689629355
 30
0.0
 41
1.000000000015982
 10
770.8404720957401
 20
67.2105180517251
 30
0.0
 41
1.000000000015982
 10
772.7359552441239
 20
50.51104140434973
 30
0.0
 41
1.000000000015982
 10
774.5638832840677
 20
33.25011192843658
 30
0.0
 41
1.000000000015982
 10
775.552978853669
 20
24.00309663428195
 30
0.0
 41
0.9999822783341192
 10
776.4746245542697
 20
14.74911526955679
 30
0.0
 41
0.9999822783341189
 10
777.3287713865343
 20
5.488659822600766
 30
0.0
 41
1.000000000015982
  0
ARC
  5
AB
330
1F
100
AcDbEntity
  8
Make2D$可见线$普通线
100
AcDbCircle
 10
771.4392684548125
 20
110.6441474026218
 30
0.0
 40
4.980638201838675
100
AcDbArc
 50
91.08401733835164
 51
170.7512439794883
  0
ARC
  5
AC
330
1F
100
AcDbEntity
  8
Make2D$可见线$普通线
100
AcDbCircle
 10
933.6861955220368
 20
368.6073427301169
 30
0.0
 40
3.999999999999773
100
AcDbArc
 50
359.9999999999968
 51
90.0000000004527
  0
LINE
  5
AD
330
1F
100
AcDbEntity
  8
Make2D$可见线$普通线
100
AcDbLine
 10
937.6861955220365
 20
344.384513799087
 30
0.0
 11
937.6861955220365
 21
368.6073427301167
 31
0.0
  0
LINE
  5
AE
330
1F
100
AcDbEntity
  8
Make2D$可见线$普通线
100
AcDbLine
 10
841.7526331949421
 20
305.4319272940415
 30
0.0
 11
911.6012575473537
 21
314.6276731414207
 31
0.0
  0
LINE
  5
AF
330
1F
100
AcDbEntity
  8
Make2D$可见线$普通线
100
AcDbLine
 10
827.6861955220365
 20
118.6504091490581
 30
0.0
 11
827.6861955220365
 21
118.5727372563165
 31
0.0
  0
LINE
  5
B0
330
1F
100
AcDbEntity
  8
Make2D$可见线$普通线
100
AcDbLine
 10
827.6861955220365
 20
118.6935376604767
 30
0.0
 11
827.6861955220365
 21
118.6833748741005
 31
0.0
  0
LINE
  5
B1
330
1F
100
AcDbEntity
  8
Make2D$可见线$普通线
100
AcDbLine
 10
827.6861955220365
 20
118.7837331723113
 30
0.0
 11
827.6861955220365
 21
118.7710867166841
 31
0.0
  0
LINE
  5
B2
330
1F
100
AcDbEntity
  8
Make2D$可见线$普通线
100
AcDbLine
 10
827.6861955220365
 20
118.8999429845537
 30
0.0
 11
827.6861955220365
 21
118.8852034379888
 31
0.0
  0
LINE
  5
B3
330
1F
100
AcDbEntity
  8
Make2D$可见线$普通线
100
AcDbLine
 10
827.6861955220365
 20
119.042727200715
 30
0.0
 11
827.6861955220365
 21
119.0262777072933
 31
0.0
  0
LINE
  5
B4
330
1F
100
AcDbEntity
  8
Make2D$可见线$普通线
100
AcDbLine
 10
827.6861955220365
 20
119.2126168122256
 30
0.0
 11
827.6861955220365
 21
119.1948312359336
 31
0.0
  0
LINE
  5
B5
330
1F
100
AcDbEntity
  8
Make2D$可见线$普通线
100
AcDbLine
 10
827.6861955220365
 20
119.4101108735078
 30
0.0
 11
827.6861955220365
 21
119.3913519295481
 31
0.0
  0
LINE
  5
B6
330
1F
100
AcDbEntity
  8
Make2D$可见线$普通线
100
AcDbLine
 10
827.6861955220365
 20
119.6356736835833
 30
0.0
 11
827.6861955220365
 21
119.616291063759
 31
0.0
  0
LINE
  5
B7
330
1F
100
AcDbEntity
  8
Make2D$可见线$普通线
100
AcDbLine
 10
827.6861955220365
 20
119.889731992828
 30
0.0
 11
827.6861955220365
 21
119.8700605033757
 31
0.0
  0
LINE
  5
B8
330
1F
100
AcDbEntity
  8
Make2D$可见线$普通线
100
AcDbLine
 10
827.6861955220365
 20
120.1726722544299
 30
0.0
 11
827.6861955220365
 21
120.1530298409052
 31
0.0
  0
LINE
  5
B9
330
1F
100
AcDbEntity
  8
Make2D$可见线$普通线
100
AcDbLine
 10
827.6861955220365
 20
120.4848379409632
 30
0.0
 11
827.6861955220365
 21
120.4655240998816
 31
0.0
  0
LINE
  5
BA
330
1F
100
AcDbEntity
  8
Make2D$可见线$普通线
100
AcDbLine
 10
827.6861955220365
 20
120.8265269471424
 30
0.0
 11
827.6861955220365
 21
120.8078207515209
 31
0.0
  0
LINE
  5
BB
330
1F
100
AcDbEntity
  8
Make2D$可见线$普通线
100
AcDbLine
 10
827.6861955220365
 20
121.1979891002677
 30
0.0
 11
827.6861955220365
 21
121.1801475511363
 31
0.0
  0
LINE
  5
BC
330
1F
100
AcDbEntity
  8
Make2D$可见线$普通线
100
AcDbLine
 10
827.6861955220365
 20
121.5994238001465
 30
0.0
 11
827.6861955220365
 21
121.5826801956403
 31
0.0
  0
LINE
  5
BD
330
1F
100
AcDbEntity
  8
Make2D$可见线$普通线
100
AcDbLine
 10
827.6861955220365
 20
122.030977810258
 30
0.0
 11
827.6861955220365
 21
122.0155402118687
 31
0.0
  0
LINE
  5
BE
330
1F
100
AcDbEntity
  8
Make2D$可见线$普通线
100
AcDbLine
 10
827.6861955220361
 20
122.4927432217039
 30
0.0
 11
827.6861955220361
 21
122.4787930335788
 31
0.0
  0
LINE
  5
BF
330
1F
100
AcDbEntity
  8
Make2D$可见线$普通线
100
AcDbLine
 10
827.6861955220365
 20
122.9847556109837
 30
0.0
 11
827.6861955220365
 21
122.9724462877614
 31
0.0
  0
LINE
  5
C0
330
1F
100
AcDbEntity
  8
Make2D$可见线$普通线
100
AcDbLine
 10
827.6861955220361
 20
123.5069924118386
 30
0.0
 11
827.6861955220365
 21
123.2306592836867
 31
0.0
  0
LINE
  5
C1
330
1F
100
AcDbEntity
  8
Make2D$可见线$普通线
100
AcDbLine
 10
827.6861955220361
 20
124.0593715203752
 30
0.0
 11
827.6861955220365
 21
123.7697974829266
 31
0.0
  0
LINE
  5
C2
330
1F
100
AcDbEntity
  8
Make2D$可见线$普通线
100
AcDbLine
 10
827.6861955220365
 20
126.9128179939487
 30
0.0
 11
827.6861955220365
 21
124.3390930141547
 31
0.0
  0
LINE
  5
C3
330
1F
100
AcDbEntity
  8
Make2D$可见线$普通线
100
AcDbLine
 10
827.6861955220361
 20
129.9414498229355
 30
0.0
 11
827.6861955220361
 21
129.8733685326849
 31
0.0
  0
LINE
  5
C4
330
1F
100
AcDbEntity
  8
Make2D$可见线$普通线
100
AcDbLine
 10
827.6861955220365
 20
130.7654831549926
 30
0.0
 11
827.6861955220365
 21
130.7337193000856
 31
0.0
  0
LINE
  5
C5
330
1F
100
AcDbEntity
  8
Make2D$可见线$普通线
100
AcDbLine
 10
827.6861955220361
 20
131.1789131348592
 30
0.0
 11
827.6861955220361
 21
131.1442858979831
 31
0.0
  0
LINE
  5
C6
330
1F
100
AcDbEntity
  8
Make2D$可见线$普通线
100
AcDbLine
 10
827.6861955220361
 20
131.6062753340229
 30
0.0
 11
827.6861955220365
 21
131.5606963399641
 31
0.0
  0
LINE
  5
C7
330
1F
100
AcDbEntity
  8
Make2D$可见线$普通线
100
AcDbLine
 10
827.6861955220365
 20
132.0398368137121
 30
0.0
 11
827.6861955220361
 21
131.6762586949621
 31
0.0
  0
LINE
  5
C8
330
1F
100
AcDbEntity
  8
Make2D$可见线$普通线
100
AcDbLine
 10
827.6861955220361
 20
132.4794956576677
 30
0.0
 11
827.6861955220361
 21
132.1897586355678
 31
0.0
  0
LINE
  5
C9
330
1F
100
AcDbEntity
  8
Make2D$可见线$普通线
100
AcDbLine
 10
827.6861955220361
 20
132.9251467486879
 30
0.0
 11
827.6861955220361
 21
132.7279486693058
 31
0.0
  0
LINE
  5
CA
330
1F
100
AcDbEntity
  8
Make2D$可见线$普通线
100
AcDbLine
 10
827.6861955220365
 20
133.3766818519921
 30
0.0
 11
827.6861955220361
 21
133.282771173522
 31
0.0
  0
LINE
  5
CB
330
1F
100
AcDbEntity
  8
Make2D$可见线$普通线
100
AcDbLine
 10
827.6861955220361
 20
133.8339897026335
 30
0.0
 11
827.6861955220365
 21
133.726873584003
 31
0.0
  0
LINE
  5
CC
330
1F
100
AcDbEntity
  8
Make2D$可见线$普通线
100
AcDbLine
 10
827.6861955220365
 20
134.2969560968036
 30
0.0
 11
827.6861955220361
 21
134.1761908382343
 31
0.0
  0
LINE
  5
CD
330
1F
100
AcDbEntity
  8
Make2D$可见线$普通线
100
AcDbLine
 10
827.6861955220365
 20
134.7751208536135
 30
0.0
 11
827.6861955220361
 21
134.4873782980212
 31
0.0
  0
LINE
  5
CE
330
1F
100
AcDbEntity
  8
Make2D$可见线$普通线
100
AcDbLine
 10
827.6861955220365
 20
135.2488829746069
 30
0.0
 11
827.6861955220365
 21
135.0900137585793
 31
0.0
  0
LINE
  5
CF
330
1F
100
AcDbEntity
  8
Make2D$可见线$普通线
100
AcDbLine
 10
827.6861955220365
 20
135.727855930151
 30
0.0
 11
827.6861955220361
 21
135.5542859004308
 31
0.0
  0
LINE
  5
D0
330
1F
100
AcDbEntity
  8
Make2D$可见线$普通线
100
AcDbLine
 10
827.6861955220365
 20
136.2119123995737
 30
0.0
 11
827.6861955220365
 21
136.0233060341532
 31
0.0
  0
LINE
  5
D1
330
1F
100
AcDbEntity
  8
Make2D$可见线$普通线
100
AcDbLine
 10
827.6861955220365
 20
136.7009227690917
 30
0.0
 11
827.6861955220361
 21
136.4550426185124
 31
0.0
  0
LINE
  5
D2
330
1F
100
AcDbEntity
  8
Make2D$可见线$普通线
100
AcDbLine
 10
827.6861955220365
 20
137.1868428459247
 30
0.0
 11
827.6861955220361
 21
136.9751013318207
 31
0.0
  0
LINE
  5
D3
330
1F
100
AcDbEntity
  8
Make2D$可见线$普通线
100
AcDbLine
 10
827.6861955220361
 20
143.7162788189507
 30
0.0
 11
827.6861955220361
 21
141.7651195476792
 31
0.0
  0
LINE
  5
D4
330
1F
100
AcDbEntity
  8
Make2D$可见线$普通线
100
AcDbLine
 10
827.6861955220365
 20
144.0693249679002
 30
0.0
 11
827.6861955220365
 21
143.9902028585436
 31
0.0
  0
LINE
  5
D5
330
1F
100
AcDbEntity
  8
Make2D$可见线$普通线
100
AcDbLine
 10
827.6861955220365
 20
145.6377692894432
 30
0.0
 11
827.6861955220365
 21
145.0984818467236
 31
0.0
  0
LINE
  5
D6
330
1F
100
AcDbEntity
  8
Make2D$可见线$普通线
100
AcDbLine
 10
827.6861955220361
 20
146.2027543476206
 30
0.0
 11
827.6861955220361
 21
145.652452463909
 31
0.0
  0
LINE
  5
D7
330
1F
100
AcDbEntity
  8
Make2D$可见线$普通线
100
AcDbLine
 10
827.6861955220365
 20
147.2817355721081
 30
0.0
 11
827.6861955220365
 21
146.7482320041422
 31
0.0
  0
LINE
  5
D8
330
1F
100
AcDbEntity
  8
Make2D$可见线$普通线
100
AcDbLine
 10
827.6861955220365
 20
147.3286071954735
 30
0.0
 11
827.6861955220365
 21
147.3066394478478
 31
0.0
  0
LINE
  5
D9
330
1F
100
AcDbEntity
  8
Make2D$可见线$普通线
100
AcDbLine
 10
827.6861955220365
 20
147.8915715858611
 30
0.0
 11
827.6861955220365
 21
147.8669650276904
 31
0.0
  0
LINE
  5
DA
330
1F
100
AcDbEntity
  8
Make2D$可见线$普通线
100
AcDbLine
 10
827.6861955220361
 20
149.7009382809892
 30
0.0
 11
827.6861955220365
 21
148.4290597907018
 31
0.0
  0
LINE
  5
DB
330
1F
100
AcDbEntity
  8
Make2D$可见线$普通线
100
AcDbLine
 10
827.6861955220365
 20
150.7315013709804
 30
0.0
 11
827.6861955220365
 21
150.6921728199707
 31
0.0
  0
LINE
  5
DC
330
1F
100
AcDbEntity
  8
Make2D$可见线$普通线
100
AcDbLine
 10
827.6861955220365
 20
151.8764239657705
 30
0.0
 11
827.6861955220365
 21
151.8305216810998
 31
0.0
  0
LINE
  5
DD
330
1F
100
AcDbEntity
  8
Make2D$可见线$普通线
100
AcDbLine
 10
827.6861955220365
 20
153.8591145014229
 30
0.0
 11
827.6861955220365
 21
152.9718626430533
 31
0.0
  0
LINE
  5
DE
330
1F
100
AcDbEntity
  8
Make2D$可见线$普通线
100
AcDbLine
 10
827.6861955220365
 20
154.4156456134035
 30
0.0
 11
827.6861955220365
 21
154.1150682208765
 31
0.0
  0
LINE
  5
DF
330
1F
100
AcDbEntity
  8
Make2D$可见线$普通线
100
AcDbLine
 10
827.6861955220365
 20
155.3699712327511
 30
0.0
 11
827.6861955220365
 21
155.2590341770929
 31
0.0
  0
LINE
  5
E0
330
1F
100
AcDbEntity
  8
Make2D$可见线$普通线
100
AcDbLine
 10
827.6861955220365
 20
156.4784011011661
 30
0.0
 11
827.6861955220365
 21
156.4026822530525
 31
0.0
  0
LINE
  5
E1
330
1F
100
AcDbEntity
  8
Make2D$可见线$普通线
100
AcDbLine
 10
827.6861955220365
 20
157.6289209708823
 30
0.0
 11
827.6861955220365
 21
157.5449626838924
 31
0.0
  0
LINE
  5
E2
330
1F
100
AcDbEntity
  8
Make2D$可见线$普通线
100
AcDbLine
 10
827.6861955220365
 20
159.193742160172
 30
0.0
 11
827.6861955220365
 21
158.6848561454817
 31
0.0
  0
LINE
  5
E3
330
1F
100
AcDbEntity
  8
Make2D$可见线$普通线
100
AcDbLine
 10
827.6861955220365
 20
160.1468575020072
 30
0.0
 11
827.6861955220365
 21
159.8213768437492
 31
0.0
  0
LINE
  5
E4
330
1F
100
AcDbEntity
  8
Make2D$可见线$普通线
100
AcDbLine
 10
827.6861955220365
 20
162.0438316707043
 30
0.0
 11
827.6861955220365
 21
160.9535727313605
 31
0.0
  0
LINE
  5
E5
330
1F
100
AcDbEntity
  8
Make2D$可见线$普通线
100
AcDbLine
 10
827.6861955220365
 20
162.9861290887363
 30
0.0
 11
827.6861955220365
 21
162.0805283914344
 31
0.0
  0
LINE
  5
E6
330
1F
100
AcDbEntity
  8
Make2D$可见线$普通线
100
AcDbLine
 10
827.6861955220365
 20
163.6970166173255
 30
0.0
 11
827.6861955220365
 21
163.2013658225728
 31
0.0
  0
LINE
  5
E7
330
1F
100
AcDbEntity
  8
Make2D$可见线$普通线
100
AcDbLine
 10
827.6861955220365
 20
165.4213680569205
 30
0.0
 11
827.6861955220365
 21
164.3152456568052
 31
0.0
  0
LINE
  5
E8
330
1F
100
AcDbEntity
  8
Make2D$可见线$普通线
100
AcDbLine
 10
827.6861955220365
 20
166.1851826742577
 30
0.0
 11
827.6861955220365
 21
165.5692803994496
 31
0.0
  0
LINE
  5
E9
330
1F
100
AcDbEntity
  8
Make2D$可见线$普通线
100
AcDbLine
 10
827.6861955220365
 20
166.9117124199529
 30
0.0
 11
827.6861955220365
 21
166.6766249528437
 31
0.0
  0
LINE
  5
EA
330
1F
100
AcDbEntity
  8
Make2D$可见线$普通线
100
AcDbLine
 10
827.6861955220365
 20
168.00992522968
 30
0.0
 11
827.6861955220365
 21
167.7748094007554
 31
0.0
  0
LINE
  5
EB
330
1F
100
AcDbEntity
  8
Make2D$可见线$普通线
100
AcDbLine
 10
827.6861955220365
 20
169.4351327319926
 30
0.0
 11
827.6861955220365
 21
168.695712099603
 31
0.0
  0
LINE
  5
EC
330
1F
100
AcDbEntity
  8
Make2D$可见线$普通线
100
AcDbLine
 10
827.6861955220365
 20
170.3600105345829
 30
0.0
 11
827.6861955220365
 21
169.793317413601
 31
0.0
  0
LINE
  5
ED
330
1F
100
AcDbEntity
  8
Make2D$可见线$普通线
100
AcDbLine
 10
827.6861955220365
 20
171.3581468715079
 30
0.0
 11
827.6861955220365
 21
170.8994398791731
 31
0.0
  0
LINE
  5
EE
330
1F
100
AcDbEntity
  8
Make2D$可见线$普通线
100
AcDbLine
 10
827.6861955220365
 20
172.4894884761477
 30
0.0
 11
827.6861955220365
 21
172.0133195606684
 31
0.0
  0
LINE
  5
EF
330
1F
100
AcDbEntity
  8
Make2D$可见线$普通线
100
AcDbLine
 10
827.6861955220365
 20
173.6270664454685
 30
0.0
 11
827.6861955220365
 21
173.1708537915522
 31
0.0
  0
LINE
  5
F0
330
1F
100
AcDbEntity
  8
Make2D$可见线$普通线
100
AcDbLine
 10
827.6861955220365
 20
177.6697227332797
 30
0.0
 11
827.6861955220365
 21
174.2611127278099
 31
0.0
  0
LINE
  5
F1
330
1F
100
AcDbEntity
  8
Make2D$可见线$普通线
100
AcDbLine
 10
827.6861955220365
 20
178.812003165838
 30
0.0
 11
827.6861955220365
 21
177.9323090725741
 31
0.0
  0
LINE
  5
F2
330
1F
100
AcDbEntity
  8
Make2D$可见线$普通线
100
AcDbLine
 10
827.6861955220365
 20
183.384163838678
 30
0.0
 11
827.6861955220365
 21
178.88882946494
 31
0.0
  0
LINE
  5
F3
330
1F
100
AcDbEntity
  8
Make2D$可见线$普通线
100
AcDbLine
 10
827.6861955220365
 20
184.522512532518
 30
0.0
 11
827.6861955220365
 21
183.9862947361889
 31
0.0
  0
LINE
  5
F4
330
1F
100
AcDbEntity
  8
Make2D$可见线$普通线
100
AcDbLine
 10
827.6861955220365
 20
185.6567215907287
 30
0.0
 11
827.6861955220365
 21
185.13130326804
 31
0.0
  0
LINE
  5
F5
330
1F
100
AcDbEntity
  8
Make2D$可见线$普通线
100
AcDbLine
 10
827.6861955220365
 20
186.7856256656314
 30
0.0
 11
827.6861955220365
 21
186.2709382289934
 31
0.0
  0
LINE
  5
F6
330
1F
100
AcDbEntity
  8
Make2D$可见线$普通线
100
AcDbLine
 10
827.6861955220365
 20
187.9080460096059
 30
0.0
 11
827.6861955220365
 21
187.5937896019791
 31
0.0
  0
LINE
  5
F7
330
1F
100
AcDbEntity
  8
Make2D$可见线$普通线
100
AcDbLine
 10
827.6861955220365
 20
189.0227934035731
 30
0.0
 11
827.6861955220365
 21
188.6855865333641
 31
0.0
  0
LINE
  5
F8
330
1F
100
AcDbEntity
  8
Make2D$可见线$普通线
100
AcDbLine
 10
827.6861955220365
 20
190.0429426211997
 30
0.0
 11
827.6861955220365
 21
189.7696095393862
 31
0.0
  0
LINE
  5
F9
330
1F
100
AcDbEntity
  8
Make2D$可见线$普通线
100
AcDbLine
 10
827.6861955220365
 20
191.2244826096926
 30
0.0
 11
827.6861955220365
 21
190.8447304717051
 31
0.0
  0
LINE
  5
FA
330
1F
100
AcDbEntity
  8
Make2D$可见线$普通线
100
AcDbLine
 10
827.6861955220365
 20
192.3090275766028
 30
0.0
 11
827.6861955220365
 21
191.9098186831886
 31
0.0
  0
LINE
  5
FB
330
1F
100
AcDbEntity
  8
Make2D$可见线$普通线
100
AcDbLine
 10
827.6861955220365
 20
193.3811137555119
 30
0.0
 11
827.6861955220365
 21
192.9288335558535
 31
0.0
  0
LINE
  5
FC
330
1F
100
AcDbEntity
  8
Make2D$可见线$普通线
100
AcDbLine
 10
827.6861955220365
 20
193.9121143272621
 30
0.0
 11
827.6861955220365
 21
193.449565914337
 31
0.0
  0
LINE
  5
FD
330
1F
100
AcDbEntity
  8
Make2D$可见线$普通线
100
AcDbLine
 10
827.6861955220365
 20
194.9632961385835
 30
0.0
 11
827.6861955220365
 21
193.9972931566504
 31
0.0
  0
LINE
  5
FE
330
1F
100
AcDbEntity
  8
Make2D$可见线$普通线
100
AcDbLine
 10
827.6861955220365
 20
195.4831865786634
 30
0.0
 11
827.6861955220365
 21
195.0336178478271
 31
0.0
  0
LINE
  5
FF
330
1F
100
AcDbEntity
  8
Make2D$可见线$普通线
100
AcDbLine
 10
827.6861955220365
 20
195.8385941454997
 30
0.0
 11
827.6861955220365
 21
195.5423629695831
 31
0.0
  0
LINE
  5
100
330
1F
100
AcDbEntity
  8
Make2D$可见线$普通线
100
AcDbLine
 10
827.6861955220365
 20
196.0882724170626
 30
0.0
 11
827.6861955220365
 21
196.0473440379599
 31
0.0
  0
LINE
  5
101
330
1F
100
AcDbEntity
  8
Make2D$可见线$普通线
100
AcDbLine
 10
827.6861955220365
 20
196.5987208721631
 30
0.0
 11
827.6861955220365
 21
196.5484254711087
 31
0.0
  0
LINE
  5
102
330
1F
100
AcDbEntity
  8
Make2D$可见线$普通线
100
AcDbLine
 10
827.6861955220361
 20
197.3394204283263
 30
0.0
 11
827.6861955220365
 21
197.0454729040182
 31
0.0
  0
LINE
  5
103
330
1F
100
AcDbEntity
  8
Make2D$可见线$普通线
100
AcDbLine
 10
827.6861955220365
 20
197.6118317868622
 30
0.0
 11
827.6861955220365
 21
197.5383533035874
 31
0.0
  0
LINE
  5
104
330
1F
100
AcDbEntity
  8
Make2D$可见线$普通线
100
AcDbLine
 10
827.6861955220365
 20
199.0027730690078
 30
0.0
 11
827.6861955220365
 21
198.5137626904686
 31
0.0
  0
LINE
  5
105
330
1F
100
AcDbEntity
  8
Make2D$可见线$普通线
100
AcDbLine
 10
827.6861955220365
 20
199.4868295629039
 30
0.0
 11
827.6861955220365
 21
199.4378234272779
 31
0.0
  0
LINE
  5
106
330
1F
100
AcDbEntity
  8
Make2D$可见线$普通线
100
AcDbLine
 10
827.6861955220365
 20
199.9658025586773
 30
0.0
 11
827.6861955220365
 21
199.9357011792324
 31
0.0
  0
LINE
  5
107
330
1F
100
AcDbEntity
  8
Make2D$可见线$普通线
100
AcDbLine
 10
827.6861955220365
 20
200.4395645164479
 30
0.0
 11
827.6861955220365
 21
200.4008745210729
 31
0.0
  0
LINE
  5
108
330
1F
100
AcDbEntity
  8
Make2D$可见线$普通线
100
AcDbLine
 10
827.6861955220365
 20
200.907990964977
 30
0.0
 11
827.6861955220361
 21
200.5282007199485
 31
0.0
  0
LINE
  5
109
330
1F
100
AcDbEntity
  8
Make2D$可见线$普通线
100
AcDbLine
 10
827.6861955220365
 20
201.3709591922359
 30
0.0
 11
827.6861955220365
 21
201.3159482460062
 31
0.0
  0
LINE
  5
10A
330
1F
100
AcDbEntity
  8
Make2D$可见线$普通线
100
AcDbLine
 10
827.6861955220361
 20
201.8283494783682
 30
0.0
 11
827.6861955220365
 21
201.7656141856717
 31
0.0
  0
LINE
  5
10B
330
1F
100
AcDbEntity
  8
Make2D$可见线$普通线
100
AcDbLine
 10
827.6861955220365
 20
202.2800447742666
 30
0.0
 11
827.6861955220365
 21
202.209880490992
 31
0.0
  0
LINE
  5
10C
330
1F
100
AcDbEntity
  8
Make2D$可见线$普通线
100
AcDbLine
 10
827.6861955220361
 20
202.7259308456512
 30
0.0
 11
827.6861955220361
 21
202.3646425649397
 31
0.0
  0
LINE
  5
10D
330
1F
100
AcDbEntity
  8
Make2D$可见线$普通线
100
AcDbLine
 10
827.6861955220361
 20
203.1658963777925
 30
0.0
 11
827.6861955220361
 21
203.0249268173507
 31
0.0
  0
LINE
  5
10E
330
1F
100
AcDbEntity
  8
Make2D$可见线$普通线
100
AcDbLine
 10
827.6861955220365
 20
203.5998330681161
 30
0.0
 11
827.6861955220365
 21
203.509183029719
 31
0.0
  0
LINE
  5
10F
330
1F
100
AcDbEntity
  8
Make2D$可见线$普通线
100
AcDbLine
 10
827.6861955220365
 20
204.0276357149826
 30
0.0
 11
827.6861955220365
 21
203.9307655461944
 31
0.0
  0
LINE
  5
110
330
1F
100
AcDbEntity
  8
Make2D$可见线$普通线
100
AcDbLine
 10
827.6861955220365
 20
204.4492023024845
 30
0.0
 11
827.6861955220365
 21
204.3464194240487
 31
0.0
  0
LINE
  5
111
330
1F
100
AcDbEntity
  8
Make2D$可见线$普通线
100
AcDbLine
 10
827.6861955220361
 20
204.8644340811209
 30
0.0
 11
827.6861955220361
 21
204.756047327639
 31
0.0
  0
LINE
  5
112
330
1F
100
AcDbEntity
  8
Make2D$可见线$普通线
100
AcDbLine
 10
827.6861955220361
 20
205.273235644212
 30
0.0
 11
827.6861955220365
 21
205.1595549281958
 31
0.0
  0
LINE
  5
113
330
1F
100
AcDbEntity
  8
Make2D$可见线$普通线
100
AcDbLine
 10
827.6861955220361
 20
205.6755149999299
 30
0.0
 11
827.6861955220361
 21
205.55685097589
 31
0.0
  0
LINE
  5
114
330
1F
100
AcDbEntity
  8
Make2D$可见线$普通线
100
AcDbLine
 10
827.6861955220361
 20
206.0711836388339
 30
0.0
 11
827.6861955220361
 21
205.9478473680394
 31
0.0
  0
LINE
  5
115
330
1F
100
AcDbEntity
  8
Make2D$可见线$普通线
100
AcDbLine
 10
827.6861955220361
 20
206.4271717887004
 30
0.0
 11
827.6861955220361
 21
206.3324592133554
 31
0.0
  0
LINE
  5
116
330
1F
100
AcDbEntity
  8
Make2D$可见线$普通线
100
AcDbLine
 10
827.6861955220361
 20
206.8423525134142
 30
0.0
 11
827.6861955220365
 21
206.710604892121
 31
0.0
  0
LINE
  5
117
330
1F
100
AcDbEntity
  8
Make2D$可见线$普通线
100
AcDbLine
 10
827.6861955220361
 20
207.2176936851888
 30
0.0
 11
827.6861955220361
 21
207.0247000697466
 31
0.0
  0
LINE
  5
118
330
1F
100
AcDbEntity
  8
Make2D$可见线$普通线
100
AcDbLine
 10
827.6861955220361
 20
207.5225934775126
 30
0.0
 11
827.6861955220361
 21
207.4471879610155
 31
0.0
  0
LINE
  5
119
330
1F
100
AcDbEntity
  8
Make2D$可见线$普通线
100
AcDbLine
 10
827.6861955220365
 20
207.9228628520957
 30
0.0
 11
827.6861955220365
 21
207.7347813581589
 31
0.0
  0
LINE
  5
11A
330
1F
100
AcDbEntity
  8
Make2D$可见线$普通线
100
AcDbLine
 10
827.6861955220361
 20
208.3018675418284
 30
0.0
 11
827.6861955220361
 21
208.0871825415645
 31
0.0
  0
LINE
  5
11B
330
1F
100
AcDbEntity
  8
Make2D$可见线$普通线
100
AcDbLine
 10
827.6861955220361
 20
208.5972419700988
 30
0.0
 11
827.6861955220361
 21
208.4414940573713
 31
0.0
  0
LINE
  5
11C
330
1F
100
AcDbEntity
  8
Make2D$可见线$普通线
100
AcDbLine
 10
827.6861955220361
 20
208.9891204697492
 30
0.0
 11
827.6861955220361
 21
208.8395442079875
 31
0.0
  0
LINE
  5
11D
330
1F
100
AcDbEntity
  8
Make2D$可见线$普通线
100
AcDbLine
 10
827.6861955220361
 20
209.3219117118279
 30
0.0
 11
827.6861955220361
 21
209.1704268712617
 31
0.0
  0
LINE
  5
11E
330
1F
100
AcDbEntity
  8
Make2D$可见线$普通线
100
AcDbLine
 10
827.6861955220365
 20
209.6474101519102
 30
0.0
 11
827.6861955220361
 21
209.4943140092373
 31
0.0
  0
LINE
  5
11F
330
1F
100
AcDbEntity
  8
Make2D$可见线$普通线
100
AcDbLine
 10
827.6861955220361
 20
209.965568680964
 30
0.0
 11
827.6861955220361
 21
209.8111554493889
 31
0.0
  0
LINE
  5
120
330
1F
100
AcDbEntity
  8
Make2D$可见线$普通线
100
AcDbLine
 10
827.6861955220361
 20
210.2763441069851
 30
0.0
 11
827.6861955220361
 21
210.1209046550237
 31
0.0
  0
LINE
  5
121
330
1F
100
AcDbEntity
  8
Make2D$可见线$普通线
100
AcDbLine
 10
827.6861955220365
 20
210.5796970183089
 30
0.0
 11
827.6861955220361
 21
210.4235187372408
 31
0.0
  0
LINE
  5
122
330
1F
100
AcDbEntity
  8
Make2D$可见线$普通线
100
AcDbLine
 10
827.6861955220361
 20
210.8755923495091
 30
0.0
 11
827.6861955220361
 21
210.7189584624462
 31
0.0
  0
LINE
  5
123
330
1F
100
AcDbEntity
  8
Make2D$可见线$普通线
100
AcDbLine
 10
827.6861955220361
 20
211.1639985206498
 30
0.0
 11
827.6861955220361
 21
211.0071882554528
 31
0.0
  0
LINE
  5
124
330
1F
100
AcDbEntity
  8
Make2D$可见线$普通线
100
AcDbLine
 10
827.6861955220361
 20
211.4448880187349
 30
0.0
 11
827.6861955220365
 21
211.2881761982137
 31
0.0
  0
LINE
  5
125
330
1F
100
AcDbEntity
  8
Make2D$可见线$普通线
100
AcDbLine
 10
827.6861955220361
 20
211.9840261764029
 30
0.0
 11
827.6861955220361
 21
211.828317108696
 31
0.0
  0
LINE
  5
126
330
1F
100
AcDbEntity
  8
Make2D$可见线$普通线
100
AcDbLine
 10
827.6861955220361
 20
212.4928640294002
 30
0.0
 11
827.6861955220361
 21
212.3391986739359
 31
0.0
  0
LINE
  5
127
330
1F
100
AcDbEntity
  8
Make2D$可见线$普通线
100
AcDbLine
 10
827.6861955220361
 20
212.9862251091092
 30
0.0
 11
827.6861955220361
 21
212.820696093831
 31
0.0
  0
LINE
  5
128
330
1F
100
AcDbEntity
  8
Make2D$可见线$普通线
100
AcDbLine
 10
827.6861955220361
 20
213.4299007470936
 30
0.0
 11
827.6861955220365
 21
213.2727415167956
 31
0.0
  0
LINE
  5
129
330
1F
100
AcDbEntity
  8
Make2D$可见线$普通线
100
AcDbLine
 10
827.6861955220361
 20
213.8434993736541
 30
0.0
 11
827.6861955220361
 21
213.6953230231247
 31
0.0
  0
LINE
  5
12A
330
1F
100
AcDbEntity
  8
Make2D$可见线$普通线
100
AcDbLine
 10
827.6861955220361
 20
214.2271555545681
 30
0.0
 11
827.6861955220365
 21
214.0884833769951
 31
0.0
  0
LINE
  5
12B
330
1F
100
AcDbEntity
  8
Make2D$可见线$普通线
100
AcDbLine
 10
827.6861955220361
 20
214.5810567248593
 30
0.0
 11
827.6861955220361
 21
214.4523185625333
 31
0.0
  0
LINE
  5
12C
330
1F
100
AcDbEntity
  8
Make2D$可见线$普通线
100
AcDbLine
 10
827.6861955220365
 20
214.9054410100023
 30
0.0
 11
827.6861955220365
 21
214.7869761206396
 31
0.0
  0
LINE
  5
12D
330
1F
100
AcDbEntity
  8
Make2D$可见线$普通线
100
AcDbLine
 10
827.6861955220365
 20
215.2005948935737
 30
0.0
 11
827.6861955220365
 21
215.0926533042834
 31
0.0
  0
LINE
  5
12E
330
1F
100
AcDbEntity
  8
Make2D$可见线$普通线
100
AcDbLine
 10
827.6861955220361
 20
215.4668507530196
 30
0.0
 11
827.6861955220361
 21
215.3695950707752
 31
0.0
  0
LINE
  5
12F
330
1F
100
AcDbEntity
  8
Make2D$可见线$普通线
100
AcDbLine
 10
827.6861955220365
 20
215.7045842852654
 30
0.0
 11
827.6861955220361
 21
215.6180919300632
 31
0.0
  0
LINE
  5
130
330
1F
100
AcDbEntity
  8
Make2D$可见线$普通线
100
AcDbLine
 10
827.6861955220365
 20
215.9142118436682
 30
0.0
 11
827.6861955220361
 21
215.8384776684277
 31
0.0
  0
LINE
  5
131
330
1F
100
AcDbEntity
  8
Make2D$可见线$普通线
100
AcDbLine
 10
827.6861955220365
 20
216.0961877073346
 30
0.0
 11
827.6861955220365
 21
216.0311269670403
 31
0.0
  0
LINE
  5
132
330
1F
100
AcDbEntity
  8
Make2D$可见线$普通线
100
AcDbLine
 10
827.6861955220365
 20
216.2510012996927
 30
0.0
 11
827.6861955220365
 21
216.196452934736
 31
0.0
  0
LINE
  5
133
330
1F
100
AcDbEntity
  8
Make2D$可见线$普通线
100
AcDbLine
 10
757.8115997360933
 20
372.6073141431084
 30
0.0
 11
759.8597269865636
 21
372.6073157085839
 31
0.0
  0
LINE
  5
134
330
1F
100
AcDbEntity
  8
Make2D$可见线$普通线
100
AcDbLine
 10
684.2198784193495
 20
372.6072665538075
 30
0.0
 11
757.1343896896758
 21
372.6073136283583
 31
0.0
  0
LINE
  5
135
330
1F
100
AcDbEntity
  8
Make2D$可见线$普通线
100
AcDbLine
 10
407.5112889595498
 20
372.6340371401513
 30
0.0
 11
407.8917798347179
 21
372.6334505961549
 31
0.0
  0
ARC
  5
136
330
1F
100
AcDbEntity
  8
Make2D$可见线$普通线
100
AcDbCircle
 10
358.6346367413473
 20
-11047.71338470394
 30
0.0
 40
11420.42229795247
100
AcDbArc
 50
89.83362208667812
 51
90.13412278153977
  0
SPLINE
  5
137
330
1F
100
AcDbEntity
  8
Make2D$可见线$普通线
100
AcDbSpline
210
0.0
220
0.0
230
1.0
 70
     8
 71
     3
 72
    68
 73
    64
 74
     0
 42
0.000000001
 43
0.0000000001
 12
1.0
 22
0.0
 32
0.0
 13
1.0
 23
0.0
 33
0.0
 40
226.6672729990564
 40
226.6672729990564
 40
226.6672729990564
 40
226.6672729990564
 40
227.1826702732538
 40
227.1826702732538
 40
227.1826702732538
 40
238.606983213211
 40
238.606983213211
 40
238.606983213211
 40
251.1555111664434
 40
251.1555111664434
 40
251.1555111664434
 40
264.192160468842
 40
264.192160468842
 40
264.192160468842
 40
276.588734094855
 40
276.588734094855
 40
276.588734094855
 40
287.801245624141
 40
287.801245624141
 40
287.801245624141
 40
297.7985588039651
 40
297.7985588039651
 40
297.7985588039651
 40
306.6545342785624
 40
306.6545342785624
 40
306.6545342785624
 40
314.5057647288284
 40
314.5057647288284
 40
314.5057647288284
 40
321.476948042792
 40
321.476948042792
 40
321.476948042792
 40
327.7815970886799
 40
327.7815970886799
 40
327.7815970886799
 40
333.761130673649
 40
333.761130673649
 40
333.761130673649
 40
339.6990763539879
 40
339.6990763539879
 40
339.6990763539879
 40
345.6841938127911
 40
345.6841938127911
 40
345.6841938127911
 40
351.6553694607435
 40
351.6553694607435
 40
351.6553694607435
 40
357.559646233404
 40
357.559646233404
 40
357.559646233404
 40
363.5030673504794
 40
363.5030673504794
 40
363.5030673504794
 40
369.7229529771941
 40
369.7229529771941
 40
369.7229529771941
 40
376.4188669207627
 40
376.4188669207627
 40
376.4188669207627
 40
383.6862950687276
 40
383.6862950687276
 40
383.6862950687276
 40
390.5688775599305
 40
390.5688775599305
 40
390.5688775599305
 40
390.5688775599305
 10
409.9892777378909
 20
372.6301632130353
 30
0.0
 10
410.1581750581877
 20
372.6298933718588
 30
0.0
 10
410.3271051581373
 20
372.6296222291066
 30
0.0
 10
410.4960668908529
 20
372.6293497921674
 30
0.0
 10
414.241731390724
 20
372.6233102152987
 30
0.0
 10
418.0044170762644
 20
372.6166325739464
 30
0.0
 10
421.7772715504857
 20
372.6093784916061
 30
0.0
 10
425.9213536788084
 20
372.6014106483758
 30
0.0
 10
430.0790194214846
 20
372.5927454646448
 30
0.0
 10
434.2423864735761
 20
372.5835977069933
 30
0.0
 10
438.5680291713065
 20
372.5740933969987
 30
0.0
 10
442.9017894197591
 20
372.5640641909254
 30
0.0
 10
447.2388037351279
 20
372.5537766614548
 30
0.0
 10
451.3633376698272
 20
372.543993141891
 30
0.0
 10
455.491142547467
 20
372.5339752458744
 30
0.0
 10
459.620995001037
 20
372.5239148746455
 30
0.0
 10
463.3569602397065
 20
372.5148140175029
 30
0.0
 10
467.0940429638117
 20
372.5056821570311
 30
0.0
 10
470.82993367265
 20
372.4976547370375
 30
0.0
 10
474.162178173859
 20
372.4904946437105
 30
0.0
 10
477.4943217378541
 20
372.484207720297
 30
0.0
 10
480.8260847112956
 20
372.4794741020164
 30
0.0
 10
483.77778103132
 20
372.475280465263
 30
0.0
 10
486.729515718926
 20
372.4723057567985
 30
0.0
 10
489.6813023225031
 20
372.4705089185486
 30
0.0
 10
492.2981928566678
 20
372.4689159412651
 30
0.0
 10
494.9150991054162
 20
372.4682488997164
 30
0.0
 10
497.5320051101321
 20
372.4684710757078
 30
0.0
 10
499.8556036010627
 20
372.4686683498162
 30
0.0
 10
502.1792082791321
 20
372.4695667723704
 30
0.0
 10
504.5028140753898
 20
372.4711214712793
 30
0.0
 10
506.6042711317978
 20
372.4725275329251
 30
0.0
 10
508.7057304922396
 20
372.4744703499823
 30
0.0
 10
510.8071878723554
 20
372.4768642800905
 30
0.0
 10
512.8002874885196
 20
372.4791347716196
 30
0.0
 10
514.7933949703533
 20
372.4818110126303
 30
0.0
 10
516.7865069904506
 20
372.4849434022021
 30
0.0
 10
518.7657624080689
 20
372.4880540146364
 30
0.0
 10
520.7450198436864
 20
372.4916143164405
 30
0.0
 10
522.7242760056397
 20
372.4956168973617
 30
0.0
 10
524.7192770153106
 20
372.4996513185411
 30
0.0
 10
526.714266986964
 20
372.5041351023451
 30
0.0
 10
528.7092433147591
 20
372.5089864969918
 30
0.0
 10
530.6996105133167
 20
372.5138266831323
 30
0.0
 10
532.6899601119153
 20
372.5190329869988
 30
0.0
 10
534.6802903872431
 20
372.5244744577362
 30
0.0
 10
536.6483667778498
 20
372.5298550873836
 30
0.0
 10
538.6164226182464
 20
372.5354659303262
 30
0.0
 10
540.5844568440971
 20
372.5411655860039
 30
0.0
 10
542.5655855253722
 20
372.5469031647458
 30
0.0
 10
544.5466939889466
 20
372.5527309751337
 30
0.0
 10
546.5277815484392
 20
372.5585051087969
 30
0.0
 10
548.6010652941436
 20
372.5645479600648
 30
0.0
 10
550.6743318674876
 20
372.5705321724868
 30
0.0
 10
552.7475807201704
 20
372.5763301143447
 30
0.0
 10
554.9795391897947
 20
372.5825718954115
 30
0.0
 10
557.2114849313348
 20
372.58859773214
 30
0.0
 10
559.4434171221155
 20
372.5943088861081
 30
0.0
 10
561.8658796483674
 20
372.6005075764301
 30
0.0
 10
564.2883334102235
 20
372.60633524168
 30
0.0
 10
566.7107772361501
 20
372.6117441835718
 30
0.0
 10
569.0049573355782
 20
372.6168667324271
 30
0.0
 10
571.2991351917576
 20
372.6216134644228
 30
0.0
 10
573.5933098954429
 20
372.6259732311296
 30
0.0
  0
SPLINE
  5
138
330
1F
100
AcDbEntity
  8
Make2D$可见线$普通线
100
AcDbSpline
210
0.0
220
0.0
230
1.0
 70
     8
 71
     3
 72
    50
 73
    46
 74
     0
 42
0.000000001
 43
0.0000000001
 12
1.0
 22
0.0
 32
0.0
 13
1.0
 23
0.0
 33
0.0
 40
0.0
 40
0.0
 40
0.0
 40
0.0
 40
0.0848840257904652
 40
0.0848840257904652
 40
0.0848840257904652
 40
6.062096117342929
 40
6.062096117342929
 40
6.062096117342929
 40
12.11966919863125
 40
12.11966919863125
 40
12.11966919863125
 40
18.58166814922338
 40
18.58166814922338
 40
18.58166814922338
 40
25.28744772001997
 40
25.28744772001997
 40
25.28744772001997
 40
31.85636812961073
 40
31.85636812961073
 40
31.85636812961073
 40
38.0406525466821
 40
38.0406525466821
 40
38.0406525466821
 40
44.02351601301154
 40
44.02351601301154
 40
44.02351601301154
 40
50.07071698141863
 40
50.07071698141863
 40
50.07071698141863
 40
56.18579629629796
 40
56.18579629629796
 40
56.18579629629796
 40
62.23949063094617
 40
62.23949063094617
 40
62.23949063094617
 40
68.24365331745807
 40
68.24365331745807
 40
68.24365331745807
 40
74.45394542917941
 40
74.45394542917941
 40
74.45394542917941
 40
81.21974527192738
 40
81.21974527192738
 40
81.21974527192738
 40
87.77513777805656
 40
87.77513777805656
 40
87.77513777805656
 40
87.77513777805656
 10
314.6651073839635
 20
372.4374525678181
 30
0.0
 10
314.6929895654632
 20
372.4390280528219
 30
0.0
 10
314.7208717469628
 20
372.4406035378256
 30
0.0
 10
314.7487539284625
 20
372.4421790228294
 30
0.0
 10
314.7596197167531
 20
372.4426582291303
 30
0.0
 10
314.7835292211898
 20
372.4437246271332
 30
0.0
 10
314.819406491978
 20
372.4453678473296
 30
0.0
 10
314.8557667373434
 20
372.4470331883172
 30
0.0
 10
314.9059712014373
 20
372.4493619367854
 30
0.0
 10
314.9690210219824
 20
372.4523176205134
 30
0.0
 10
315.0362815796871
 20
372.4554706974654
 30
0.0
 10
315.1202524472837
 20
372.4594352559002
 30
0.0
 10
315.2195099849355
 20
372.4640822655542
 30
0.0
 10
315.3225152487898
 20
372.4689047351299
 30
0.0
 10
315.4444835993518
 20
372.4745789931226
 30
0.0
 10
315.5838309582696
 20
372.4808294052286
 30
0.0
 10
315.7203407896682
 20
372.4869525403169
 30
0.0
 10
315.8747293389301
 20
372.4936825942
 30
0.0
 10
316.0461555811371
 20
372.5007180854295
 30
0.0
 10
316.2075514862267
 20
372.507341922365
 30
0.0
 10
316.3840883238008
 20
372.5142389803491
 30
0.0
 10
316.5756523589002
 20
372.5211923688344
 30
0.0
 10
316.7609837349814
 20
372.5279195243561
 30
0.0
 10
316.95987379093
 20
372.5346817290515
 30
0.0
 10
317.1726082483087
 20
372.5413523566099
 30
0.0
 10
317.3876399391738
 20
372.5480950175802
 30
0.0
 10
317.6155878184495
 20
372.5547065845235
 30
0.0
 10
317.8556952774311
 20
372.5611630987282
 30
0.0
 10
318.0984719000103
 20
372.5676913870152
 30
0.0
 10
318.3556616172887
 20
372.5741134136065
 30
0.0
 10
318.6315657023601
 20
372.5802719969802
 30
0.0
 10
318.9045011400385
 20
372.586364315795
 30
0.0
 10
319.1968136336368
 20
372.5922189045309
 30
0.0
 10
319.5165350500397
 20
372.5977036011222
 30
0.0
 10
319.8338701752396
 20
372.6031473618164
 30
0.0
 10
320.1773948972686
 20
372.6082170430468
 30
0.0
 10
320.5520989595429
 20
372.6129670117566
 30
0.0
 10
320.9396315271638
 20
372.6178796021336
 30
0.0
 10
321.3603331302288
 20
372.6224479375292
 30
0.0
 10
321.8181072829634
 20
372.6267022183742
 30
0.0
 10
322.31681409356
 20
372.6313369030081
 30
0.0
 10
322.8593199512238
 20
372.6355966343367
 30
0.0
 10
323.4507655768325
 20
372.6395265310598
 30
0.0
 10
324.0237384021848
 20
372.6433336841294
 30
0.0
 10
324.6425996958696
 20
372.6468307782952
 30
0.0
 10
325.311811170599
 20
372.6500495952851
 30
0.0
  0
LINE
  5
139
330
1F
100
AcDbEntity
  8
Make2D$可见线$普通线
100
AcDbLine
 10
379.3814548388223
 20
184.801170238632
 30
0.0
 11
379.1892464947214
 21
185.0849230720783
 31
0.0
  0
LINE
  5
13A
330
1F
100
AcDbEntity
  8
Make2D$可见线$普通线
100
AcDbLine
 10
797.1485713374868
 20
709.677246588238
 30
0.0
 11
797.8308670775896
 21
729.213878282439
 31
0.0
  0
ARC
  5
13B
330
1F
100
AcDbEntity
  8
Make2D$可见线$普通线
100
AcDbCircle
 10
803.8356998702964
 20
729.0042086002654
 30
0.0
 40
5.999980268994316
100
AcDbArc
 50
95.86825365413615
 51
134.8350863432442
  0
ARC
  5
13C
330
1F
100
AcDbEntity
  8
Make2D$可见线$普通线
100
AcDbCircle
 10
803.8357192995405
 20
729.004189327991
 30
0.0
 40
6.000007634675847
100
AcDbArc
 50
134.8353646769449
 51
177.995434290594
  0
ARC
  5
13D
330
1F
100
AcDbEntity
  8
Make2D$可见线$普通线
100
AcDbCircle
 10
943.7649223213638
 20
729.0211529048036
 30
0.0
 40
5.999999153559491
100
AcDbArc
 50
4.305498167216806
 51
14.80810014473699
  0
ARC
  5
13E
330
1F
100
AcDbEntity
  8
Make2D$可见线$普通线
100
AcDbCircle
 10
943.7649215861844
 20
729.0211531109562
 30
0.0
 40
5.999999349507329
100
AcDbArc
 50
84.14029894693904
 51
84.19004110985578
  0
ARC
  5
13F
330
1F
100
AcDbEntity
  8
Make2D$可见线$普通线
100
AcDbCircle
 10
943.7649214748038
 20
729.0211520260455
 30
0.0
 40
6.000000440125134
100
AcDbArc
 50
87.00444799309467
 51
89.57788587062288
  0
ARC
  5
140
330
1F
100
AcDbEntity
  8
Make2D$可见线$普通线
100
AcDbCircle
 10
943.7649223570528
 20
729.0211529084783
 30
0.0
 40
5.999999117695204
100
AcDbArc
 50
359.9935488682017
 51
4.305498146168294
  0
ARC
  5
141
330
1F
100
AcDbEntity
  8
Make2D$可见线$普通线
100
AcDbCircle
 10
943.7649216642178
 20
729.0211525770642
 30
0.0
 40
5.999999872643778
100
AcDbArc
 50
14.80810156901811
 51
84.14029997015881
  0
ARC
  5
142
330
1F
100
AcDbEntity
  8
Make2D$可见线$普通线
100
AcDbCircle
 10
799.1522696107318
 20
709.6073415197293
 30
0.0
 40
1.999998792205973
100
AcDbArc
 50
178.0018771251317
 51
269.8928369465972
  0
ARC
  5
143
330
1F
100
AcDbEntity
  8
Make2D$可见线$普通线
100
AcDbCircle
 10
799.1482293072961
 20
709.6073424301261
 30
0.0
 40
1.999999782282744
100
AcDbArc
 50
230.1608920538235
 51
230.4973558814635
  0
SPLINE
  5
144
330
1F
100
AcDbEntity
  8
Make2D$可见线$普通线
100
AcDbSpline
210
0.0
220
0.0
230
1.0
 70
    12
 71
     3
 72
    38
 73
    34
 74
     0
 42
0.000000001
 43
0.0000000001
 12
1.0
 22
0.0
 32
0.0
 13
1.0
 23
0.0
 33
0.0
 40
0.0593241614947759
 40
0.0593241614947759
 40
0.0593241614947759
 40
0.0593241614947759
 40
0.3218429292408258
 40
0.3218429292408258
 40
0.3218429292408258
 40
0.5887659231365885
 40
0.5887659231365885
 40
0.5887659231365885
 40
0.8318914421034798
 40
0.8318914421034798
 40
0.8318914421034798
 40
1.058513324628296
 40
1.058513324628296
 40
1.058513324628296
 40
1.272950233779695
 40
1.272950233779695
 40
1.272950233779695
 40
1.481274731332106
 40
1.481274731332106
 40
1.481274731332106
 40
1.700230567951379
 40
1.700230567951379
 40
1.700230567951379
 40
1.964468243999495
 40
1.964468243999495
 40
1.964468243999495
 40
2.350468849083341
 40
2.350468849083341
 40
2.350468849083341
 40
3.236334754083772
 40
3.236334754083772
 40
3.236334754083772
 40
4.330121743136392
 40
4.330121743136392
 40
4.330121743136392
 40
4.330121743136392
 10
897.2222174416002
 20
327.3659368823792
 30
0.0
 41
1.0
 10
897.2237328564015
 20
327.2792481633514
 30
0.0
 41
1.0
 10
897.224410166225
 20
327.1921895258656
 30
0.0
 41
1.0
 10
897.224262756637
 20
327.104538019003
 30
0.0
 41
1.0
 10
897.2241129000449
 20
327.0154314941506
 30
0.0
 41
1.0
 10
897.2231072424988
 20
326.9270940765268
 30
0.0
 41
1.0
 10
897.2212268317835
 20
326.8391822240051
 30
0.0
 41
1.0
 10
897.2195127488044
 20
326.7590464276941
 30
0.0
 41
1.0
 10
897.2171012338526
 20
326.6805061747377
 30
0.0
 41
1.0
 10
897.213925401652
 20
326.602639130258
 30
0.0
 41
1.0
 10
897.2109610401394
 20
326.529957056659
 30
0.0
 41
1.0
 10
897.2073937460168
 20
326.4592902049685
 30
0.0
 41
1.0
 10
897.2030724690585
 20
326.3889245525429
 30
0.0
 41
1.0
 10
897.198977729704
 20
326.3222477324712
 30
0.0
 41
1.0
 10
897.194318127396
 20
326.2575669931744
 30
0.0
 41
1.0
 10
897.1888138961476
 20
326.1924493905431
 30
0.0
 41
1.0
 10
897.183497938307
 20
326.1295591494468
 30
0.0
 41
1.0
 10
897.1774392391394
 20
326.0669932343139
 30
0.0
 41
1.0
 10
897.1704566790463
 20
326.0044985402533
 30
0.0
 41
1.0
 10
897.1630729326193
 20
325.9384131836155
 30
0.0
 41
1.0
 10
897.1547746981487
 20
325.8732333384874
 30
0.0
 41
1.0
 10
897.1449575936599
 20
325.8062733803204
 30
0.0
 41
1.0
 10
897.133064621984
 20
325.7251544631504
 30
0.0
 41
1.0
 10
897.1195860207044
 20
325.6455909504807
 30
0.0
 41
1.0
 10
897.1031500108279
 20
325.5624599627959
 30
0.0
 41
1.0
 10
897.0783042456856
 20
325.4361728490879
 30
0.0
 41
0.9993611452579183
 10
897.0479549437199
 20
325.3110942058084
 30
0.0
 41
0.9993611452579184
 10
897.0121602713184
 20
325.1874637542128
 30
0.0
 41
1.0
 10
896.9297770933147
 20
324.9033165686529
 30
0.0
 41
0.9962177761083187
 10
896.817636689452
 20
324.6295445085322
 30
0.0
 41
0.9962177761083191
 10
896.6770114800743
 20
324.3692539755361
 30
0.0
 41
1.0
 10
896.5026920137587
 20
324.0477559007876
 30
0.0
 41
0.9938874665091166
 10
896.2865346451182
 20
323.7527571204769
 30
0.0
 41
0.9938874665091163
 10
896.0325031816164
 20
323.4896672043744
 30
0.0
 41
1.0
  0
ARC
  5
145
330
1F
100
AcDbEntity
  8
Make2D$可见线$普通线
100
AcDbCircle
 10
280.9981165372945
 20
116.9143354807255
 30
0.0
 40
119.5159546824993
100
AcDbArc
 50
24.89272796651405
 51
33.17455409787048
  0
ARC
  5
146
330
1F
100
AcDbEntity
  8
Make2D$可见线$普通线
100
AcDbCircle
 10
243.7637041965064
 20
106.4710068044822
 30
0.0
 40
158.0884443475532
100
AcDbArc
 50
12.26433021461585
 51
15.811388171062
  0
SPLINE
  5
147
330
1F
100
AcDbEntity
  8
Make2D$可见线$普通线
100
AcDbSpline
210
0.0
220
0.0
230
1.0
 70
    12
 71
     2
 72
    18
 73
    15
 74
     0
 42
0.000000001
 43
0.0000000001
 12
1.0
 22
0.0
 32
0.0
 13
1.0
 23
0.0
 33
0.0
 40
0.0
 40
0.0
 40
0.0
 40
12.53774924366011
 40
12.53774924366011
 40
22.53134927057799
 40
22.53134927057799
 40
42.35931274678201
 40
42.35931274678201
 40
62.11094261966016
 40
62.11094261966016
 40
72.00813796608581
 40
72.00813796608581
 40
81.93850161254768
 40
81.93850161254768
 40
97.87249101823181
 40
97.87249101823181
 40
97.87249101823181
 10
341.7995262250797
 20
244.3344093280111
 30
0.0
 41
1.0
 10
339.2997502601363
 20
250.0845224806845
 30
0.0
 41
0.9997343416366843
 10
337.0676260301893
 20
255.9437291305253
 30
0.0
 41
1.0
 10
335.2888005316691
 20
260.6136589052851
 30
0.0
 41
0.9998662356458482
 10
333.6636667906637
 20
265.339270461393
 30
0.0
 41
1.0
 10
330.451033323832
 20
274.7205014537627
 30
0.0
 41
0.9996836477596394
 10
327.7142216887591
 20
284.2514180308049
 30
0.0
 41
1.0
 10
324.9804372007811
 20
293.742317788835
 30
0.0
 41
0.999853650971581
 10
322.5729421463793
 20
303.3211863758193
 30
0.0
 41
1.0
 10
321.3629664343622
 20
308.1196554675851
 30
0.0
 41
0.9999777071172288
 10
320.2171780567393
 20
312.9338548654089
 30
0.0
 41
1.0
 10
319.0675696167061
 20
317.76417267992
 30
0.0
 41
0.9999835961749445
 10
317.9733696260678
 20
322.6073427301105
 30
0.0
 41
1.0
 10
316.2188357101963
 20
330.3783315311971
 30
0.0
 41
0.9999725803811029
 10
314.5795840959731
 20
338.1744530254932
 30
0.0
 41
1.0
  0
SPLINE
  5
148
330
1F
100
AcDbEntity
  8
Make2D$可见线$普通线
100
AcDbSpline
210
0.0
220
0.0
230
1.0
 70
    12
 71
     3
 72
    13
 73
     9
 74
     0
 42
0.000000001
 43
0.0000000001
 12
1.0
 22
0.0
 32
0.0
 13
1.0
 23
0.0
 33
0.0
 40
217.3737718040962
 40
217.3737718040962
 40
217.3737718040962
 40
217.3737718040962
 40
225.4397833053376
 40
225.4397833053376
 40
235.1226220758278
 40
235.1226220758278
 40
235.1226220758278
 40
239.7701996667284
 40
239.7701996667284
 40
239.7701996667284
 40
239.7701996667284
 10
368.5713140868229
 20
199.529258576692
 30
0.0
 41
1.0
 10
366.9468975971545
 20
201.6912213800485
 30
0.0
 41
1.0
 10
365.0808111039105
 20
204.201275564953
 30
0.0
 41
1.0
 10
361.7355065308498
 20
208.8226072574512
 30
0.0
 41
1.0
 10
359.9487032628645
 20
211.3678943207838
 30
0.0
 41
1.0
 10
358.2234683413426
 20
213.958679395842
 30
0.0
 41
1.0
 10
357.3647544442892
 20
215.2481480254446
 30
0.0
 41
0.9999494163134801
 10
356.5219900146055
 20
216.5480968782008
 30
0.0
 41
0.99994941631348
 10
355.6953029426859
 20
217.8583286854935
 30
0.0
 41
1.0
  0
LINE
  5
149
330
1F
100
AcDbEntity
  8
Make2D$可见线$普通线
100
AcDbLine
 10
379.3782806800732
 20
184.7990458586471
 30
0.0
 11
380.8865268802601
 21
182.5456956575545
 31
0.0
  0
CIRCLE
  5
14A
330
1F
100
AcDbEntity
  8
Make2D$可见线$普通线
100
AcDbCircle
 10
872.6853766888058
 20
665.6072701535169
 30
0.0
 40
7.000000000000341
  0
CIRCLE
  5
14B
330
1F
100
AcDbEntity
  8
Make2D$可见线$普通线
100
AcDbCircle
 10
872.6853766888056
 20
665.6072701535167
 30
0.0
 40
10.00000000000011
  0
LINE
  5
14C
330
1F
100
AcDbEntity
  8
Make2D$可见线$普通线
100
AcDbLine
 10
882.8348053869604
 20
746.6073350736692
 30
0.0
 11
882.483532493859
 21
746.6073350736692
 31
0.0
  0
LINE
  5
14D
330
1F
100
AcDbEntity
  8
Make2D$可见线$普通线
100
AcDbLine
 10
883.1363974056358
 20
746.6073350736692
 30
0.0
 11
883.1191228535072
 21
746.6073350736692
 31
0.0
  0
LINE
  5
14E
330
1F
100
AcDbEntity
  8
Make2D$可见线$普通线
100
AcDbLine
 10
883.413277342449
 20
746.6073350736692
 30
0.0
 11
883.3975477539807
 21
746.6073350736692
 31
0.0
  0
LINE
  5
14F
330
1F
100
AcDbEntity
  8
Make2D$可见线$普通线
100
AcDbLine
 10
883.6647548037008
 20
746.6073350736692
 30
0.0
 11
883.6494190287353
 21
746.6073350736692
 31
0.0
  0
LINE
  5
150
330
1F
100
AcDbEntity
  8
Make2D$可见线$普通线
100
AcDbLine
 10
883.8901394692612
 20
746.6073350736692
 30
0.0
 11
883.874506598157
 21
746.6073350736692
 31
0.0
  0
LINE
  5
151
330
1F
100
AcDbEntity
  8
Make2D$可见线$普通线
100
AcDbLine
 10
884.0887409402771
 20
746.6073350736694
 30
0.0
 11
884.0725803826317
 21
746.6073350736694
 31
0.0
  0
LINE
  5
152
330
1F
100
AcDbEntity
  8
Make2D$可见线$普通线
100
AcDbLine
 10
884.4028328436589
 20
746.6073350736697
 30
0.0
 11
884.3867662782854
 21
746.6073350736697
 31
0.0
  0
LINE
  5
153
330
1F
100
AcDbEntity
  8
Make2D$可见线$普通线
100
AcDbLine
 10
884.5445928081085
 20
746.6073350736697
 30
0.0
 11
884.5024182302368
 21
746.6073350736697
 31
0.0
  0
LINE
  5
154
330
1F
100
AcDbEntity
  8
Make2D$可见线$普通线
100
AcDbLine
 10
884.6828936914858
 20
746.6073350736697
 30
0.0
 11
884.559576518097
 21
746.6073350736692
 31
0.0
  0
LINE
  5
155
330
1F
100
AcDbEntity
  8
Make2D$可见线$普通线
100
AcDbLine
 10
860.6950563078385
 20
746.6073350736697
 30
0.0
 11
860.6890068362436
 21
746.6073350736697
 31
0.0
  0
LINE
  5
156
330
1F
100
AcDbEntity
  8
Make2D$可见线$普通线
100
AcDbLine
 10
860.7153261974508
 20
746.607335073669
 30
0.0
 11
860.6970528964493
 21
746.607335073669
 31
0.0
  0
LINE
  5
157
330
1F
100
AcDbEntity
  8
Make2D$可见线$普通线
100
AcDbLine
 10
860.7805749478898
 20
746.6073350736692
 30
0.0
 11
860.7285988006656
 21
746.607335073669
 31
0.0
  0
LINE
  5
158
330
1F
100
AcDbEntity
  8
Make2D$可见线$普通线
100
AcDbLine
 10
882.483532493859
 20
746.6073350736692
 30
0.0
 11
860.855448503889
 21
746.6073350736694
 31
0.0
  0
LINE
  5
159
330
1F
100
AcDbEntity
  8
Make2D$可见线$普通线
100
AcDbLine
 10
886.1250662782973
 20
741.6073350736692
 30
0.0
 11
872.6861955220365
 21
741.6073350736692
 31
0.0
  0
LINE
  5
15A
330
1F
100
AcDbEntity
  8
Make2D$可见线$普通线
100
AcDbLine
 10
888.544271793523
 20
741.6073350736692
 30
0.0
 11
887.9459255608435
 21
741.6073350736692
 31
0.0
  0
LINE
  5
15B
330
1F
100
AcDbEntity
  8
Make2D$可见线$普通线
100
AcDbLine
 10
889.1788763982859
 20
741.6073350736692
 30
0.0
 11
888.7165330900034
 21
741.6073350736692
 31
0.0
  0
LINE
  5
15C
330
1F
100
AcDbEntity
  8
Make2D$可见线$普通线
100
AcDbLine
 10
889.5077398139897
 20
741.6073350736685
 30
0.0
 11
889.1926449644702
 21
741.6073350736692
 31
0.0
  0
LINE
  5
15D
330
1F
100
AcDbEntity
  8
Make2D$可见线$普通线
100
AcDbLine
 10
890.0517136906374
 20
741.6073350736697
 30
0.0
 11
890.028696480219
 21
741.6073350736697
 31
0.0
  0
LINE
  5
15E
330
1F
100
AcDbEntity
  8
Make2D$可见线$普通线
100
AcDbLine
 10
890.2360175940466
 20
741.6073350736697
 30
0.0
 11
890.2127939163101
 21
741.6073350736697
 31
0.0
  0
LINE
  5
15F
330
1F
100
AcDbEntity
  8
Make2D$可见线$普通线
100
AcDbLine
 10
890.4099278514104
 20
741.6073350736692
 30
0.0
 11
890.3866807543709
 21
741.6073350736692
 31
0.0
  0
LINE
  5
160
330
1F
100
AcDbEntity
  8
Make2D$可见线$普通线
100
AcDbLine
 10
890.5733192441035
 20
741.6073350736704
 30
0.0
 11
890.5502347839547
 21
741.6073350736697
 31
0.0
  0
LINE
  5
161
330
1F
100
AcDbEntity
  8
Make2D$可见线$普通线
100
AcDbLine
 10
890.7260665535027
 20
741.6073350736692
 30
0.0
 11
890.7033337946145
 21
741.6073350736692
 31
0.0
  0
LINE
  5
162
330
1F
100
AcDbEntity
  8
Make2D$可见线$普通线
100
AcDbLine
 10
890.8680445609848
 20
741.6073350736697
 30
0.0
 11
890.8458555759016
 21
741.6073350736697
 31
0.0
  0
LINE
  5
163
330
1F
100
AcDbEntity
  8
Make2D$可见线$普通线
100
AcDbLine
 10
890.9991280479244
 20
741.6073350736692
 30
0.0
 11
890.9776779173649
 21
741.6073350736692
 31
0.0
  0
LINE
  5
164
330
1F
100
AcDbEntity
  8
Make2D$可见线$普通线
100
AcDbLine
 10
891.119191795698
 20
741.6073350736685
 30
0.0
 11
891.0986786085473
 21
741.6073350736692
 31
0.0
  0
LINE
  5
165
330
1F
100
AcDbEntity
  8
Make2D$可见线$普通线
100
AcDbLine
 10
891.2281105856823
 20
741.6073350736697
 30
0.0
 11
891.2087354389787
 21
741.6073350736697
 31
0.0
  0
LINE
  5
166
330
1F
100
AcDbEntity
  8
Make2D$可见线$普通线
100
AcDbLine
 10
891.3257591992524
 20
741.6073350736692
 30
0.0
 11
891.3077261981562
 21
741.6073350736692
 31
0.0
  0
LINE
  5
167
330
1F
100
AcDbEntity
  8
Make2D$可见线$普通线
100
AcDbLine
 10
891.4120124177844
 20
741.6073350736701
 30
0.0
 11
891.3955286754972
 21
741.6073350736701
 31
0.0
  0
LINE
  5
168
330
1F
100
AcDbEntity
  8
Make2D$可见线$普通线
100
AcDbLine
 10
891.4867450226552
 20
741.6073350736701
 30
0.0
 11
891.4720206601678
 21
741.6073350736701
 31
0.0
  0
LINE
  5
169
330
1F
100
AcDbEntity
  8
Make2D$可见线$普通线
100
AcDbLine
 10
891.5498317952397
 20
741.6073350736701
 30
0.0
 11
891.5370799404909
 21
741.6073350736701
 31
0.0
  0
LINE
  5
16A
330
1F
100
AcDbEntity
  8
Make2D$可见线$普通线
100
AcDbLine
 10
891.6324115627613
 20
741.6073350736692
 30
0.0
 11
891.6011475169144
 21
741.6073350736692
 31
0.0
  0
LINE
  5
16B
330
1F
100
AcDbEntity
  8
Make2D$可见线$普通线
100
AcDbLine
 10
853.7712435271583
 20
741.6073350736694
 30
0.0
 11
853.7399794813118
 21
741.6073350736694
 31
0.0
  0
LINE
  5
16C
330
1F
100
AcDbEntity
  8
Make2D$可见线$普通线
100
AcDbLine
 10
853.8353111035822
 20
741.6073350736697
 30
0.0
 11
853.8225592488334
 21
741.6073350736697
 31
0.0
  0
LINE
  5
16D
330
1F
100
AcDbEntity
  8
Make2D$可见线$普通线
100
AcDbLine
 10
853.9003703839053
 20
741.6073350736694
 30
0.0
 11
853.8856460214179
 21
741.6073350736694
 31
0.0
  0
LINE
  5
16E
330
1F
100
AcDbEntity
  8
Make2D$可见线$普通线
100
AcDbLine
 10
853.976862368575
 20
741.6073350736701
 30
0.0
 11
853.9603786262883
 21
741.6073350736694
 31
0.0
  0
LINE
  5
16F
330
1F
100
AcDbEntity
  8
Make2D$可见线$普通线
100
AcDbLine
 10
854.0646648459151
 20
741.6073350736692
 30
0.0
 11
854.0466318448207
 21
741.6073350736697
 31
0.0
  0
LINE
  5
170
330
1F
100
AcDbEntity
  8
Make2D$可见线$普通线
100
AcDbLine
 10
854.1636556050935
 20
741.6073350736692
 30
0.0
 11
854.1442804583908
 21
741.6073350736692
 31
0.0
  0
LINE
  5
171
330
1F
100
AcDbEntity
  8
Make2D$可见线$普通线
100
AcDbLine
 10
854.273712435524
 20
741.6073350736704
 30
0.0
 11
854.2531992483746
 21
741.6073350736697
 31
0.0
  0
LINE
  5
172
330
1F
100
AcDbEntity
  8
Make2D$可见线$普通线
100
AcDbLine
 10
854.3947131267073
 20
741.6073350736697
 30
0.0
 11
854.3732629961487
 21
741.6073350736697
 31
0.0
  0
LINE
  5
173
330
1F
100
AcDbEntity
  8
Make2D$可见线$普通线
100
AcDbLine
 10
854.5265354681706
 20
741.6073350736697
 30
0.0
 11
854.5043464830883
 21
741.6073350736697
 31
0.0
  0
LINE
  5
174
330
1F
100
AcDbEntity
  8
Make2D$可见线$普通线
100
AcDbLine
 10
854.6690572494585
 20
741.6073350736704
 30
0.0
 11
854.6463244905699
 21
741.6073350736697
 31
0.0
  0
LINE
  5
175
330
1F
100
AcDbEntity
  8
Make2D$可见线$普通线
100
AcDbLine
 10
854.8221562601179
 20
741.6073350736692
 30
0.0
 11
854.7990717999692
 21
741.6073350736692
 31
0.0
  0
LINE
  5
176
330
1F
100
AcDbEntity
  8
Make2D$可见线$普通线
100
AcDbLine
 10
854.9857102897017
 20
741.6073350736694
 30
0.0
 11
854.9624631926627
 21
741.6073350736694
 31
0.0
  0
LINE
  5
177
330
1F
100
AcDbEntity
  8
Make2D$可见线$普通线
100
AcDbLine
 10
855.159597127762
 20
741.6073350736701
 30
0.0
 11
855.1363734500264
 21
741.6073350736694
 31
0.0
  0
LINE
  5
178
330
1F
100
AcDbEntity
  8
Make2D$可见线$普通线
100
AcDbLine
 10
855.3436945638532
 20
741.6073350736694
 30
0.0
 11
855.3206773534357
 21
741.6073350736694
 31
0.0
  0
LINE
  5
179
330
1F
100
AcDbEntity
  8
Make2D$可见线$普通线
100
AcDbLine
 10
856.1797460796033
 20
741.6073350736694
 30
0.0
 11
855.8196147145227
 21
741.6073350736694
 31
0.0
  0
LINE
  5
17A
330
1F
100
AcDbEntity
  8
Make2D$可见线$普通线
100
AcDbLine
 10
856.6558579540697
 20
741.6073350736697
 30
0.0
 11
856.1935146457868
 21
741.6073350736697
 31
0.0
  0
LINE
  5
17B
330
1F
100
AcDbEntity
  8
Make2D$可见线$普通线
100
AcDbLine
 10
857.4264654832291
 20
741.6073350736694
 30
0.0
 11
856.8281192505497
 21
741.6073350736697
 31
0.0
  0
LINE
  5
17C
330
1F
100
AcDbEntity
  8
Make2D$可见线$普通线
100
AcDbLine
 10
872.6861955220365
 20
741.6073350736692
 30
0.0
 11
859.2473247657754
 21
741.6073350736694
 31
0.0
  0
SPLINE
  5
17D
330
1F
100
AcDbEntity
  8
Make2D$可见线$普通线
100
AcDbSpline
210
0.0
220
0.0
230
1.0
 70
     8
 71
     3
 72
    18
 73
    14
 74
     0
 42
0.000000001
 43
0.0000000001
 12
1.0
 22
0.0
 32
0.0
 13
1.0
 23
0.0
 33
0.0
 40
0.0
 40
0.0
 40
0.0
 40
0.0
 40
0.0506316909496294
 40
0.3033824073812273
 40
0.4286191650908026
 40
0.8272646382439907
 40
2.260350672490607
 40
3.977837483090226
 40
6.136536902994545
 40
9.489399185164961
 40
12.78481508143759
 40
15.20127081546492
 40
17.19886546423607
 40
17.19886546423607
 40
17.19886546423607
 40
17.19886546423607
 10
602.6872817813737
 20
195.3541889425783
 30
0.0
 10
602.7021521996749
 20
195.3460338643899
 30
0.0
 10
602.7799344638279
 20
195.2811385907221
 30
0.0
 10
602.8835172452723
 20
195.1828836308068
 30
0.0
 10
603.092116387249
 20
195.0279569841862
 30
0.0
 10
603.6821999944182
 20
194.7451903606682
 30
0.0
 10
604.817210434313
 20
194.3992481595124
 30
0.0
 10
606.5636926444749
 20
194.1009520069051
 30
0.0
 10
608.9623024685325
 20
193.8639676561029
 30
0.0
 10
611.8952706694413
 20
193.7184736797894
 30
0.0
 10
614.916347376799
 20
193.6632018461453
 30
0.0
 10
617.4866742714371
 20
193.7367189849133
 30
0.0
 10
618.950517274935
 20
193.8993729332292
 30
0.0
 10
619.6049359573299
 20
194.0252587314967
 30
0.0
  0
LINE
  5
17E
330
1F
100
AcDbEntity
  8
Make2D$可见线$普通线
100
AcDbLine
 10
709.8893371273043
 20
212.5608821210922
 30
0.0
 11
710.1859095267819
 21
212.728501481173
 31
0.0
  0
SPLINE
  5
17F
330
1F
100
AcDbEntity
  8
Make2D$可见线$普通线
100
AcDbSpline
210
0.0
220
0.0
230
1.0
 70
     8
 71
     3
 72
    18
 73
    14
 74
     0
 42
0.000000001
 43
0.0000000001
 12
1.0
 22
0.0
 32
0.0
 13
1.0
 23
0.0
 33
0.0
 40
0.0
 40
0.0
 40
0.0
 40
0.0
 40
0.49194913047416
 40
1.334838239521138
 40
1.884684872071967
 40
3.304433201852254
 40
4.573199780742621
 40
6.961678942460671
 40
8.072426999542712
 40
10.2824408367466
 40
14.4393174550937
 40
19.58641363022026
 40
24.65042474796473
 40
24.65042474796473
 40
24.65042474796473
 40
24.65042474796473
 10
602.6872817813737
 20
195.3541889425783
 30
0.0
 10
602.8053894891073
 20
195.240529855166
 30
0.0
 10
603.1094286752468
 20
194.915103796287
 30
0.0
 10
603.5919307117683
 20
194.5109999621661
 30
0.0
 10
604.2523739043841
 20
193.8450975097578
 30
0.0
 10
604.9650437765313
 20
193.0328709574314
 30
0.0
 10
605.9531661740166
 20
191.657141892817
 30
0.0
 10
606.8107450664675
 20
190.3191902780798
 30
0.0
 10
607.8953120272663
 20
188.7548015005075
 30
0.0
 10
609.4246030584945
 20
186.784279643864
 30
0.0
 10
612.2546640761761
 20
184.1508851337414
 30
0.0
 10
616.6379039942753
 20
182.0387403926088
 30
0.0
 10
620.0923011260234
 20
181.7584312407109
 30
0.0
 10
621.7687778895656
 20
181.9651152444335
 30
0.0
  0
LINE
  5
180
330
1F
100
AcDbEntity
  8
Make2D$可见线$普通线
100
AcDbLine
 10
944.2649160978153
 20
705.6073418902097
 30
0.0
 11
943.848355936691
 21
707.6073444231706
 31
0.0
  0
LINE
  5
181
330
1F
100
AcDbEntity
  8
Make2D$可见线$普通线
100
AcDbLine
 10
801.8322266568321
 20
705.6073427298129
 30
0.0
 11
801.7462479618134
 21
705.6073427296492
 31
0.0
  0
LINE
  5
182
330
1F
100
AcDbEntity
  8
Make2D$可见线$普通线
100
AcDbLine
 10
949.7477419137062
 20
703.6073462564523
 30
0.0
 11
949.7548176929004
 21
703.6073462165523
 31
0.0
  0
LINE
  5
183
330
1F
100
AcDbEntity
  8
Make2D$可见线$普通线
100
AcDbLine
 10
949.7247558677655
 20
703.6043909585258
 30
0.0
 11
949.7180803631636
 21
703.6041529720051
 31
0.0
  0
LINE
  5
184
330
1F
100
AcDbEntity
  8
Make2D$可见线$普通线
100
AcDbLine
 10
949.7548176927585
 20
703.6073462165523
 30
0.0
 11
949.7580307620383
 21
703.6073461939382
 31
0.0
  0
LINE
  5
185
330
1F
100
AcDbEntity
  8
Make2D$可见线$普通线
100
AcDbLine
 10
949.7119920530395
 20
703.6073463895943
 30
0.0
 11
949.7180568990066
 21
703.6073463709799
 31
0.0
  0
LINE
  5
186
330
1F
100
AcDbEntity
  8
Make2D$可见线$普通线
100
AcDbLine
 10
949.6694338310276
 20
703.6073464999279
 30
0.0
 11
949.703277641705
 21
703.6073464147332
 31
0.0
  0
LINE
  5
187
330
1F
100
AcDbEntity
  8
Make2D$可见线$普通线
100
AcDbLine
 10
949.6136888227784
 20
703.6073466151611
 30
0.0
 11
949.6556279588431
 21
703.6073465307168
 31
0.0
  0
LINE
  5
188
330
1F
100
AcDbEntity
  8
Make2D$可见线$普通线
100
AcDbLine
 10
949.5444152335685
 20
703.6073467350955
 30
0.0
 11
949.594627483139
 21
703.607346650145
 31
0.0
  0
LINE
  5
189
330
1F
100
AcDbEntity
  8
Make2D$可见线$普通线
100
AcDbLine
 10
943.936421620137
 20
705.6073406148621
 30
0.0
 11
947.7611126203154
 21
705.6073409540452
 31
0.0
  0
ARC
  5
18A
330
1F
100
AcDbEntity
  8
Make2D$可见线$普通线
100
AcDbCircle
 10
947.7649052727818
 20
703.6073613189355
 30
0.0
 40
1.999979643212463
100
AcDbArc
 50
359.9995637144382
 51
89.99969138953158
  0
ARC
  5
18B
330
1F
100
AcDbEntity
  8
Make2D$可见线$普通线
100
AcDbCircle
 10
808.6095963656015
 20
378.6110234711643
 30
0.0
 40
6.008981262627076
100
AcDbArc
 50
180.6499658213076
 51
207.5255452964764
  0
LINE
  5
18C
330
1F
100
AcDbEntity
  8
Make2D$可见线$普通线
100
AcDbLine
 10
801.7462479618134
 20
705.6073427296492
 30
0.0
 11
801.0938160236083
 21
705.6073427268834
 31
0.0
  0
LINE
  5
18D
330
1F
100
AcDbEntity
  8
Make2D$可见线$普通线
100
AcDbLine
 10
896.0659011649691
 20
705.6073415997062
 30
0.0
 11
802.0142695531376
 21
705.607342730124
 31
0.0
  0
LINE
  5
18E
330
1F
100
AcDbEntity
  8
Make2D$可见线$普通线
100
AcDbLine
 10
943.936421620137
 20
705.6073406148621
 30
0.0
 11
896.0659011649691
 21
705.6073415997062
 31
0.0
  0
LINE
  5
18F
330
1F
100
AcDbEntity
  8
Make2D$可见线$普通线
100
AcDbLine
 10
949.6137440684643
 20
703.6015892333257
 30
0.0
 11
949.594627515502
 21
703.6012354772404
 31
0.0
  0
LINE
  5
190
330
1F
100
AcDbEntity
  8
Make2D$可见线$普通线
100
AcDbLine
 10
949.669489305687
 20
703.6027768757381
 30
0.0
 11
949.6556279920401
 21
703.6024544039603
 31
0.0
  0
LINE
  5
191
330
1F
100
AcDbEntity
  8
Make2D$可见线$普通线
100
AcDbLine
 10
949.7120476723567
 20
703.6039520296752
 30
0.0
 11
949.703277686951
 21
703.6036792539212
 31
0.0
  0
LINE
  5
192
330
1F
100
AcDbEntity
  8
Make2D$可见线$普通线
100
AcDbLine
 10
949.7477475275764
 20
703.6054196516748
 30
0.0
 11
949.7247558679528
 21
703.6043909585328
 31
0.0
  0
ARC
  5
193
330
1F
100
AcDbEntity
  8
Make2D$可见线$普通线
100
AcDbCircle
 10
943.7649186685684
 20
378.6073456504988
 30
0.0
 40
6.000004120422453
100
AcDbArc
 50
270.1042523698624
 51
359.8586751342628
  0
LINE
  5
194
330
1F
100
AcDbEntity
  8
Make2D$可见线$普通线
100
AcDbLine
 10
949.7649227889847
 20
378.6073541813607
 30
0.0
 11
949.7648849160778
 21
703.6061310228279
 31
0.0
  0
LINE
  5
195
330
1F
100
AcDbEntity
  8
Make2D$可见线$普通线
100
AcDbLine
 10
774.9768448158893
 20
315.7342351536931
 30
0.0
 11
775.124939678371
 21
315.0873702881395
 31
0.0
  0
LINE
  5
196
330
1F
100
AcDbEntity
  8
Make2D$可见线$普通线
100
AcDbLine
 10
923.8694770130751
 20
365.0283369418189
 30
0.0
 11
911.7454320392926
 21
364.8131839457333
 31
0.0
  0
ARC
  5
197
330
1F
100
AcDbEntity
  8
Make2D$可见线$普通线
100
AcDbCircle
 10
904.4347252178881
 20
346.9412050023128
 30
0.0
 40
30.40145059111621
100
AcDbArc
 50
278.8039641828971
 51
284.4742656248127
  0
SPLINE
  5
198
330
1F
100
AcDbEntity
  8
Make2D$可见线$普通线
100
AcDbSpline
210
0.0
220
0.0
230
1.0
 70
     8
 71
     3
 72
    12
 73
     8
 74
     0
 42
0.000000001
 43
0.0000000001
 12
1.0
 22
0.0
 32
0.0
 13
1.0
 23
0.0
 33
0.0
 40
0.0
 40
0.0
 40
0.0
 40
0.0
 40
4.789809045033375
 40
9.66080652558953
 40
19.56860786459704
 40
29.54496986861164
 40
39.44748459410732
 40
39.44748459410732
 40
39.44748459410732
 40
39.44748459410732
 10
935.6578510029867
 20
345.9855860828061
 30
0.0
 10
935.5477550591627
 20
344.3923746772452
 30
0.0
 10
935.0647045226242
 20
341.1993677672754
 30
0.0
 10
933.0959185383995
 20
334.9585448952721
 30
0.0
 10
928.8304664903012
 20
327.7844541166767
 30
0.0
 10
921.357149989547
 20
321.07062749838
 30
0.0
 10
915.2285118596342
 20
318.3363471016005
 30
0.0
 10
912.0334716503735
 20
317.5047099033145
 30
0.0
  0
ARC
  5
199
330
1F
100
AcDbEntity
  8
Make2D$可见线$普通线
100
AcDbCircle
 10
771.5264091904422
 20
110.5768717160262
 30
0.0
 40
5.095364789977724
100
AcDbArc
 50
148.5580026540707
 51
156.6364100705972
  0
ARC
  5
19A
330
1F
100
AcDbEntity
  8
Make2D$可见线$普通线
100
AcDbCircle
 10
771.4399872766849
 20
110.7808200779082
 30
0.0
 40
4.844003981009422
100
AcDbArc
 50
90.99993775274353
 51
91.12310178875485
  0
LINE
  5
19B
330
1F
100
AcDbEntity
  8
Make2D$可见线$普通线
100
AcDbLine
 10
937.5871361907248
 20
344.5868583892366
 30
0.0
 11
937.686194751444
 21
344.3710726575068
 31
0.0
  0
LINE
  5
19C
330
1F
100
AcDbEntity
  8
Make2D$可见线$普通线
100
AcDbLine
 10
923.8694770130755
 20
365.0283369418189
 30
0.0
 11
926.3594174951727
 21
365.0703495270577
 31
0.0
  0
SPLINE
  5
19D
330
1F
100
AcDbEntity
  8
Make2D$可见线$普通线
100
AcDbSpline
210
0.0
220
0.0
230
1.0
 70
     8
 71
     3
 72
    12
 73
     8
 74
     0
 42
0.000000001
 43
0.0000000001
 12
1.0
 22
0.0
 32
0.0
 13
1.0
 23
0.0
 33
0.0
 40
0.0
 40
0.0
 40
0.0
 40
0.0
 40
2.175240900136096
 40
4.230926005418015
 40
7.770771941302274
 40
10.63044535343031
 40
13.0977771523162
 40
13.0977771523162
 40
13.0977771523162
 40
13.0977771523162
 10
935.1711750005675
 20
356.3714765935342
 30
0.0
 10
934.8894763295207
 20
357.039129303208
 30
0.0
 10
934.3029059745695
 20
358.3239494369313
 30
0.0
 10
933.0434159154784
 20
360.5876559952251
 30
0.0
 10
931.3525275703837
 20
362.8641663469944
 30
0.0
 10
928.9557527674233
 20
364.669146123121
 30
0.0
 10
927.1819877678349
 20
365.0884709853756
 30
0.0
 10
926.3594174951727
 20
365.0703495270579
 30
0.0
  0
ARC
  5
19E
330
1F
100
AcDbEntity
  8
Make2D$可见线$普通线
100
AcDbCircle
 10
-1116.476644629853
 20
255.0282604524868
 30
0.0
 40
2054.149269953884
100
AcDbArc
 50
2.537875644045245
 51
2.827884409896517
  0
LINE
  5
19F
330
1F
100
AcDbEntity
  8
Make2D$可见线$普通线
100
AcDbLine
 10
847.0995399637432
 20
308.1984634719288
 30
0.0
 11
909.087795205955
 21
316.8979505559278
 31
0.0
  0
LINE
  5
1A0
330
1F
100
AcDbEntity
  8
Make2D$可见线$普通线
100
AcDbLine
 10
827.6861955220365
 20
216.2510013016883
 30
0.0
 11
827.6861955220365
 21
216.6419482039096
 31
0.0
  0
LINE
  5
1A1
330
1F
100
AcDbEntity
  8
Make2D$可见线$普通线
100
AcDbLine
 10
827.6861955220365
 20
216.0961877064592
 30
0.0
 11
827.6861955220365
 21
216.1964529643137
 31
0.0
  0
LINE
  5
1A2
330
1F
100
AcDbEntity
  8
Make2D$可见线$普通线
100
AcDbLine
 10
827.6861955220365
 20
215.9142118431078
 30
0.0
 11
827.6861955220365
 21
216.0311270049708
 31
0.0
  0
LINE
  5
1A3
330
1F
100
AcDbEntity
  8
Make2D$可见线$普通线
100
AcDbLine
 10
827.6861955220365
 20
215.7045842848875
 30
0.0
 11
827.6861955220365
 21
215.8384777155952
 31
0.0
  0
LINE
  5
1A4
330
1F
100
AcDbEntity
  8
Make2D$可见线$普通线
100
AcDbLine
 10
827.6861955220365
 20
215.4668507527542
 30
0.0
 11
827.6861955220365
 21
215.618091874353
 31
0.0
  0
LINE
  5
1A5
330
1F
100
AcDbEntity
  8
Make2D$可见线$普通线
100
AcDbLine
 10
827.6861955220365
 20
215.2005948933818
 30
0.0
 11
827.6861955220365
 21
215.3695950122792
 31
0.0
  0
LINE
  5
1A6
330
1F
100
AcDbEntity
  8
Make2D$可见线$普通线
100
AcDbLine
 10
827.6861955220365
 20
214.9054410098599
 30
0.0
 11
827.6861955220365
 21
215.092653243559
 31
0.0
  0
LINE
  5
1A7
330
1F
100
AcDbEntity
  8
Make2D$可见线$普通线
100
AcDbLine
 10
827.6861955220365
 20
214.5810567247522
 30
0.0
 11
827.6861955220365
 21
214.786976058168
 31
0.0
  0
LINE
  5
1A8
330
1F
100
AcDbEntity
  8
Make2D$可见线$普通线
100
AcDbLine
 10
827.6861955220365
 20
214.2271555544874
 30
0.0
 11
827.6861955220365
 21
214.4523184986842
 31
0.0
  0
LINE
  5
1A9
330
1F
100
AcDbEntity
  8
Make2D$可见线$普通线
100
AcDbLine
 10
827.6861955220365
 20
213.8434993735916
 30
0.0
 11
827.6861955220365
 21
214.0884833120122
 31
0.0
  0
LINE
  5
1AA
330
1F
100
AcDbEntity
  8
Make2D$可见线$普通线
100
AcDbLine
 10
827.6861955220365
 20
213.4299007470449
 30
0.0
 11
827.6861955220365
 21
213.6953229570995
 31
0.0
  0
LINE
  5
1AB
330
1F
100
AcDbEntity
  8
Make2D$可见线$普通线
100
AcDbLine
 10
827.6861955220365
 20
212.9862251090717
 30
0.0
 11
827.6861955220365
 21
213.2727414496471
 31
0.0
  0
LINE
  5
1AC
330
1F
100
AcDbEntity
  8
Make2D$可见线$普通线
100
AcDbLine
 10
827.6861955220365
 20
212.4928640294047
 30
0.0
 11
827.6861955220365
 21
212.820696025294
 31
0.0
  0
LINE
  5
1AD
330
1F
100
AcDbEntity
  8
Make2D$可见线$普通线
100
AcDbLine
 10
827.6861955220365
 20
211.9840261764048
 30
0.0
 11
827.6861955220365
 21
212.3391987395994
 31
0.0
  0
LINE
  5
1AE
330
1F
100
AcDbEntity
  8
Make2D$可见线$普通线
100
AcDbLine
 10
827.6861955220365
 20
211.4448880187365
 30
0.0
 11
827.6861955220365
 21
211.8283171768489
 31
0.0
  0
LINE
  5
1AF
330
1F
100
AcDbEntity
  8
Make2D$可见线$普通线
100
AcDbLine
 10
827.6861955220365
 20
211.1639985536929
 30
0.0
 11
827.6861955220365
 21
211.2881762681332
 31
0.0
  0
LINE
  5
1B0
330
1F
100
AcDbEntity
  8
Make2D$可见线$普通线
100
AcDbLine
 10
827.6861955220365
 20
210.8755923966105
 30
0.0
 11
827.6861955220365
 21
211.0071883259609
 31
0.0
  0
LINE
  5
1B1
330
1F
100
AcDbEntity
  8
Make2D$可见线$普通线
100
AcDbLine
 10
827.6861955220365
 20
210.5796970786635
 30
0.0
 11
827.6861955220365
 21
210.7189585333333
 31
0.0
  0
LINE
  5
1B2
330
1F
100
AcDbEntity
  8
Make2D$可见线$普通线
100
AcDbLine
 10
827.6861955220365
 20
210.276344035557
 30
0.0
 11
827.6861955220365
 21
210.4235188082926
 31
0.0
  0
LINE
  5
1B3
330
1F
100
AcDbEntity
  8
Make2D$可见线$普通线
100
AcDbLine
 10
827.6861955220365
 20
209.9655686178164
 30
0.0
 11
827.6861955220365
 21
210.1209047260177
 31
0.0
  0
LINE
  5
1B4
330
1F
100
AcDbEntity
  8
Make2D$可见线$普通线
100
AcDbLine
 10
827.6861955220365
 20
209.6474100963474
 30
0.0
 11
827.6861955220365
 21
209.8111555200969
 31
0.0
  0
LINE
  5
1B5
330
1F
100
AcDbEntity
  8
Make2D$可见线$普通线
100
AcDbLine
 10
827.6861955220365
 20
209.3219116631863
 30
0.0
 11
827.6861955220365
 21
209.4943140794333
 31
0.0
  0
LINE
  5
1B6
330
1F
100
AcDbEntity
  8
Make2D$可见线$普通线
100
AcDbLine
 10
827.6861955220365
 20
208.9891204273979
 30
0.0
 11
827.6861955220365
 21
209.1704269407162
 31
0.0
  0
LINE
  5
1B7
330
1F
100
AcDbEntity
  8
Make2D$可见线$普通线
100
AcDbLine
 10
827.6861955220365
 20
208.5972420355195
 30
0.0
 11
827.6861955220365
 21
208.839544276469
 31
0.0
  0
LINE
  5
1B8
330
1F
100
AcDbEntity
  8
Make2D$可见线$普通线
100
AcDbLine
 10
827.6861955220361
 20
208.3018675102933
 30
0.0
 11
827.6861955220365
 21
208.4414940151407
 31
0.0
  0
LINE
  5
1B9
330
1F
100
AcDbEntity
  8
Make2D$可见线$普通线
100
AcDbLine
 10
827.6861955220365
 20
207.9228628764645
 30
0.0
 11
827.6861955220365
 21
208.0871824979638
 31
0.0
  0
LINE
  5
1BA
330
1F
100
AcDbEntity
  8
Make2D$可见线$普通线
100
AcDbLine
 10
827.6861955220361
 20
207.5225935406929
 30
0.0
 11
827.6861955220365
 21
207.7347813203392
 31
0.0
  0
LINE
  5
1BB
330
1F
100
AcDbEntity
  8
Make2D$可见线$普通线
100
AcDbLine
 10
827.6861955220365
 20
207.2176936659596
 30
0.0
 11
827.6861955220365
 21
207.4471880233527
 31
0.0
  0
LINE
  5
1BC
330
1F
100
AcDbEntity
  8
Make2D$可见线$普通线
100
AcDbLine
 10
827.6861955220365
 20
206.8423524973739
 30
0.0
 11
827.6861955220365
 21
207.0247000530837
 31
0.0
  0
LINE
  5
1BD
330
1F
100
AcDbEntity
  8
Make2D$可见线$普通线
100
AcDbLine
 10
827.6861955220365
 20
206.4271718195562
 30
0.0
 11
827.6861955220365
 21
206.7106049501265
 31
0.0
  0
LINE
  5
1BE
330
1F
100
AcDbEntity
  8
Make2D$可见线$普通线
100
AcDbLine
 10
827.6861955220365
 20
206.0711836279966
 30
0.0
 11
827.6861955220365
 21
206.332459268913
 31
0.0
  0
LINE
  5
1BF
330
1F
100
AcDbEntity
  8
Make2D$可见线$普通线
100
AcDbLine
 10
827.6861955220365
 20
205.6755149911698
 30
0.0
 11
827.6861955220365
 21
205.9478474209789
 31
0.0
  0
LINE
  5
1C0
330
1F
100
AcDbEntity
  8
Make2D$可见线$普通线
100
AcDbLine
 10
827.6861955220365
 20
205.2732356372246
 30
0.0
 11
827.6861955220365
 21
205.5568510260539
 31
0.0
  0
LINE
  5
1C1
330
1F
100
AcDbEntity
  8
Make2D$可见线$普通线
100
AcDbLine
 10
827.6861955220365
 20
204.8644340756259
 30
0.0
 11
827.6861955220365
 21
205.1595549754472
 31
0.0
  0
LINE
  5
1C2
330
1F
100
AcDbEntity
  8
Make2D$可见线$普通线
100
AcDbLine
 10
827.6861955220365
 20
204.4492022982329
 30
0.0
 11
827.6861955220365
 21
204.7560473718574
 31
0.0
  0
LINE
  5
1C3
330
1F
100
AcDbEntity
  8
Make2D$可见线$普通线
100
AcDbLine
 10
827.6861955220361
 20
204.0276357117548
 30
0.0
 11
827.6861955220365
 21
204.3464194651315
 31
0.0
  0
LINE
  5
1C4
330
1F
100
AcDbEntity
  8
Make2D$可见线$普通线
100
AcDbLine
 10
827.6861955220365
 20
203.5998330657196
 30
0.0
 11
827.6861955220365
 21
203.9307655840571
 31
0.0
  0
LINE
  5
1C5
330
1F
100
AcDbEntity
  8
Make2D$可见线$普通线
100
AcDbLine
 10
827.6861955220365
 20
203.1658963760578
 30
0.0
 11
827.6861955220365
 21
203.5091830643007
 31
0.0
  0
LINE
  5
1C6
330
1F
100
AcDbEntity
  8
Make2D$可见线$普通线
100
AcDbLine
 10
827.6861955220365
 20
202.7259308444332
 30
0.0
 11
827.6861955220365
 21
203.0249268245448
 31
0.0
  0
LINE
  5
1C7
330
1F
100
AcDbEntity
  8
Make2D$可见线$普通线
100
AcDbLine
 10
827.6861955220365
 20
202.2800447734419
 30
0.0
 11
827.6861955220365
 21
202.3646425595384
 31
0.0
  0
LINE
  5
1C8
330
1F
100
AcDbEntity
  8
Make2D$可见线$普通线
100
AcDbLine
 10
827.6861955220365
 20
201.8283494778357
 30
0.0
 11
827.6861955220365
 21
202.2098805155767
 31
0.0
  0
LINE
  5
1C9
330
1F
100
AcDbEntity
  8
Make2D$可见线$普通线
100
AcDbLine
 10
827.6861955220365
 20
201.3709591919114
 30
0.0
 11
827.6861955220365
 21
201.7656142069468
 31
0.0
  0
LINE
  5
1CA
330
1F
100
AcDbEntity
  8
Make2D$可见线$普通线
100
AcDbLine
 10
827.6861955220361
 20
200.9079909732361
 30
0.0
 11
827.6861955220361
 21
201.315948264021
 31
0.0
  0
LINE
  5
1CB
330
1F
100
AcDbEntity
  8
Make2D$可见线$普通线
100
AcDbLine
 10
827.6861955220365
 20
200.4395646028756
 30
0.0
 11
827.6861955220365
 21
200.5282007183926
 31
0.0
  0
LINE
  5
1CC
330
1F
100
AcDbEntity
  8
Make2D$可见线$普通线
100
AcDbLine
 10
827.6861955220365
 20
199.9658024822991
 30
0.0
 11
827.6861955220365
 21
200.4008745328019
 31
0.0
  0
LINE
  5
1CD
330
1F
100
AcDbEntity
  8
Make2D$可见线$普通线
100
AcDbLine
 10
827.6861955220365
 20
199.4868295271594
 30
0.0
 11
827.6861955220365
 21
199.9357011879795
 31
0.0
  0
LINE
  5
1CE
330
1F
100
AcDbEntity
  8
Make2D$可见线$普通线
100
AcDbLine
 10
827.6861955220365
 20
199.0027730581232
 30
0.0
 11
827.6861955220365
 21
199.437823431942
 31
0.0
  0
LINE
  5
1CF
330
1F
100
AcDbEntity
  8
Make2D$可见线$普通线
100
AcDbLine
 10
827.6861955220365
 20
197.6118317305297
 30
0.0
 11
827.6861955220365
 21
198.5137626889734
 31
0.0
  0
LINE
  5
1D0
330
1F
100
AcDbEntity
  8
Make2D$可见线$普通线
100
AcDbLine
 10
827.6861955220365
 20
197.339420430236
 30
0.0
 11
827.6861955220361
 21
197.5383533209465
 31
0.0
  0
LINE
  5
1D1
330
1F
100
AcDbEntity
  8
Make2D$可见线$普通线
100
AcDbLine
 10
827.6861955220365
 20
196.5987206104667
 30
0.0
 11
827.6861955220365
 21
197.0454729440005
 31
0.0
  0
LINE
  5
1D2
330
1F
100
AcDbEntity
  8
Make2D$可见线$普通线
100
AcDbLine
 10
827.6861955220361
 20
196.0882721742998
 30
0.0
 11
827.6861955220365
 21
196.5484255398014
 31
0.0
  0
LINE
  5
1D3
330
1F
100
AcDbEntity
  8
Make2D$可见线$普通线
100
AcDbLine
 10
827.6861955220365
 20
195.8385941475706
 30
0.0
 11
827.6861955220365
 21
196.0473441392307
 31
0.0
  0
LINE
  5
1D4
330
1F
100
AcDbEntity
  8
Make2D$可见线$普通线
100
AcDbLine
 10
827.6861955220365
 20
195.483186574193
 30
0.0
 11
827.6861955220365
 21
195.5423631053379
 31
0.0
  0
LINE
  5
1D5
330
1F
100
AcDbEntity
  8
Make2D$可见线$普通线
100
AcDbLine
 10
827.6861955220365
 20
194.9632961385803
 30
0.0
 11
827.6861955220365
 21
195.0336180182544
 31
0.0
  0
LINE
  5
1D6
330
1F
100
AcDbEntity
  8
Make2D$可见线$普通线
100
AcDbLine
 10
827.6861955220365
 20
193.9121143235607
 30
0.0
 11
827.6861955220365
 21
193.9972932363848
 31
0.0
  0
LINE
  5
1D7
330
1F
100
AcDbEntity
  8
Make2D$可见线$普通线
100
AcDbLine
 10
827.6861955220365
 20
193.3811137521971
 30
0.0
 11
827.6861955220365
 21
193.4495660328512
 31
0.0
  0
LINE
  5
1D8
330
1F
100
AcDbEntity
  8
Make2D$可见线$普通线
100
AcDbLine
 10
827.6861955220365
 20
192.3090275636871
 30
0.0
 11
827.6861955220365
 21
192.928833694466
 31
0.0
  0
LINE
  5
1D9
330
1F
100
AcDbEntity
  8
Make2D$可见线$普通线
100
AcDbLine
 10
827.6861955220365
 20
191.2244826016884
 30
0.0
 11
827.6861955220365
 21
191.9098184831398
 31
0.0
  0
LINE
  5
1DA
330
1F
100
AcDbEntity
  8
Make2D$可见线$普通线
100
AcDbLine
 10
827.6861955220365
 20
190.0429425496795
 30
0.0
 11
827.6861955220365
 21
190.8447302760387
 31
0.0
  0
LINE
  5
1DB
330
1F
100
AcDbEntity
  8
Make2D$可见线$普通线
100
AcDbLine
 10
827.6861955220365
 20
189.0227934009583
 30
0.0
 11
827.6861955220365
 21
189.769609327637
 31
0.0
  0
LINE
  5
1DC
330
1F
100
AcDbEntity
  8
Make2D$可见线$普通线
100
AcDbLine
 10
827.6861955220365
 20
187.9080460082619
 30
0.0
 11
827.6861955220365
 21
188.6855862877924
 31
0.0
  0
LINE
  5
1DD
330
1F
100
AcDbEntity
  8
Make2D$可见线$普通线
100
AcDbLine
 10
827.6861955220361
 20
186.7856256650045
 30
0.0
 11
827.6861955220365
 21
187.593789843761
 31
0.0
  0
LINE
  5
1DE
330
1F
100
AcDbEntity
  8
Make2D$可见线$普通线
100
AcDbLine
 10
827.6861955220365
 20
185.6567215904727
 30
0.0
 11
827.6861955220365
 21
186.2709382290373
 31
0.0
  0
LINE
  5
1DF
330
1F
100
AcDbEntity
  8
Make2D$可见线$普通线
100
AcDbLine
 10
827.6861955220365
 20
184.5225126318373
 30
0.0
 11
827.6861955220365
 21
185.1313032680864
 31
0.0
  0
LINE
  5
1E0
330
1F
100
AcDbEntity
  8
Make2D$可见线$普通线
100
AcDbLine
 10
827.6861955220365
 20
183.3841637727064
 30
0.0
 11
827.6861955220365
 21
183.9862947284516
 31
0.0
  0
LINE
  5
1E1
330
1F
100
AcDbEntity
  8
Make2D$可见线$普通线
100
AcDbLine
 10
827.6861955220365
 20
178.8120032174409
 30
0.0
 11
827.6861955220365
 21
178.8888295180209
 31
0.0
  0
LINE
  5
1E2
330
1F
100
AcDbEntity
  8
Make2D$可见线$普通线
100
AcDbLine
 10
827.6861955220365
 20
177.6697228417077
 30
0.0
 11
827.6861955220365
 21
177.9323088879598
 31
0.0
  0
LINE
  5
1E3
330
1F
100
AcDbEntity
  8
Make2D$可见线$普通线
100
AcDbLine
 10
827.6861955220365
 20
173.6270664460433
 30
0.0
 11
827.6861955220365
 21
174.261112730512
 31
0.0
  0
LINE
  5
1E4
330
1F
100
AcDbEntity
  8
Make2D$可见线$普通线
100
AcDbLine
 10
827.6861955220365
 20
172.4894884772248
 30
0.0
 11
827.6861955220365
 21
173.1708539805154
 31
0.0
  0
LINE
  5
1E5
330
1F
100
AcDbEntity
  8
Make2D$可见线$普通线
100
AcDbLine
 10
827.6861955220365
 20
171.3581468732211
 30
0.0
 11
827.6861955220365
 21
172.0133196424993
 31
0.0
  0
LINE
  5
1E6
330
1F
100
AcDbEntity
  8
Make2D$可见线$普通线
100
AcDbLine
 10
827.6861955220365
 20
170.3600105379799
 30
0.0
 11
827.6861955220365
 21
170.8994398107802
 31
0.0
  0
LINE
  5
1E7
330
1F
100
AcDbEntity
  8
Make2D$可见线$普通线
100
AcDbLine
 10
827.6861955220365
 20
169.4351327366344
 30
0.0
 11
827.6861955220365
 21
169.7933174138707
 31
0.0
  0
LINE
  5
1E8
330
1F
100
AcDbEntity
  8
Make2D$可见线$普通线
100
AcDbLine
 10
827.6861955220365
 20
168.0099252086657
 30
0.0
 11
827.6861955220365
 21
168.6957120755844
 31
0.0
  0
LINE
  5
1E9
330
1F
100
AcDbEntity
  8
Make2D$可见线$普通线
100
AcDbLine
 10
827.6861955220365
 20
166.9117124244747
 30
0.0
 11
827.6861955220365
 21
167.7748093807893
 31
0.0
  0
LINE
  5
1EA
330
1F
100
AcDbEntity
  8
Make2D$可见线$普通线
100
AcDbLine
 10
827.6861955220365
 20
166.1851827260816
 30
0.0
 11
827.6861955220365
 21
166.6766249533416
 31
0.0
  0
LINE
  5
1EB
330
1F
100
AcDbEntity
  8
Make2D$可见线$普通线
100
AcDbLine
 10
827.6861955220365
 20
165.4213680463613
 30
0.0
 11
827.6861955220365
 21
165.5692802762858
 31
0.0
  0
LINE
  5
1EC
330
1F
100
AcDbEntity
  8
Make2D$可见线$普通线
100
AcDbLine
 10
827.6861955220365
 20
163.6970166197239
 30
0.0
 11
827.6861955220365
 21
164.3152456494513
 31
0.0
  0
LINE
  5
1ED
330
1F
100
AcDbEntity
  8
Make2D$可见线$普通线
100
AcDbLine
 10
827.6861955220365
 20
162.9861290894175
 30
0.0
 11
827.6861955220365
 21
163.2013658177323
 31
0.0
  0
LINE
  5
1EE
330
1F
100
AcDbEntity
  8
Make2D$可见线$普通线
100
AcDbLine
 10
827.6861955220365
 20
162.0438314797539
 30
0.0
 11
827.6861955220365
 21
162.0805283884733
 31
0.0
  0
LINE
  5
1EF
330
1F
100
AcDbEntity
  8
Make2D$可见线$普通线
100
AcDbLine
 10
827.6861955220365
 20
160.1468574568842
 30
0.0
 11
827.6861955220365
 21
160.9535727297193
 31
0.0
  0
LINE
  5
1F0
330
1F
100
AcDbEntity
  8
Make2D$可见线$普通线
100
AcDbLine
 10
827.6861955220365
 20
159.1937421368098
 30
0.0
 11
827.6861955220365
 21
159.821376842963
 31
0.0
  0
LINE
  5
1F1
330
1F
100
AcDbEntity
  8
Make2D$可见线$普通线
100
AcDbLine
 10
827.6861955220365
 20
157.6289209819515
 30
0.0
 11
827.6861955220365
 21
158.6848562442792
 31
0.0
  0
LINE
  5
1F2
330
1F
100
AcDbEntity
  8
Make2D$可见线$普通线
100
AcDbLine
 10
827.6861955220365
 20
156.4784011044846
 30
0.0
 11
827.6861955220365
 21
157.5449626185239
 31
0.0
  0
LINE
  5
1F3
330
1F
100
AcDbEntity
  8
Make2D$可见线$普通线
100
AcDbLine
 10
827.6861955220365
 20
155.3699712335331
 30
0.0
 11
827.6861955220365
 21
156.4026822427909
 31
0.0
  0
LINE
  5
1F4
330
1F
100
AcDbEntity
  8
Make2D$可见线$普通线
100
AcDbLine
 10
827.6861955220365
 20
154.4156456276419
 30
0.0
 11
827.6861955220365
 21
155.2590341771104
 31
0.0
  0
LINE
  5
1F5
330
1F
100
AcDbEntity
  8
Make2D$可见线$普通线
100
AcDbLine
 10
827.6861955220365
 20
153.8591145240068
 30
0.0
 11
827.6861955220365
 21
154.1150682222999
 31
0.0
  0
LINE
  5
1F6
330
1F
100
AcDbEntity
  8
Make2D$可见线$普通线
100
AcDbLine
 10
827.6861955220365
 20
151.8764238803499
 30
0.0
 11
827.6861955220365
 21
152.9718626469294
 31
0.0
  0
LINE
  5
1F7
330
1F
100
AcDbEntity
  8
Make2D$可见线$普通线
100
AcDbLine
 10
827.6861955220365
 20
150.7315012182298
 30
0.0
 11
827.6861955220365
 21
151.8305216875253
 31
0.0
  0
LINE
  5
1F8
330
1F
100
AcDbEntity
  8
Make2D$可见线$普通线
100
AcDbLine
 10
827.6861955220365
 20
149.7009382811341
 30
0.0
 11
827.6861955220365
 21
150.6921728283942
 31
0.0
  0
LINE
  5
1F9
330
1F
100
AcDbEntity
  8
Make2D$可见线$普通线
100
AcDbLine
 10
827.6861955220365
 20
147.8915715065061
 30
0.0
 11
827.6861955220365
 21
148.429059795227
 31
0.0
  0
LINE
  5
1FA
330
1F
100
AcDbEntity
  8
Make2D$可见线$普通线
100
AcDbLine
 10
827.6861955220365
 20
147.328607110504
 30
0.0
 11
827.6861955220365
 21
147.8669650320669
 31
0.0
  0
LINE
  5
1FB
330
1F
100
AcDbEntity
  8
Make2D$可见线$普通线
100
AcDbLine
 10
827.6861955220365
 20
147.2817355852646
 30
0.0
 11
827.6861955220365
 21
147.3066394519692
 31
0.0
  0
LINE
  5
1FC
330
1F
100
AcDbEntity
  8
Make2D$可见线$普通线
100
AcDbLine
 10
827.6861955220365
 20
146.2027542891715
 30
0.0
 11
827.6861955220365
 21
146.748232004142
 31
0.0
  0
LINE
  5
1FD
330
1F
100
AcDbEntity
  8
Make2D$可见线$普通线
100
AcDbLine
 10
827.6861955220365
 20
145.6377692923206
 30
0.0
 11
827.6861955220365
 21
145.6524523722328
 31
0.0
  0
LINE
  5
1FE
330
1F
100
AcDbEntity
  8
Make2D$可见线$普通线
100
AcDbLine
 10
827.6861955220365
 20
144.0693249679907
 30
0.0
 11
827.6861955220365
 21
145.0984817570095
 31
0.0
  0
LINE
  5
1FF
330
1F
100
AcDbEntity
  8
Make2D$可见线$普通线
100
AcDbLine
 10
827.6861955220365
 20
143.7162788218147
 30
0.0
 11
827.6861955220365
 21
143.9902028585432
 31
0.0
  0
LINE
  5
200
330
1F
100
AcDbEntity
  8
Make2D$可见线$普通线
100
AcDbLine
 10
827.6861955220365
 20
137.186842841726
 30
0.0
 11
827.6861955220365
 21
141.765119427411
 31
0.0
  0
LINE
  5
201
330
1F
100
AcDbEntity
  8
Make2D$可见线$普通线
100
AcDbLine
 10
827.6861955220365
 20
136.700922771259
 30
0.0
 11
827.6861955220365
 21
136.9751013316604
 31
0.0
  0
LINE
  5
202
330
1F
100
AcDbEntity
  8
Make2D$可见线$普通线
100
AcDbLine
 10
827.6861955220365
 20
136.2119124021085
 30
0.0
 11
827.6861955220365
 21
136.4550426183553
 31
0.0
  0
LINE
  5
203
330
1F
100
AcDbEntity
  8
Make2D$可见线$普通线
100
AcDbLine
 10
827.6861955220361
 20
135.7278559330723
 30
0.0
 11
827.6861955220365
 21
136.0233060338171
 31
0.0
  0
LINE
  5
204
330
1F
100
AcDbEntity
  8
Make2D$可见线$普通线
100
AcDbLine
 10
827.6861955220365
 20
135.2488829779322
 30
0.0
 11
827.6861955220365
 21
135.554285900025
 31
0.0
  0
LINE
  5
205
330
1F
100
AcDbEntity
  8
Make2D$可见线$普通线
100
AcDbLine
 10
827.6861955220365
 20
134.7751208573563
 30
0.0
 11
827.6861955220361
 21
135.0900137581202
 31
0.0
  0
LINE
  5
206
330
1F
100
AcDbEntity
  8
Make2D$可见线$普通线
100
AcDbLine
 10
827.6861955220365
 20
134.2969560864508
 30
0.0
 11
827.6861955220365
 21
134.4873782979148
 31
0.0
  0
LINE
  5
207
330
1F
100
AcDbEntity
  8
Make2D$可见线$普通线
100
AcDbLine
 10
827.6861955220365
 20
133.8339896914374
 30
0.0
 11
827.6861955220365
 21
134.1761908377271
 31
0.0
  0
LINE
  5
208
330
1F
100
AcDbEntity
  8
Make2D$可见线$普通线
100
AcDbLine
 10
827.6861955220365
 20
133.3766818400898
 30
0.0
 11
827.6861955220365
 21
133.7268735835028
 31
0.0
  0
LINE
  5
209
330
1F
100
AcDbEntity
  8
Make2D$可见线$普通线
100
AcDbLine
 10
827.6861955220365
 20
132.9251467362478
 30
0.0
 11
827.6861955220365
 21
133.2827711730499
 31
0.0
  0
LINE
  5
20A
330
1F
100
AcDbEntity
  8
Make2D$可见线$普通线
100
AcDbLine
 10
827.6861955220365
 20
132.4794956448839
 30
0.0
 11
827.6861955220365
 21
132.7279486683817
 31
0.0
  0
LINE
  5
20B
330
1F
100
AcDbEntity
  8
Make2D$可见线$普通线
100
AcDbLine
 10
827.6861955220361
 20
132.0398368008023
 30
0.0
 11
827.6861955220365
 21
132.1897586357115
 31
0.0
  0
LINE
  5
20C
330
1F
100
AcDbEntity
  8
Make2D$可见线$普通线
100
AcDbLine
 10
827.6861955220361
 20
131.6062753212259
 30
0.0
 11
827.6861955220365
 21
131.6762586979246
 31
0.0
  0
LINE
  5
20D
330
1F
100
AcDbEntity
  8
Make2D$可见线$普通线
100
AcDbLine
 10
827.6861955220365
 20
131.1789131224234
 30
0.0
 11
827.6861955220365
 21
131.5606963397388
 31
0.0
  0
LINE
  5
20E
330
1F
100
AcDbEntity
  8
Make2D$可见线$普通线
100
AcDbLine
 10
827.6861955220365
 20
130.7654831619989
 30
0.0
 11
827.6861955220365
 21
131.144285986866
 31
0.0
  0
LINE
  5
20F
330
1F
100
AcDbEntity
  8
Make2D$可见线$普通线
100
AcDbLine
 10
827.6861955220365
 20
129.9414498230078
 30
0.0
 11
827.6861955220365
 21
130.733719107375
 31
0.0
  0
LINE
  5
210
330
1F
100
AcDbEntity
  8
Make2D$可见线$普通线
100
AcDbLine
 10
827.6861955220361
 20
126.9128179499385
 30
0.0
 11
827.6861955220365
 21
129.8733685349996
 31
0.0
  0
LINE
  5
211
330
1F
100
AcDbEntity
  8
Make2D$可见线$普通线
100
AcDbLine
 10
827.6861955220365
 20
124.0593714812912
 30
0.0
 11
827.6861955220365
 21
124.3390930636217
 31
0.0
  0
LINE
  5
212
330
1F
100
AcDbEntity
  8
Make2D$可见线$普通线
100
AcDbLine
 10
827.6861955220365
 20
123.5069923566175
 30
0.0
 11
827.6861955220365
 21
123.7697974414955
 31
0.0
  0
LINE
  5
213
330
1F
100
AcDbEntity
  8
Make2D$可见线$普通线
100
AcDbLine
 10
827.6861955220365
 20
122.984755535856
 30
0.0
 11
827.6861955220365
 21
123.2306592838272
 31
0.0
  0
LINE
  5
214
330
1F
100
AcDbEntity
  8
Make2D$可见线$普通线
100
AcDbLine
 10
827.6861955220365
 20
122.4927431222341
 30
0.0
 11
827.6861955220365
 21
122.9724462881704
 31
0.0
  0
LINE
  5
215
330
1F
100
AcDbEntity
  8
Make2D$可见线$普通线
100
AcDbLine
 10
827.6861955220365
 20
122.0309778102635
 30
0.0
 11
827.6861955220365
 21
122.4787930343869
 31
0.0
  0
LINE
  5
216
330
1F
100
AcDbEntity
  8
Make2D$可见线$普通线
100
AcDbLine
 10
827.6861955220361
 20
121.5994238001567
 30
0.0
 11
827.6861955220365
 21
122.0155402133714
 31
0.0
  0
LINE
  5
217
330
1F
100
AcDbEntity
  8
Make2D$可见线$普通线
100
AcDbLine
 10
827.6861955220365
 20
121.1979891002854
 30
0.0
 11
827.6861955220365
 21
121.5826801983119
 31
0.0
  0
LINE
  5
218
330
1F
100
AcDbEntity
  8
Make2D$可见线$普通线
100
AcDbLine
 10
827.6861955220365
 20
120.826526947174
 30
0.0
 11
827.6861955220365
 21
121.1801475557293
 31
0.0
  0
LINE
  5
219
330
1F
100
AcDbEntity
  8
Make2D$可见线$普通线
100
AcDbLine
 10
827.6861955220365
 20
120.4848379410205
 30
0.0
 11
827.6861955220365
 21
120.8078207592114
 31
0.0
  0
LINE
  5
21A
330
1F
100
AcDbEntity
  8
Make2D$可见线$普通线
100
AcDbLine
 10
827.6861955220365
 20
120.1726722545336
 30
0.0
 11
827.6861955220365
 21
120.465524112499
 31
0.0
  0
LINE
  5
21B
330
1F
100
AcDbEntity
  8
Make2D$可见线$普通线
100
AcDbLine
 10
827.6861955220365
 20
119.88973199302
 30
0.0
 11
827.6861955220365
 21
120.1530298613125
 31
0.0
  0
LINE
  5
21C
330
1F
100
AcDbEntity
  8
Make2D$可见线$普通线
100
AcDbLine
 10
827.6861955220365
 20
119.6356736839416
 30
0.0
 11
827.6861955220365
 21
119.8700604725943
 31
0.0
  0
LINE
  5
21D
330
1F
100
AcDbEntity
  8
Make2D$可见线$普通线
100
AcDbLine
 10
827.6861955220365
 20
119.4101108741975
 30
0.0
 11
827.6861955220365
 21
119.6162910594101
 31
0.0
  0
LINE
  5
21E
330
1F
100
AcDbEntity
  8
Make2D$可见线$普通线
100
AcDbLine
 10
827.6861955220365
 20
119.2126168136194
 30
0.0
 11
827.6861955220365
 21
119.3913519295465
 31
0.0
  0
LINE
  5
21F
330
1F
100
AcDbEntity
  8
Make2D$可见线$普通线
100
AcDbLine
 10
827.6861955220365
 20
119.0427272037371
 30
0.0
 11
827.6861955220365
 21
119.1948312359307
 31
0.0
  0
LINE
  5
220
330
1F
100
AcDbEntity
  8
Make2D$可见线$普通线
100
AcDbLine
 10
827.6861955220365
 20
118.8999429917867
 30
0.0
 11
827.6861955220365
 21
119.0262777072867
 31
0.0
  0
LINE
  5
221
330
1F
100
AcDbEntity
  8
Make2D$可见线$普通线
100
AcDbLine
 10
827.6861955220365
 20
118.783733192322
 30
0.0
 11
827.6861955220365
 21
118.8852034379674
 31
0.0
  0
LINE
  5
222
330
1F
100
AcDbEntity
  8
Make2D$可见线$普通线
100
AcDbLine
 10
827.6861955220365
 20
118.6935376604572
 30
0.0
 11
827.6861955220365
 21
118.7710867165961
 31
0.0
  0
LINE
  5
223
330
1F
100
AcDbEntity
  8
Make2D$可见线$普通线
100
AcDbLine
 10
827.6861955220365
 20
118.6504091558174
 30
0.0
 11
827.6861955220365
 21
118.6833748740435
 31
0.0
  0
ARC
  5
224
330
1F
100
AcDbEntity
  8
Make2D$可见线$普通线
100
AcDbCircle
 10
825.6861955220339
 20
216.6419482038975
 30
0.0
 40
2.000000000002556
100
AcDbArc
 50
0.0000000003452301
 51
88.99999999920797
  0
ARC
  5
225
330
1F
100
AcDbEntity
  8
Make2D$可见线$普通线
100
AcDbCircle
 10
825.686195522033
 20
118.572737256336
 30
0.0
 40
2.000000000003524
100
AcDbArc
 50
271.0000000008176
 51
359.9999999996238
  0
LINE
  5
226
330
1F
100
AcDbEntity
  8
Make2D$可见线$普通线
100
AcDbLine
 10
825.7211003349362
 20
218.6416435942124
 30
0.0
 11
771.6564243496732
 21
219.5853460238477
 31
0.0
  0
LINE
  5
227
330
1F
100
AcDbEntity
  8
Make2D$可见线$普通线
100
AcDbLine
 10
771.3554530122437
 20
115.6240863854914
 30
0.0
 11
825.7211003349362
 21
116.57304186602
 31
0.0
  0
LINE
  5
228
330
1F
100
AcDbEntity
  8
Make2D$可见线$普通线
100
AcDbLine
 10
801.7019564310322
 20
273.9148601795264
 30
0.0
 11
800.7327001498988
 21
272.8279149817799
 31
0.0
  0
SPLINE
  5
229
330
1F
100
AcDbEntity
  8
Make2D$可见线$普通线
100
AcDbSpline
210
0.0
220
0.0
230
1.0
 70
     8
 71
     3
 72
    13
 73
     9
 74
     0
 42
0.000000001
 43
0.0000000001
 12
1.0
 22
0.0
 32
0.0
 13
1.0
 23
0.0
 33
0.0
 40
-1.0
 40
-1.0
 40
-1.0
 40
-1.0
 40
-0.8652152255788506
 40
-0.730430451157155
 40
-0.5956456767355593
 40
-0.4608609023138641
 40
-0.2304304236874503
 40
0.0
 40
0.0
 40
0.0
 40
0.0
 10
402.4278983063759
 20
112.6073427301167
 30
0.0
 10
403.0160726455119
 20
106.7954297150095
 30
0.0
 10
403.9238522259257
 20
95.15112084218845
 30
0.0
 10
404.7251780349584
 20
77.64873595882864
 30
0.0
 10
405.2115240143908
 20
60.13595645455507
 30
0.0
 10
405.539727207019
 20
38.46442427083866
 30
0.0
 10
405.6775119920826
 20
12.61547401854887
 30
0.0
 10
405.6861955199647
 20
-7.392555064160206
 30
0.0
 10
405.6861955220334
 20
-17.39265726646727
 30
0.0
  0
LINE
  5
22A
330
1F
100
AcDbEntity
  8
Make2D$可见线$普通线
100
AcDbLine
 10
775.6493569711993
 20
-17.39266161849878
 30
0.0
 11
779.1861955020368
 21
-17.39265707928325
 31
0.0
  0
LINE
  5
22B
330
1F
100
AcDbEntity
  8
Make2D$可见线$普通线
100
AcDbLine
 10
760.8175229119443
 20
-17.39265696780399
 30
0.0
 11
775.6492286185371
 21
-17.39266161858131
 31
0.0
  0
LINE
  5
22C
330
1F
100
AcDbEntity
  8
Make2D$可见线$普通线
100
AcDbLine
 10
602.6861928925368
 20
-17.39265706614651
 30
0.0
 11
760.8174792791419
 21
-17.39265696779648
 31
0.0
  0
LINE
  5
22D
330
1F
100
AcDbEntity
  8
Make2D$可见线$普通线
100
AcDbLine
 10
454.5743573858358
 20
-17.3926572579262
 30
0.0
 11
602.6861928925368
 21
-17.39265706614651
 31
0.0
  0
LINE
  5
22E
330
1F
100
AcDbEntity
  8
Make2D$可见线$普通线
100
AcDbLine
 10
405.6918123854089
 20
-17.39265726633994
 30
0.0
 11
454.5743573858358
 21
-17.3926572579262
 31
0.0
  0
ARC
  5
22F
330
1F
100
AcDbEntity
  8
Make2D$可见线$普通线
100
AcDbCircle
 10
-304.889265430609
 20
-93.87800833865411
 30
0.0
 40
1086.770267330496
100
AcDbArc
 50
4.035732045117391
 51
5.246052012241133
  0
ARC
  5
230
330
1F
100
AcDbEntity
  8
Make2D$可见线$普通线
100
AcDbCircle
 10
892.3854903299052
 20
368.6084714383168
 30
0.0
 40
3.998977519106083
100
AcDbArc
 50
359.9838283108383
 51
86.46043895592037
  0
SPLINE
  5
231
330
1F
100
AcDbEntity
  8
Make2D$可见线$普通线
100
AcDbSpline
210
0.0
220
0.0
230
1.0
 70
     8
 71
     3
 72
    11
 73
     7
 74
     0
 42
0.000000001
 43
0.0000000001
 12
1.0
 22
0.0
 32
0.0
 13
1.0
 23
0.0
 33
0.0
 40
0.0
 40
0.0
 40
0.0
 40
0.0
 40
24.27862475877232
 40
57.9384734844482
 40
72.99328340039887
 40
82.19953508265084
 40
82.19953508265084
 40
82.19953508265084
 40
82.19953508265084
 10
407.5112888729868
 20
372.6340282505528
 30
0.0
 10
399.4184238186554
 20
372.647006673438
 30
0.0
 10
380.1056077692929
 20
372.6657027245965
 30
0.0
 10
355.7745156931373
 20
372.6777091996798
 30
0.0
 10
336.4675448667103
 20
372.6799377362468
 30
0.0
 10
328.3805305991918
 20
372.6641545623277
 30
0.0
 10
325.3118109853699
 20
372.6500881382165
 30
0.0
  0
LINE
  5
232
330
1F
100
AcDbEntity
  8
Make2D$可见线$普通线
100
AcDbLine
 10
409.9892777217892
 20
372.6301531153351
 30
0.0
 11
407.8917927793814
 21
372.6334457454925
 31
0.0
  0
ARC
  5
233
330
1F
100
AcDbEntity
  8
Make2D$可见线$普通线
100
AcDbCircle
 10
314.9991310697083
 20
366.4468269974577
 30
0.0
 40
6.000004946715863
100
AcDbArc
 50
93.19138131265638
 51
191.0540585110469
  0
LINE
  5
234
330
1F
100
AcDbEntity
  8
Make2D$可见线$普通线
100
AcDbLine
 10
759.8597269878019
 20
372.6072592731766
 30
0.0
 11
808.3345120155354
 21
372.6073056052001
 31
0.0
  0
LINE
  5
235
330
1F
100
AcDbEntity
  8
Make2D$可见线$普通线
100
AcDbLine
 10
757.1343896197827
 20
372.6072566684197
 30
0.0
 11
757.8115996724318
 21
372.6072573156662
 31
0.0
  0
ARC
  5
236
330
1F
100
AcDbEntity
  8
Make2D$可见线$普通线
100
AcDbCircle
 10
873.9083181676974
 20
48.37690252432506
 30
0.0
 40
690.2247381653809
100
AcDbArc
 50
91.76193297216619
 51
95.87115805825158
  0
ARC
  5
237
330
1F
100
AcDbEntity
  8
Make2D$可见线$普通线
100
AcDbCircle
 10
869.9791315354056
 20
203.1589404655073
 30
0.0
 40
535.3957163313844
100
AcDbArc
 50
89.7103002560437
 51
91.85093861765037
  0
ARC
  5
238
330
1F
100
AcDbEntity
  8
Make2D$可见线$普通线
100
AcDbCircle
 10
873.861167750821
 20
48.11050001616935
 30
0.0
 40
690.4918646689536
100
AcDbArc
 50
84.1633283762351
 51
88.4377393026138
  0
ARC
  5
239
330
1F
100
AcDbEntity
  8
Make2D$可见线$普通线
100
AcDbCircle
 10
874.0828514694709
 20
-112.8998292342541
 30
0.0
 40
851.4487877569037
100
AcDbArc
 50
88.74804223254766
 51
90.09398395828964
  0
LINE
  5
23A
330
1F
100
AcDbEntity
  8
Make2D$可见线$普通线
100
AcDbLine
 10
949.7466464689483
 20
709.6127970894877
 30
0.0
 11
949.7515221951121
 21
709.6120066991452
 31
0.0
  0
LINE
  5
23B
330
1F
100
AcDbEntity
  8
Make2D$可见线$普通线
100
AcDbLine
 10
949.7464530872003
 20
709.607340263872
 30
0.0
 11
949.740757425031
 21
709.6073402430527
 31
0.0
  0
LINE
  5
23C
330
1F
100
AcDbEntity
  8
Make2D$可见线$普通线
100
AcDbLine
 10
949.7648830524895
 20
709.6073403998321
 30
0.0
 11
949.761452782546
 21
709.6073403429023
 31
0.0
  0
LINE
  5
23D
330
1F
100
AcDbEntity
  8
Make2D$可见线$普通线
100
AcDbLine
 10
949.7515221951194
 20
709.6120066991434
 30
0.0
 11
949.7611607074023
 21
709.6097962678352
 31
0.0
  0
LINE
  5
23E
330
1F
100
AcDbEntity
  8
Make2D$可见线$普通线
100
AcDbLine
 10
949.7649212528922
 20
728.7761610398759
 30
0.0
 11
949.7649209501833
 21
729.0197742541136
 31
0.0
  0
LINE
  5
23F
330
1F
100
AcDbEntity
  8
Make2D$可见线$普通线
100
AcDbLine
 10
949.7648830592802
 20
709.6106785134307
 30
0.0
 11
949.764921411378
 21
728.4639536311929
 31
0.0
  0
ARC
  5
240
330
1F
100
AcDbEntity
  8
Make2D$可见线$普通线
100
AcDbCircle
 10
947.7649042136653
 20
709.6073231377469
 30
0.0
 40
1.999978838898672
100
AcDbArc
 50
270.000494527526
 51
0.0004945275455827
  0
LINE
  5
241
330
1F
100
AcDbEntity
  8
Make2D$可见线$普通线
100
AcDbLine
 10
943.9345732214156
 20
707.6073444235581
 30
0.0
 11
947.7631399604147
 21
707.6073443008579
 31
0.0
  0
LINE
  5
242
330
1F
100
AcDbEntity
  8
Make2D$可见线$普通线
100
AcDbLine
 10
799.1485289126067
 20
707.6073428056675
 30
0.0
 11
943.9345732214151
 21
707.6073444235581
 31
0.0
  0
LINE
  5
243
330
1F
100
AcDbEntity
  8
Make2D$可见线$普通线
100
AcDbLine
 10
865.9983420632238
 20
372.607360724674
 30
0.0
 11
895.8969721257677
 21
372.6073452870764
 31
0.0
  0
LINE
  5
244
330
1F
100
AcDbEntity
  8
Make2D$可见线$普通线
100
AcDbLine
 10
911.7454320392926
 20
364.8131839457333
 30
0.0
 11
899.5599162806297
 21
364.5969406548179
 31
0.0
  0
SPLINE
  5
245
330
1F
100
AcDbEntity
  8
Make2D$可见线$普通线
100
AcDbSpline
210
0.0
220
0.0
230
1.0
 70
     8
 71
     3
 72
    12
 73
     8
 74
     0
 42
0.000000001
 43
0.0000000001
 12
1.0
 22
0.0
 32
0.0
 13
1.0
 23
0.0
 33
0.0
 40
0.0
 40
0.0
 40
0.0
 40
0.0
 40
10.28834557999611
 40
20.73982877346627
 40
41.18635122605408
 40
61.88794643125664
 40
84.81623232340263
 40
84.81623232340263
 40
84.81623232340263
 40
84.81623232340263
 10
800.7327001498988
 20
272.8279149817795
 30
0.0
 10
798.4635642451194
 20
270.2580678428644
 30
0.0
 10
794.0673419492441
 20
264.9125230237901
 30
0.0
 10
786.1372110545622
 20
253.7020327161063
 30
0.0
 10
777.8307617255841
 20
238.567699530729
 30
0.0
 10
770.8250131775972
 20
218.3247493402755
 30
0.0
 10
767.8352260513693
 20
204.0737476232887
 30
0.0
 10
766.6691485132387
 20
196.518186651854
 30
0.0
  0
ARC
  5
246
330
1F
100
AcDbEntity
  8
Make2D$可见线$普通线
100
AcDbCircle
 10
913.4173030742324
 20
173.2520109959289
 30
0.0
 40
150.3772851243502
100
AcDbArc
 50
133.2340016799255
 51
137.9790755560454
  0
ARC
  5
247
330
1F
100
AcDbEntity
  8
Make2D$可见线$普通线
100
AcDbCircle
 10
851.6531780805066
 20
318.7778236610149
 30
0.0
 40
39.669254506732
100
AcDbArc
 50
174.0954086967979
 51
177.5280939264915
  0
SPLINE
  5
248
330
1F
100
AcDbEntity
  8
Make2D$可见线$普通线
100
AcDbSpline
210
0.0
220
0.0
230
1.0
 70
     8
 71
     3
 72
    10
 73
     6
 74
     0
 42
0.000000001
 43
0.0000000001
 12
1.0
 22
0.0
 32
0.0
 13
1.0
 23
0.0
 33
0.0
 40
0.0
 40
0.0
 40
0.0
 40
0.0
 40
0.5000000596046519
 40
0.5000000596046519
 40
1.0
 40
1.0
 40
1.0
 40
1.0
 10
803.0769268541594
 20
317.2782462975761
 30
0.0
 10
801.168470447777
 20
316.5572382625219
 30
0.0
 10
799.4843609357526
 20
315.7450774767162
 30
0.0
 10
796.7096992555962
 20
314.0674175122708
 30
0.0
 10
795.6050708556281
 20
313.1963907298145
 30
0.0
 10
794.9748077586369
 20
312.375660234547
 30
0.0
  0
SPLINE
  5
249
330
1F
100
AcDbEntity
  8
Make2D$可见线$普通线
100
AcDbSpline
210
0.0
220
0.0
230
1.0
 70
     8
 71
     3
 72
    10
 73
     6
 74
     0
 42
0.000000001
 43
0.0000000001
 12
1.0
 22
0.0
 32
0.0
 13
1.0
 23
0.0
 33
0.0
 40
0.0
 40
0.0
 40
0.0
 40
0.0
 40
0.5
 40
0.5
 40
1.0
 40
1.0
 40
1.0
 40
1.0
 10
812.0208362338694
 20
320.4887394599868
 30
0.0
 10
810.4852679682563
 20
320.3388803650519
 30
0.0
 10
808.9137693494677
 20
319.7430921443352
 30
0.0
 10
805.91713825937
 20
318.4816338619025
 30
0.0
 10
804.4581764511086
 20
317.8000390876846
 30
0.0
 10
803.0769268541594
 20
317.2782462975761
 30
0.0
  0
ARC
  5
24A
330
1F
100
AcDbEntity
  8
Make2D$可见线$普通线
100
AcDbCircle
 10
666.4750178580186
 20
376.3506336504328
 30
0.0
 40
155.8978398478976
100
AcDbArc
 50
335.729931185262
 51
339.0027143261152
  0
SPLINE
  5
24B
330
1F
100
AcDbEntity
  8
Make2D$可见线$普通线
100
AcDbSpline
210
0.0
220
0.0
230
1.0
 70
     8
 71
     3
 72
    10
 73
     6
 74
     0
 42
0.000000001
 43
0.0000000001
 12
1.0
 22
0.0
 32
0.0
 13
1.0
 23
0.0
 33
0.0
 40
0.9000382132984529
 40
0.9000382132984529
 40
0.9000382132984529
 40
0.9000382132984529
 40
0.9374999980606038
 40
0.9374999980606038
 40
1.0
 40
1.0
 40
1.0
 40
1.0
 10
398.2443087299544
 20
140.052494674886
 30
0.0
 10
398.986323002076
 20
136.6548796191628
 30
0.0
 10
399.6269407403624
 20
133.2368999337637
 30
0.0
 10
401.1277288502947
 20
124.0935238849784
 30
0.0
 10
401.8466565987633
 20
118.3507524856254
 30
0.0
 10
402.4278983063759
 20
112.6073427301167
 30
0.0
  0
ARC
  5
24C
330
1F
100
AcDbEntity
  8
Make2D$可见线$普通线
100
AcDbCircle
 10
278.6499175455446
 20
116.7030238271293
 30
0.0
 40
121.7346803860317
100
AcDbArc
 50
15.65165591715157
 51
24.5177430749715
  0
LINE
  5
24D
330
1F
100
AcDbEntity
  8
Make2D$可见线$普通线
100
AcDbLine
 10
380.8827446042669
 20
182.5431181325498
 30
0.0
 11
381.0332192677479
 21
182.3120419352331
 31
0.0
  0
SPLINE
  5
24E
330
1F
100
AcDbEntity
  8
Make2D$可见线$普通线
100
AcDbSpline
210
0.0
220
0.0
230
1.0
 70
     8
 71
     3
 72
    12
 73
     8
 74
     0
 42
0.000000001
 43
0.0000000001
 12
1.0
 22
0.0
 32
0.0
 13
1.0
 23
0.0
 33
0.0
 40
0.6589067478360043
 40
0.6589067478360043
 40
0.6589067478360043
 40
0.6589067478360043
 40
0.6874999902417467
 40
0.6874999902417467
 40
0.718749991242081
 40
0.718749991242081
 40
0.7234259632387919
 40
0.7234259632387919
 40
0.7234259632387919
 40
0.7234259632387919
 10
368.5712113518821
 20
199.5291810045405
 30
0.0
 10
370.1610198462663
 20
197.4153218369888
 30
0.0
 10
371.7631117910491
 20
195.3076827828349
 30
0.0
 10
375.0819026000831
 20
190.8681061463835
 30
0.0
 10
376.7948603894488
 20
188.5330955915329
 30
0.0
 10
378.695937931981
 20
185.7981842970871
 30
0.0
 10
378.941970138776
 20
185.4411407785894
 30
0.0
 10
379.1865217676191
 20
185.0829956332616
 30
0.0
  0
SPLINE
  5
24F
330
1F
100
AcDbEntity
  8
Make2D$可见线$普通线
100
AcDbSpline
210
0.0
220
0.0
230
1.0
 70
     8
 71
     3
 72
    12
 73
     8
 74
     0
 42
0.000000001
 43
0.0000000001
 12
1.0
 22
0.0
 32
0.0
 13
1.0
 23
0.0
 33
0.0
 40
0.4687499829098568
 40
0.4687499829098568
 40
0.4687499829098568
 40
0.4687499829098568
 40
0.4999999839761011
 40
0.4999999839761011
 40
0.5624999861085896
 40
0.5624999861085896
 40
0.577896787975209
 40
0.577896787975209
 40
0.577896787975209
 40
0.577896787975209
 10
341.7982759879242
 20
244.3338649633961
 30
0.0
 10
342.9307716522135
 20
241.7334826576025
 30
0.0
 10
344.1116619702552
 20
239.1455242317818
 30
0.0
 10
347.8186410261728
 20
231.4392692815704
 30
0.0
 10
350.5232939560487
 20
226.3905188724352
 30
0.0
 10
354.1994242591081
 20
220.2592440324615
 30
0.0
 10
354.9403585234113
 20
219.0548752735049
 30
0.0
 10
355.6952901387467
 20
217.8583206067742
 30
0.0
  0
ARC
  5
250
330
1F
100
AcDbEntity
  8
Make2D$可见线$普通线
100
AcDbCircle
 10
2183.681903161854
 20
729.2179303019839
 30
0.0
 40
1909.569851361211
100
AcDbArc
 50
190.9865026026728
 51
191.8166723893895
  0
LINE
  5
251
330
1F
100
AcDbEntity
  8
Make2D$可见线$普通线
100
AcDbLine
 10
897.3299875195421
 20
357.1249102851857
 30
0.0
 11
896.9893800994819
 21
334.6036761654773
 31
0.0
  0
SPLINE
  5
252
330
1F
100
AcDbEntity
  8
Make2D$可见线$普通线
100
AcDbSpline
210
0.0
220
0.0
230
1.0
 70
     8
 71
     3
 72
    10
 73
     6
 74
     0
 42
0.000000001
 43
0.0000000001
 12
1.0
 22
0.0
 32
0.0
 13
1.0
 23
0.0
 33
0.0
 40
0.0
 40
0.0
 40
0.0
 40
0.0
 40
0.5004713229143254
 40
0.5004713229143254
 40
1.0
 40
1.0
 40
1.0
 40
1.0
 10
898.3202497904153
 20
364.5749408641245
 30
0.0
 10
898.0443499338503
 20
364.5694302969146
 30
0.0
 10
897.8071799335771
 20
363.8082341063496
 30
0.0
 10
897.4645751809703
 20
361.0813238640089
 30
0.0
 10
897.364074104908
 20
359.1815381528727
 30
0.0
 10
897.3299875195421
 20
357.1249102851857
 30
0.0
  0
LINE
  5
253
330
1F
100
AcDbEntity
  8
Make2D$可见线$普通线
100
AcDbLine
 10
899.5599162806297
 20
364.5969406548179
 30
0.0
 11
898.3202497904153
 21
364.5749408641245
 31
0.0
  0
SPLINE
  5
254
330
1F
100
AcDbEntity
  8
Make2D$可见线$普通线
100
AcDbSpline
210
0.0
220
0.0
230
1.0
 70
     8
 71
     3
 72
     8
 73
     4
 74
     0
 42
0.000000001
 43
0.0000000001
 12
1.0
 22
0.0
 32
0.0
 13
1.0
 23
0.0
 33
0.0
 40
-1.0
 40
-1.0
 40
-1.0
 40
-1.0
 40
0.0
 40
0.0
 40
0.0
 40
0.0
 10
896.3234367928453
 20
366.4386668521897
 30
0.0
 10
896.3209049565899
 20
367.5939542117244
 30
0.0
 10
896.3432479001358
 20
368.6066907194322
 30
0.0
 10
896.3844676897229
 20
368.6073427300412
 30
0.0
  0
ARC
  5
255
330
1F
100
AcDbEntity
  8
Make2D$可见线$普通线
100
AcDbCircle
 10
10648.39685810686
 20
385.9362845048976
 30
0.0
 40
9752.092912385184
100
AcDbArc
 50
180.1145530458283
 51
180.3429051750308
  0
ARC
  5
256
330
1F
100
AcDbEntity
  8
Make2D$可见线$普通线
100
AcDbCircle
 10
892.4580125842751
 20
326.248950593697
 30
0.0
 40
4.060390489641739
100
AcDbArc
 50
277.739943437218
 51
359.25431962906
  0
SPLINE
  5
257
330
1F
100
AcDbEntity
  8
Make2D$可见线$普通线
100
AcDbSpline
210
0.0
220
0.0
230
1.0
 70
     8
 71
     3
 72
    12
 73
     8
 74
     0
 42
0.000000001
 43
0.0000000001
 12
1.0
 22
0.0
 32
0.0
 13
1.0
 23
0.0
 33
0.0
 40
0.0
 40
0.0
 40
0.0
 40
0.0
 40
0.1577171903770795
 40
0.4215970320321952
 40
1.289245827107312
 40
2.526792355007129
 40
4.015108221278484
 40
4.015108221278484
 40
4.015108221278484
 40
4.015108221278484
 10
896.4785960282793
 20
327.5720700269462
 30
0.0
 10
896.4579261321592
 20
327.5222013452565
 30
0.0
 10
896.3413293963176
 20
327.4368048842907
 30
0.0
 10
895.934478746226
 20
327.2949656521041
 30
0.0
 10
895.1544722072986
 20
327.1595180970667
 30
0.0
 10
893.9618287084209
 20
327.0491784305291
 30
0.0
 10
893.0528660152777
 20
327.0193510890194
 30
0.0
 10
892.5569511722301
 20
327.014585624996
 30
0.0
  0
SPLINE
  5
258
330
1F
100
AcDbEntity
  8
Make2D$可见线$普通线
100
AcDbSpline
210
0.0
220
0.0
230
1.0
 70
     8
 71
     3
 72
    11
 73
     7
 74
     0
 42
0.000000001
 43
0.0000000001
 12
1.0
 22
0.0
 32
0.0
 13
1.0
 23
0.0
 33
0.0
 40
0.0
 40
0.0
 40
0.0
 40
0.0
 40
1.031140029567114
 40
2.101031250006774
 40
8.316910198613293
 40
12.07199739915028
 40
12.07199739915028
 40
12.07199739915028
 40
12.07199739915028
 10
800.1645185784591
 20
321.9300242977874
 30
0.0
 10
800.5075316706534
 20
321.9514250545733
 30
0.0
 10
801.2060173254363
 20
322.0041011477215
 30
0.0
 10
803.9670916004052
 20
322.2517373816581
 30
0.0
 10
807.6195816573218
 20
322.7192819360498
 30
0.0
 10
810.9424887439473
 20
322.877650864737
 30
0.0
 10
812.1943857564702
 20
322.8586889428448
 30
0.0
  0
LINE
  5
259
330
1F
100
AcDbEntity
  8
Make2D$可见线$普通线
100
AcDbLine
 10
735.3602446250029
 20
302.0658963765577
 30
0.0
 11
702.2707842665709
 21
301.9812602784918
 31
0.0
  0
SPLINE
  5
25A
330
1F
100
AcDbEntity
  8
Make2D$可见线$普通线
100
AcDbSpline
210
0.0
220
0.0
230
1.0
 70
     8
 71
     3
 72
    14
 73
    10
 74
     0
 42
0.000000001
 43
0.0000000001
 12
1.0
 22
0.0
 32
0.0
 13
1.0
 23
0.0
 33
0.0
 40
0.0
 40
0.0
 40
0.0
 40
0.0
 40
0.705575021794094
 40
1.578784032936903
 40
3.878078076243139
 40
6.885066323966158
 40
10.53717127550928
 40
19.36056419776809
 40
29.33365706267551
 40
29.33365706267551
 40
29.33365706267551
 40
29.33365706267551
 10
764.2200685424154
 20
305.8378301447415
 30
0.0
 10
764.034889768086
 20
305.6925072162671
 30
0.0
 10
763.5892838302198
 20
305.4101523451982
 30
0.0
 10
762.4110768545133
 20
304.871504455572
 30
0.0
 10
760.4377215437767
 20
304.2685665645613
 30
0.0
 10
757.5161176951124
 20
303.6445314676535
 30
0.0
 10
752.41041934025
 20
302.8769774486545
 30
0.0
 10
744.9494017810362
 20
302.249607169791
 30
0.0
 10
738.6848262163394
 20
302.0740572770933
 30
0.0
 10
735.3602446250029
 20
302.0658963765577
 30
0.0
  0
ARC
  5
25B
330
1F
100
AcDbEntity
  8
Make2D$可见线$普通线
100
AcDbCircle
 10
598.4446543935142
 20
512.3340021565771
 30
0.0
 40
264.8058854930935
100
AcDbArc
 50
308.7575452612331
 51
311.8518479670041
  0
SPLINE
  5
25C
330
1F
100
AcDbEntity
  8
Make2D$可见线$普通线
100
AcDbSpline
210
0.0
220
0.0
230
1.0
 70
     8
 71
     3
 72
    10
 73
     6
 74
     0
 42
0.000000001
 43
0.0000000001
 12
1.0
 22
0.0
 32
0.0
 13
1.0
 23
0.0
 33
0.0
 40
0.0
 40
0.0
 40
0.0
 40
0.0
 40
0.4999571993811711
 40
0.4999571993811711
 40
1.0
 40
1.0
 40
1.0
 40
1.0
 10
764.7678233638621
 20
316.836725814655
 30
0.0
 10
767.7863599725242
 20
316.8774657492363
 30
0.0
 10
770.7515971981611
 20
316.7105472163107
 30
0.0
 10
774.8298042891984
 20
316.0202877960687
 30
0.0
 10
775.639838845525
 20
315.5488845171553
 30
0.0
 10
775.124939678371
 20
315.0873702881395
 30
0.0
  0
LINE
  5
25D
330
1F
100
AcDbEntity
  8
Make2D$可见线$普通线
100
AcDbLine
 10
673.2475481982733
 20
315.6104454599968
 30
0.0
 11
764.7678233638621
 21
316.836725814655
 31
0.0
  0
SPLINE
  5
25E
330
1F
100
AcDbEntity
  8
Make2D$可见线$普通线
100
AcDbSpline
210
0.0
220
0.0
230
1.0
 70
     8
 71
     3
 72
    14
 73
    10
 74
     0
 42
0.000000001
 43
0.0000000001
 12
1.0
 22
0.0
 32
0.0
 13
1.0
 23
0.0
 33
0.0
 40
0.0
 40
0.0
 40
0.0
 40
0.0
 40
0.1560991325556625
 40
0.3509730930228063
 40
0.9653730557733381
 40
1.879564763412034
 40
3.041890838866955
 40
5.968733038737023
 40
9.39863327161223
 40
9.39863327161223
 40
9.39863327161223
 40
9.39863327161223
 10
664.1217779271278
 20
314.1537943275189
 30
0.0
 10
664.1351443324347
 20
314.2041924470243
 30
0.0
 10
664.1958625614161
 20
314.3072134126426
 30
0.0
 10
664.4493735391361
 20
314.5108346653853
 30
0.0
 10
664.9818837327884
 20
314.7350232179015
 30
0.0
 10
665.8479286253214
 20
314.9705307288709
 30
0.0
 10
667.4899578464829
 20
315.2705736417977
 30
0.0
 10
669.9865576523107
 20
315.5137403520819
 30
0.0
 10
672.104177749874
 20
315.5956817984986
 30
0.0
 10
673.2475481982733
 20
315.6104454599968
 30
0.0
  0
SPLINE
  5
25F
330
1F
100
AcDbEntity
  8
Make2D$可见线$普通线
100
AcDbSpline
210
0.0
220
0.0
230
1.0
 70
     8
 71
     3
 72
    10
 73
     6
 74
     0
 42
0.000000001
 43
0.0000000001
 12
1.0
 22
0.0
 32
0.0
 13
1.0
 23
0.0
 33
0.0
 40
0.0
 40
0.0
 40
0.0
 40
0.0
 40
0.2481012643166287
 40
0.2481012643166287
 40
0.3184740930025667
 40
0.3184740930025667
 40
0.3184740930025667
 40
0.3184740930025667
 10
665.790345878599
 20
313.2280212173396
 30
0.0
 10
664.9995519670633
 20
313.4153986133974
 30
0.0
 10
664.3696891454183
 20
313.6495214308966
 30
0.0
 10
664.1211444019546
 20
313.994867973405
 30
0.0
 10
664.101588161896
 20
314.073429466343
 30
0.0
 10
664.1215284959221
 20
314.1528094008695
 30
0.0
  0
SPLINE
  5
260
330
1F
100
AcDbEntity
  8
Make2D$可见线$普通线
100
AcDbSpline
210
0.0
220
0.0
230
1.0
 70
     8
 71
     3
 72
    10
 73
     6
 74
     0
 42
0.000000001
 43
0.0000000001
 12
1.0
 22
0.0
 32
0.0
 13
1.0
 23
0.0
 33
0.0
 40
0.0
 40
0.0
 40
0.0
 40
0.0
 40
0.4998602528029509
 40
0.4998602528029509
 40
1.0
 40
1.0
 40
1.0
 40
1.0
 10
692.6047984585512
 20
303.1859080204645
 30
0.0
 10
690.1928201867618
 20
304.9727232175514
 30
0.0
 10
686.7100845296991
 20
306.721896329957
 30
0.0
 10
677.7181993377772
 20
310.0894052519839
 30
0.0
 10
672.2194054219303
 20
311.7039647890701
 30
0.0
 10
665.790345878599
 20
313.2280212173396
 30
0.0
  0
SPLINE
  5
261
330
1F
100
AcDbEntity
  8
Make2D$可见线$普通线
100
AcDbSpline
210
0.0
220
0.0
230
1.0
 70
     8
 71
     3
 72
    10
 73
     6
 74
     0
 42
0.000000001
 43
0.0000000001
 12
1.0
 22
0.0
 32
0.0
 13
1.0
 23
0.0
 33
0.0
 40
0.0
 40
0.0
 40
0.0
 40
0.0
 40
0.5001206789370003
 40
0.5001206789370003
 40
1.0
 40
1.0
 40
1.0
 40
1.0
 10
702.2707842665709
 20
301.9812602784918
 30
0.0
 10
699.9890015072074
 20
301.9754912139101
 30
0.0
 10
697.7812743473046
 20
302.0928235686711
 30
0.0
 10
694.2668185799171
 20
302.5335315356856
 30
0.0
 10
693.0690075854013
 20
302.8427439165539
 30
0.0
 10
692.6047984585512
 20
303.1859080204645
 30
0.0
  0
SPLINE
  5
262
330
1F
100
AcDbEntity
  8
Make2D$可见线$普通线
100
AcDbSpline
210
0.0
220
0.0
230
1.0
 70
     8
 71
     3
 72
     8
 73
     4
 74
     0
 42
0.000000001
 43
0.0000000001
 12
1.0
 22
0.0
 32
0.0
 13
1.0
 23
0.0
 33
0.0
 40
0.0
 40
0.0
 40
0.0
 40
0.0
 40
1.0
 40
1.0
 40
1.0
 40
1.0
 10
695.0447529820735
 20
301.8997740396421
 30
0.0
 10
698.6272935322563
 20
301.5994257482175
 30
0.0
 10
701.0588965922843
 20
301.0598652595077
 30
0.0
 10
701.7548233220955
 20
300.4398693191847
 30
0.0
  0
SPLINE
  5
263
330
1F
100
AcDbEntity
  8
Make2D$可见线$普通线
100
AcDbSpline
210
0.0
220
0.0
230
1.0
 70
     8
 71
     3
 72
     8
 73
     4
 74
     0
 42
0.000000001
 43
0.0000000001
 12
1.0
 22
0.0
 32
0.0
 13
1.0
 23
0.0
 33
0.0
 40
0.0
 40
0.0
 40
0.0
 40
0.0
 40
1.0
 40
1.0
 40
1.0
 40
1.0
 10
692.572525203665
 20
302.4178083098318
 30
0.0
 10
692.872649066865
 20
302.197589138998
 30
0.0
 10
693.7625821797405
 20
302.0072688178175
 30
0.0
 10
695.0447529820735
 20
301.8997740396421
 30
0.0
  0
LINE
  5
264
330
1F
100
AcDbEntity
  8
Make2D$可见线$普通线
100
AcDbLine
 10
691.2661839542884
 20
303.3682231274811
 30
0.0
 11
692.572525203665
 21
302.4178083098318
 31
0.0
  0
ARC
  5
265
330
1F
100
AcDbEntity
  8
Make2D$可见线$普通线
100
AcDbCircle
 10
683.8455107216264
 20
292.8113681875587
 30
0.0
 40
12.90401400528182
100
AcDbArc
 50
54.89567230451564
 51
64.38718822843722
  0
ARC
  5
266
330
1F
100
AcDbEntity
  8
Make2D$可见线$普通线
100
AcDbCircle
 10
679.4699406623336
 20
283.6577575826325
 30
0.0
 40
23.04965976711494
100
AcDbArc
 50
64.41548091670072
 51
72.40199281769388
  0
SPLINE
  5
267
330
1F
100
AcDbEntity
  8
Make2D$可见线$普通线
100
AcDbSpline
210
0.0
220
0.0
230
1.0
 70
     8
 71
     3
 72
     8
 73
     4
 74
     0
 42
0.000000001
 43
0.0000000001
 12
1.0
 22
0.0
 32
0.0
 13
1.0
 23
0.0
 33
0.0
 40
0.0
 40
0.0
 40
0.0
 40
0.0
 40
1.0
 40
1.0
 40
1.0
 40
1.0
 10
677.766223379384
 20
307.1706920648571
 30
0.0
 10
681.4970099348079
 20
306.7928445010853
 30
0.0
 10
684.5321975937454
 20
306.2526344659886
 30
0.0
 10
686.4386995950463
 20
305.6287205637468
 30
0.0
  0
ARC
  5
268
330
1F
100
AcDbEntity
  8
Make2D$可见线$普通线
100
AcDbCircle
 10
600.0828526913532
 20
-464.6182052467223
 30
0.0
 40
775.6886025299569
100
AcDbArc
 50
84.25232860273468
 51
85.59161516926011
  0
ARC
  5
269
330
1F
100
AcDbEntity
  8
Make2D$可见线$普通线
100
AcDbCircle
 10
660.8897445051701
 20
320.1044582444235
 30
0.0
 40
11.39058929444586
100
AcDbArc
 50
260.3713627460648
 51
264.0354339315353
  0
ARC
  5
26A
330
1F
100
AcDbEntity
  8
Make2D$可见线$普通线
100
AcDbCircle
 10
597.9250839067392
 20
-21.34622534822951
 30
0.0
 40
335.8182158405378
100
AcDbArc
 50
79.52404144523044
 51
80.50703087979258
  0
ARC
  5
26B
330
1F
100
AcDbEntity
  8
Make2D$可见线$普通线
100
AcDbCircle
 10
548.4466367774627
 20
-312.5782110382585
 30
0.0
 40
631.2228055442683
100
AcDbArc
 50
80.43723023777034
 51
81.30720648354978
  0
ARC
  5
26C
330
1F
100
AcDbEntity
  8
Make2D$可见线$普通线
100
AcDbCircle
 10
786.2189855444481
 20
-743931.9445602001
 30
0.0
 40
744253.8747151508
100
AcDbArc
 50
89.99892641447616
 51
90.01328985422384
  0
SPLINE
  5
26D
330
1F
100
AcDbEntity
  8
Make2D$可见线$普通线
100
AcDbSpline
210
0.0
220
0.0
230
1.0
 70
     8
 71
     3
 72
    10
 73
     6
 74
     0
 42
0.000000001
 43
0.0000000001
 12
1.0
 22
0.0
 32
0.0
 13
1.0
 23
0.0
 33
0.0
 40
0.0
 40
0.0
 40
0.0
 40
0.0
 40
0.4991081925644501
 40
0.4991081925644501
 40
1.0
 40
1.0
 40
1.0
 40
1.0
 10
790.5089860837807
 20
319.5480001423107
 30
0.0
 10
791.0379831037108
 20
320.0180604944503
 30
0.0
 10
792.2517591830933
 20
320.4719275389321
 30
0.0
 10
795.5502578635528
 20
321.2798591150627
 30
0.0
 10
797.6766438676682
 20
321.6426994430408
 30
0.0
 10
800.1645185784591
 20
321.9300242977874
 30
0.0
  0
ARC
  5
26E
330
1F
100
AcDbEntity
  8
Make2D$可见线$普通线
100
AcDbCircle
 10
610.68787948045
 20
522.5548539341929
 30
0.0
 40
271.1962630025072
100
AcDbArc
 50
304.8485531392541
 51
311.534148770151
  0
ARC
  5
26F
330
1F
100
AcDbEntity
  8
Make2D$可见线$普通线
100
AcDbCircle
 10
699.4083150938518
 20
297.747647924198
 30
0.0
 40
3.571296249940591
100
AcDbArc
 50
35.69294860309815
 51
48.92497960591378
  0
LINE
  5
270
330
1F
100
AcDbEntity
  8
Make2D$可见线$普通线
100
AcDbLine
 10
762.564369813791
 20
299.9854519938704
 30
0.0
 11
702.3087624040086
 21
299.8312895214608
 31
0.0
  0
LINE
  5
271
330
1F
100
AcDbEntity
  8
Make2D$可见线$普通线
100
AcDbLine
 10
765.6519230966137
 20
299.993495534643
 30
0.0
 11
762.564369813791
 21
299.9854519938704
 31
0.0
  0
SPLINE
  5
272
330
1F
100
AcDbEntity
  8
Make2D$可见线$普通线
100
AcDbSpline
210
0.0
220
0.0
230
1.0
 70
     8
 71
     3
 72
    17
 73
    13
 74
     0
 42
0.000000001
 43
0.0000000001
 12
1.0
 22
0.0
 32
0.0
 13
1.0
 23
0.0
 33
0.0
 40
0.0
 40
0.0
 40
0.0
 40
0.0
 40
1.719975653896134
 40
2.546359524216388
 40
3.363581451637765
 40
4.178574081826826
 40
4.87323913150789
 40
5.671153190796405
 40
6.360131839441869
 40
7.764266144881634
 40
9.183696219005911
 40
12.02490294826622
 40
12.02490294826622
 40
12.02490294826622
 40
12.02490294826622
 10
768.1124919736417
 20
290.9954897371722
 30
0.0
 10
768.493033182498
 20
291.4244316027371
 30
0.0
 10
768.9932416726197
 20
292.1152765348547
 30
0.0
 10
769.5025482317883
 20
293.1164553472211
 30
0.0
 10
769.7853711212842
 20
293.8867661372367
 30
0.0
 10
769.9658404506213
 20
294.6432577244461
 30
0.0
 10
770.041454111938
 20
295.4097615927481
 30
0.0
 10
770.0164222687731
 20
296.13900928922
 30
0.0
 10
769.8335703157641
 20
297.0878372478728
 30
0.0
 10
769.3521596775477
 20
298.1709095997455
 30
0.0
 10
768.0292386432034
 20
299.5633859254867
 30
0.0
 10
766.5971951032298
 20
300.0021526789258
 30
0.0
 10
765.6519230966137
 20
299.9934955346432
 30
0.0
  0
ARC
  5
273
330
1F
100
AcDbEntity
  8
Make2D$可见线$普通线
100
AcDbCircle
 10
612.1287850355894
 20
514.5405472279793
 30
0.0
 40
272.5863341378369
100
AcDbArc
 50
304.9062947968104
 51
312.1274532901537
  0
SPLINE
  5
274
330
1F
100
AcDbEntity
  8
Make2D$可见线$普通线
100
AcDbSpline
210
0.0
220
0.0
230
1.0
 70
     8
 71
     3
 72
    15
 73
    11
 74
     0
 42
0.000000001
 43
0.0000000001
 12
1.0
 22
0.0
 32
0.0
 13
1.0
 23
0.0
 33
0.0
 40
0.0
 40
0.0
 40
0.0
 40
0.0
 40
23.94701923175456
 40
51.41444902699502
 40
79.56566510448454
 40
107.9978718576505
 40
137.6344829360078
 40
165.7863409110725
 40
192.9356893525439
 40
218.6151412556041
 40
218.6151412556041
 40
218.6151412556041
 40
218.6151412556041
 10
619.6070033130281
 20
194.0259012915108
 30
0.0
 10
627.5348603806683
 20
194.9650805282051
 30
0.0
 10
644.4019311546849
 20
198.1960919642863
 30
0.0
 10
669.6553464879325
 20
206.4695122679129
 30
0.0
 10
695.1318071048127
 20
218.223166267587
 30
0.0
 10
719.8502514756042
 20
232.96514204921
 30
0.0
 10
742.8785186761315
 20
250.2263675000017
 30
0.0
 10
763.6542884361779
 20
269.5223656656126
 30
0.0
 10
781.2332521941498
 20
290.0729339726809
 30
0.0
 10
790.8606286914323
 20
304.8690677457562
 30
0.0
 10
794.9748077586369
 20
312.375660234547
 30
0.0
  0
ARC
  5
275
330
1F
100
AcDbEntity
  8
Make2D$可见线$普通线
100
AcDbCircle
 10
731.6282173996798
 20
322.6080971712062
 30
0.0
 40
48.27483029453944
100
AcDbArc
 50
312.5026655498307
 51
319.0919822704066
  0
SPLINE
  5
276
330
1F
100
AcDbEntity
  8
Make2D$可见线$普通线
100
AcDbSpline
210
0.0
220
0.0
230
1.0
 70
     8
 71
     3
 72
    12
 73
     8
 74
     0
 42
0.000000001
 43
0.0000000001
 12
1.0
 22
0.0
 32
0.0
 13
1.0
 23
0.0
 33
0.0
 40
0.0
 40
0.0
 40
0.0
 40
0.0
 40
4.616219853199491
 40
9.149374601244526
 40
17.44735166330609
 40
25.04949973687291
 40
32.39404397653159
 40
32.39404397653159
 40
32.39404397653159
 40
32.39404397653159
 10
613.5880257100721
 20
321.9101339271615
 30
0.0
 10
615.116465234712
 20
321.7346536738632
 30
0.0
 10
618.1396225287372
 20
321.3208021063372
 30
0.0
 10
623.8534534701939
 20
320.2301064079184
 30
0.0
 10
630.4316343650235
 20
318.4200506810405
 30
0.0
 10
637.6031607288355
 20
315.4406641826774
 30
0.0
 10
641.8779628326815
 20
312.8481816005371
 30
0.0
 10
643.8474356293855
 20
311.3936776054466
 30
0.0
  0
LINE
  5
277
330
1F
100
AcDbEntity
  8
Make2D$可见线$普通线
100
AcDbLine
 10
762.5981753629499
 20
287.0133874866065
 30
0.0
 11
702.047420265008
 21
286.8584591687099
 31
0.0
  0
LINE
  5
278
330
1F
100
AcDbEntity
  8
Make2D$可见线$普通线
100
AcDbLine
 10
764.2438758159378
 20
287.0176761840844
 30
0.0
 11
762.5981753629499
 21
287.0133874866065
 31
0.0
  0
SPLINE
  5
279
330
1F
100
AcDbEntity
  8
Make2D$可见线$普通线
100
AcDbSpline
210
0.0
220
0.0
230
1.0
 70
     8
 71
     3
 72
    12
 73
     8
 74
     0
 42
0.000000001
 43
0.0000000001
 12
1.0
 22
0.0
 32
0.0
 13
1.0
 23
0.0
 33
0.0
 40
0.0
 40
0.0
 40
0.0
 40
0.0
 40
16.88931406081887
 40
34.30542689519411
 40
69.88849734844653
 40
105.4958648809166
 40
139.7244354375617
 40
139.7244354375617
 40
139.7244354375617
 40
139.7244354375617
 10
650.2126956596371
 20
209.7682216783901
 30
0.0
 10
655.6017788223735
 20
211.398231473024
 30
0.0
 10
666.4072180125318
 20
215.1651872612845
 30
0.0
 10
687.7563541296154
 20
224.535520983761
 30
0.0
 10
713.3823795992857
 20
239.3713745036325
 30
0.0
 10
741.0838082890405
 20
261.1364843071058
 30
0.0
 10
757.1282527955486
 20
278.0965684349003
 30
0.0
 10
764.2438758159378
 20
287.0176761840846
 30
0.0
  0
ARC
  5
27A
330
1F
100
AcDbEntity
  8
Make2D$可见线$普通线
100
AcDbCircle
 10
682.8058267346867
 20
266.0273820252222
 30
0.0
 40
20.09151928190659
100
AcDbArc
 50
94.50614283422046
 51
170.4473626645866
  0
SPLINE
  5
27B
330
1F
100
AcDbEntity
  8
Make2D$可见线$普通线
100
AcDbSpline
210
0.0
220
0.0
230
1.0
 70
     8
 71
     3
 72
    12
 73
     8
 74
     0
 42
0.000000001
 43
0.0000000001
 12
1.0
 22
0.0
 32
0.0
 13
1.0
 23
0.0
 33
0.0
 40
0.0
 40
0.0
 40
0.0
 40
0.0
 40
7.305959385022511
 40
14.51573679332559
 40
29.75126179312752
 40
45.35073104082057
 40
60.97164552605201
 40
60.97164552605201
 40
60.97164552605201
 40
60.97164552605201
 10
650.2126956596371
 20
209.7682216783901
 30
0.0
 10
650.8412349552191
 20
212.1210400753
 30
0.0
 10
652.0587339862082
 20
216.8040207602905
 30
0.0
 10
654.4350313408613
 20
226.4324264495888
 30
0.0
 10
657.242731351746
 20
238.8002473479635
 30
0.0
 10
660.314629691693
 20
253.978852250601
 30
0.0
 10
662.1445474531802
 20
264.2242107401717
 30
0.0
 10
662.9929053603555
 20
269.3616426133879
 30
0.0
  0
SPLINE
  5
27C
330
1F
100
AcDbEntity
  8
Make2D$可见线$普通线
100
AcDbSpline
210
0.0
220
0.0
230
1.0
 70
     8
 71
     3
 72
    10
 73
     6
 74
     0
 42
0.000000001
 43
0.0000000001
 12
1.0
 22
0.0
 32
0.0
 13
1.0
 23
0.0
 33
0.0
 40
0.0
 40
0.0
 40
0.0
 40
0.0
 40
0.5006073844352075
 40
0.5006073844352075
 40
1.0
 40
1.0
 40
1.0
 40
1.0
 10
642.7910590736387
 20
206.6962718928103
 30
0.0
 10
644.5734371545191
 20
207.2670297174777
 30
0.0
 10
646.1908492018952
 20
207.8530534264314
 30
0.0
 10
648.790227629604
 20
208.9315648152965
 30
0.0
 10
649.7603707969242
 20
209.4181337838413
 30
0.0
 10
650.2126956596371
 20
209.7682216783901
 30
0.0
  0
SPLINE
  5
27D
330
1F
100
AcDbEntity
  8
预设值
100
AcDbSpline
210
0.0
220
0.0
230
1.0
 70
    12
 71
     2
 72
     8
 73
     5
 74
     0
 42
0.000000001
 43
0.0000000001
 12
1.0
 22
0.0
 32
0.0
 13
1.0
 23
0.0
 33
0.0
 40
0.0
 40
0.0
 40
0.0
 40
28.83185280949305
 40
28.83185280949305
 40
57.6738075808418
 40
57.6738075808418
 40
57.6738075808418
 10
808.3346321439055
 20
372.6136763169739
 30
0.0
 41
1.0
 10
822.7410081107233
 20
371.9512087153379
 30
0.0
 41
0.9994100432348062
 10
837.1588753424851
 20
372.2792884431674
 30
0.0
 41
1.0
 10
851.5767425742469
 20
372.6073681709971
 30
0.0
 41
0.9999352958842128
 10
865.9983420632238
 20
372.607360724674
 30
0.0
 41
1.0
  0
SPLINE
  5
27E
330
1F
100
AcDbEntity
  8
预设值
100
AcDbSpline
210
0.0
220
0.0
230
1.0
 70
    12
 71
     2
 72
     8
 73
     5
 74
     0
 42
0.000000001
 43
0.0000000001
 12
1.0
 22
0.0
 32
0.0
 13
1.0
 23
0.0
 33
0.0
 40
0.0
 40
0.0
 40
0.0
 40
23.939445121174
 40
23.939445121174
 40
47.8788770346292
 40
47.8788770346292
 40
47.8788770346292
 10
895.8969721257677
 20
372.6073452870769
 30
0.0
 41
1.0
 10
907.8666955100792
 20
372.6073391067392
 30
0.0
 41
0.999999896773788
 10
919.8364139464179
 20
372.5964555527609
 30
0.0
 41
1.0
 10
931.8061323827566
 20
372.5855719987924
 30
0.0
 41
0.9999990692036227
 10
943.7758359526842
 20
372.6073514623367
 30
0.0
 41
1.0
  0
SPLINE
  5
27F
330
1F
100
AcDbEntity
  8
预设值
100
AcDbSpline
210
0.0
220
0.0
230
1.0
 70
    12
 71
     2
 72
     8
 73
     5
 74
     0
 42
0.000000001
 43
0.0000000001
 12
1.0
 22
0.0
 32
0.0
 13
1.0
 23
0.0
 33
0.0
 40
0.0
 40
0.0
 40
0.0
 40
55.31328531801156
 40
55.31328531801156
 40
110.62660985213
 40
110.62660985213
 40
110.62660985213
 10
573.5933098954431
 20
372.62597323113
 30
0.0
 41
1.0
 10
601.249926053609
 20
372.678530865099
 30
0.0
 41
0.9999987287827754
 10
628.9065691877636
 20
372.6428913502033
 30
0.0
 41
1.0
 10
656.5632123219182
 20
372.6072518352798
 30
0.0
 41
0.9999997922539414
 10
684.2198784193495
 20
372.6072665538086
 30
0.0
 41
1.0
  0
SPLINE
  5
280
330
1F
100
AcDbEntity
  8
预设值
100
AcDbSpline
210
0.0
220
0.0
230
1.0
 70
    12
 71
     2
 72
     8
 73
     5
 74
     0
 42
0.000000001
 43
0.0000000001
 12
1.0
 22
0.0
 32
0.0
 13
1.0
 23
0.0
 33
0.0
 40
0.0
 40
0.0
 40
0.0
 40
39.88588529178617
 40
39.88588529178617
 40
79.87018176897489
 40
79.87018176897489
 40
79.87018176897489
 10
766.6691485132387
 20
196.518186651854
 30
0.0
 41
1.0
 10
763.6191943779636
 20
176.7561093665867
 30
0.0
 41
0.9960210993293027
 10
764.1259735470862
 20
156.7664847145352
 30
0.0
 41
1.0
 10
764.632752716209
 20
136.7768600624838
 30
0.0
 41
0.9997075171907237
 10
766.1055261982578
 20
116.8351235000193
 30
0.0
 41
1.0
  0
SPLINE
  5
281
330
1F
100
AcDbEntity
  8
预设值
100
AcDbSpline
210
0.0
220
0.0
230
1.0
 70
    12
 71
     2
 72
     8
 73
     5
 74
     0
 42
0.000000001
 43
0.0000000001
 12
1.0
 22
0.0
 32
0.0
 13
1.0
 23
0.0
 33
0.0
 40
0.0
 40
0.0
 40
0.0
 40
3.620871416445767
 40
3.620871416445767
 40
7.24288341230042
 40
7.24288341230042
 40
7.24288341230042
 10
896.9893800994819
 20
334.6036761654773
 30
0.0
 41
1.0
 10
896.964537871081
 20
332.7925355052419
 30
0.0
 41
0.9992752824235354
 10
897.0775482135978
 20
330.9847533585346
 30
0.0
 41
1.0
 10
897.1905585561144
 20
329.1769712118272
 30
0.0
 41
0.9997474176550416
 10
897.2222174416004
 20
327.3659368823792
 30
0.0
 41
1.0
  0
SPLINE
  5
282
330
1F
100
AcDbEntity
  8
预设值
100
AcDbSpline
210
0.0
220
0.0
230
1.0
 70
    12
 71
     2
 72
     8
 73
     5
 74
     0
 42
0.000000001
 43
0.0000000001
 12
1.0
 22
0.0
 32
0.0
 13
1.0
 23
0.0
 33
0.0
 40
0.0
 40
0.0
 40
0.0
 40
0.6884683425490028
 40
0.6884683425490028
 40
1.37679134756894
 40
1.37679134756894
 40
1.37679134756894
 10
896.4785960282788
 20
327.5720700269462
 30
0.0
 41
1.0
 10
896.4806567189786
 20
327.2277548083272
 30
0.0
 41
0.9996201055347778
 10
896.5016868604143
 20
326.8840762530316
 30
0.0
 41
1.0
 10
896.5227170018496
 20
326.540397697736
 30
0.0
 41
0.9993036338979482
 10
896.5180592058609
 20
326.1961078181935
 30
0.0
 41
1.0
  0
SPLINE
  5
283
330
1F
100
AcDbEntity
  8
Make2D$可见线$普通线
100
AcDbSpline
210
0.0
220
0.0
230
1.0
 70
     8
 71
     3
 72
    11
 73
     7
 74
     0
 42
0.000000001
 43
0.0000000001
 12
1.0
 22
0.0
 32
0.0
 13
1.0
 23
0.0
 33
0.0
 40
0.0
 40
0.0
 40
0.0
 40
0.0
 40
10.78843745347547
 40
22.64162968855766
 40
46.36273036033506
 40
93.26070859528484
 40
93.26070859528484
 40
93.26070859528484
 40
93.26070859528484
 10
893.2758953757229
 20
322.2483027291184
 30
0.0
 10
889.7098112119993
 20
321.7804443039051
 30
0.0
 10
882.2649016435576
 20
320.5184911230358
 30
0.0
 10
867.2579528134456
 20
316.766555523943
 30
0.0
 10
841.5054679547438
 20
306.9100930613677
 30
0.0
 10
821.8048116173713
 20
293.518041395429
 30
0.0
 10
810.4119326518135
 20
282.8112257864263
 30
0.0
  0
LINE
  5
284
330
1F
100
AcDbEntity
  8
预设值
100
AcDbLine
 10
602.6960245752143
 20
326.7024854465149
 30
0.0
 11
602.6872817813737
 21
195.3541889425783
 31
0.0
  0
SPLINE
  5
285
330
1F
100
AcDbEntity
  8
Make2D$可见线$普通线
100
AcDbSpline
210
0.0
220
0.0
230
1.0
 70
     8
 71
     3
 72
    16
 73
    12
 74
     0
 42
0.000000001
 43
0.0000000001
 12
1.0
 22
0.0
 32
0.0
 13
1.0
 23
0.0
 33
0.0
 40
0.0
 40
0.0
 40
0.0
 40
0.0
 40
0.1350902263597387
 40
0.2990681921677149
 40
0.5428788294437782
 40
1.296519296362466
 40
1.815816513235228
 40
3.101906302607231
 40
6.004894422041199
 40
9.23925850462844
 40
12.04687119907338
 40
12.04687119907338
 40
12.04687119907338
 40
12.04687119907338
 10
602.6960245752143
 20
326.7024854465149
 30
0.0
 10
602.7416002882128
 20
326.7029891486861
 30
0.0
 10
602.8381390946597
 20
326.6736095505948
 30
0.0
 10
602.9932353663544
 20
326.5787993763047
 30
0.0
 10
603.2956650173974
 20
326.3371311396579
 30
0.0
 10
603.6838808321818
 20
326.0130255778581
 30
0.0
 10
604.365050878916
 20
325.4993590347126
 30
0.0
 10
605.6810852662493
 20
324.6406737180932
 30
0.0
 10
607.89537898967
 20
323.5267437907046
 30
0.0
 10
610.6892927829122
 20
322.4726370624669
 30
0.0
 10
612.6572065174555
 20
322.015800839994
 30
0.0
 10
613.5880257100721
 20
321.9101339271617
 30
0.0
  0
SPLINE
  5
286
330
1F
100
AcDbEntity
  8
预设值
100
AcDbSpline
210
0.0
220
0.0
230
1.0
 70
    12
 71
     2
 72
     8
 73
     5
 74
     0
 42
0.000000001
 43
0.0000000001
 12
1.0
 22
0.0
 32
0.0
 13
1.0
 23
0.0
 33
0.0
 40
0.0
 40
0.0
 40
0.0
 40
10.4200071549801
 40
10.4200071549801
 40
20.84055684160398
 40
20.84055684160398
 40
20.84055684160398
 10
681.2273168836805
 20
286.0567967372276
 30
0.0
 41
1.0
 10
686.4220329733278
 20
286.4655514447682
 30
0.0
 41
0.9997785135870021
 10
691.6293486280165
 20
286.6553390508191
 30
0.0
 41
1.0
 10
696.8366642827051
 20
286.8451266568695
 30
0.0
 41
0.99985659301737
 10
702.047420265008
 20
286.8584591687099
 30
0.0
 41
1.0
  0
SPLINE
  5
287
330
1F
100
AcDbEntity
  8
预设值
100
AcDbSpline
210
0.0
220
0.0
230
1.0
 70
    12
 71
     2
 72
     8
 73
     5
 74
     0
 42
0.000000001
 43
0.0000000001
 12
1.0
 22
0.0
 32
0.0
 13
1.0
 23
0.0
 33
0.0
 40
0.0
 40
0.0
 40
0.0
 40
118.5293982019468
 40
118.5293982019468
 40
238.0757268447445
 40
238.0757268447445
 40
238.0757268447445
 10
808.5943145350377
 20
312.2706681286706
 30
0.0
 41
1.0
 10
783.575194421048
 20
256.7821901757353
 30
0.0
 41
0.9609506564905596
 10
732.8773621880581
 20
223.0975146735534
 30
0.0
 41
1.0
 10
682.1795299550679
 20
189.412839171374
 30
0.0
 41
0.9732337632221557
 10
621.7687778895654
 20
181.9651152444335
 30
0.0
 41
1.0
  0
ARC
  5
288
330
1F
100
AcDbEntity
  8
Make2D$可见线$普通线
100
AcDbCircle
 10
593.0794323328405
 20
143861.3894703492
 30
0.0
 40
143534.6873070507
100
AcDbArc
 50
270.0038387246981
 51
270.1195446944565
  0
ENDSEC
  0
SECTION
  2
OBJECTS
  0
DICTIONARY
  5
C
330
0
100
AcDbDictionary
281
     1
  3
ACAD_GROUP
350
D
  3
ACAD_LAYOUT
350
1A
  3
ACAD_MATERIAL
350
3B
  3
ACAD_MLEADERSTYLE
350
2B3
  3
ACAD_MLINESTYLE
350
17
  3
ACAD_PLOTSETTINGS
350
19
  3
ACAD_PLOTSTYLENAME
350
E
  3
ACAD_SCALELIST
350
3F
  3
ACAD_TABLESTYLE
350
2B2
  3
ACAD_VISUALSTYLE
350
2A
  3
AcDbVariableDictionary
350
289
  0
DICTIONARY
  5
D
102
{ACAD_REACTORS
330
C
102
}
330
C
100
AcDbDictionary
281
     1
  0
DICTIONARY
  5
1A
102
{ACAD_REACTORS
330
C
102
}
330
C
100
AcDbDictionary
281
     1
  3
Layout1
350
1E
  3
Layout2
350
26
  3
Model
350
22
  0
DICTIONARY
  5
3B
102
{ACAD_REACTORS
330
C
102
}
330
C
100
AcDbDictionary
281
     1
  3
ByBlock
350
3D
  3
ByLayer
350
3C
  3
Global
350
3E
  0
DICTIONARY
  5
2B3
102
{ACAD_REACTORS
330
C
102
}
330
C
100
AcDbDictionary
281
     1
  0
DICTIONARY
  5
17
102
{ACAD_REACTORS
330
C
102
}
330
C
100
AcDbDictionary
281
     1
  3
Standard
350
18
  0
DICTIONARY
  5
19
102
{ACAD_REACTORS
330
C
102
}
330
C
100
AcDbDictionary
281
     1
  0
ACDBDICTIONARYWDFLT
  5
E
102
{ACAD_REACTORS
330
C
102
}
330
C
100
AcDbDictionary
281
     1
  3
Normal
350
F
100
AcDbDictionaryWithDefault
340
F
  0
DICTIONARY
  5
3F
102
{ACAD_REACTORS
330
C
102
}
330
C
100
AcDbDictionary
281
     1
  3
A0
350
40
  3
A1
350
41
  3
A2
350
42
  3
A3
350
43
  3
A4
350
44
  3
A5
350
45
  3
A6
350
46
  3
A7
350
47
  3
A8
350
48
  3
A9
350
49
  3
B0
350
4A
  3
B1
350
4B
  3
B2
350
4C
  3
B3
350
4D
  3
B4
350
4E
  3
B5
350
4F
  3
B6
350
50
  3
B7
350
51
  3
B8
350
52
  3
B9
350
53
  3
C0
350
54
  3
C1
350
55
  3
C2
350
56
  3
C3
350
57
  3
C4
350
58
  3
C5
350
59
  3
C6
350
5A
  3
C7
350
5B
  3
C8
350
5C
  3
C9
350
5D
  3
D0
350
5E
  3
D1
350
5F
  3
D2
350
60
  0
DICTIONARY
  5
2B2
102
{ACAD_REACTORS
330
C
102
}
330
C
100
AcDbDictionary
281
     1
  0
DICTIONARY
  5
2A
102
{ACAD_REACTORS
330
C
102
}
330
C
100
AcDbDictionary
281
     1
  3
2dWireframe
350
2F
  3
3D Hidden
350
31
  3
3dWireframe
350
30
  3
Basic
350
32
  3
Brighten
350
36
  3
ColorChange
350
3A
  3
Conceptual
350
34
  3
Dim
350
35
  3
Facepattern
350
39
  3
Flat
350
2B
  3
FlatWithEdges
350
2C
  3
Gouraud
350
2D
  3
GouraudWithEdges
350
2E
  3
Linepattern
350
38
  3
Realistic
350
33
  3
Thicken
350
37
  0
DICTIONARY
  5
289
102
{ACAD_REACTORS
330
C
102
}
330
C
100
AcDbDictionary
281
     1
  3
CANNOSCALE
350
28A
  3
MSLTSCALE
350
28B
  0
LAYOUT
  5
1E
102
{ACAD_REACTORS
330
1A
102
}
330
1A
100
AcDbPlotSettings
  1

  2
none_device
  4

  6

 40
0.0
 41
0.0
 42
0.0
 43
0.0
 44
0.0
 45
0.0
 46
0.0
 47
0.0
 48
0.0
 49
0.0
140
0.0
141
0.0
142
1.0
143
1.0
 70
   688
 72
     0
 73
     0
 74
     5
  7

 75
    16
 76
     0
 77
     2
 78
   300
147
1.0
148
0.0
149
0.0
100
AcDbLayout
  1
Layout1
 70
     1
 71
     1
 10
0.0
 20
0.0
 11
12.0
 21
9.0
 12
0.0
 22
0.0
 32
0.0
 14
1.000000000000000E+20
 24
1.000000000000000E+20
 34
1.000000000000000E+20
 15
-1.000000000000000E+20
 25
-1.000000000000000E+20
 35
-1.000000000000000E+20
146
0.0
 13
0.0
 23
0.0
 33
0.0
 16
1.0
 26
0.0
 36
0.0
 17
0.0
 27
1.0
 37
0.0
 76
     0
330
1B
  0
LAYOUT
  5
26
102
{ACAD_REACTORS
330
1A
102
}
330
1A
100
AcDbPlotSettings
  1

  2
none_device
  4

  6

 40
0.0
 41
0.0
 42
0.0
 43
0.0
 44
0.0
 45
0.0
 46
0.0
 47
0.0
 48
0.0
 49
0.0
140
0.0
141
0.0
142
1.0
143
1.0
 70
   688
 72
     0
 73
     0
 74
     5
  7

 75
    16
 76
     0
 77
     2
 78
   300
147
1.0
148
0.0
149
0.0
100
AcDbLayout
  1
Layout2
 70
     1
 71
     2
 10
0.0
 20
0.0
 11
0.0
 21
0.0
 12
0.0
 22
0.0
 32
0.0
 14
0.0
 24
0.0
 34
0.0
 15
0.0
 25
0.0
 35
0.0
146
0.0
 13
0.0
 23
0.0
 33
0.0
 16
1.0
 26
0.0
 36
0.0
 17
0.0
 27
1.0
 37
0.0
 76
     0
330
23
  0
LAYOUT
  5
22
102
{ACAD_REACTORS
330
1A
102
}
330
1A
100
AcDbPlotSettings
  1

  2
none_device
  4
Letter_(8.50_x_11.00_Inches)
  6

 40
6.35
 41
6.35
 42
6.35000508
 43
6.35000508
 44
215.9
 45
279.4
 46
0.0
 47
0.0
 48
0.0
 49
0.0
140
0.0
141
0.0
142
1.0
143
1.0
 70
  1712
 72
     0
 73
     0
 74
     0
  7

 75
     0
 76
     0
 77
     2
 78
   300
147
1.0
148
0.0
149
0.0
100
AcDbLayout
  1
Model
 70
     1
 71
     0
 10
0.0
 20
0.0
 11
12.0
 21
9.0
 12
0.0
 22
0.0
 32
0.0
 14
308.9991261229924
 24
-17.39266161858131
 34
0.0
 15
949.7649227889847
 25
746.6073350736706
 35
0.0
146
0.0
 13
0.0
 23
0.0
 33
0.0
 16
1.0
 26
0.0
 36
0.0
 17
0.0
 27
1.0
 37
0.0
 76
     0
330
1F
331
29
  0
MATERIAL
  5
3D
102
{ACAD_REACTORS
330
3B
102
}
102
{ACAD_XDICTIONARY
360
2AE
102
}
330
3B
100
AcDbMaterial
  1
ByBlock
  0
MATERIAL
  5
3C
102
{ACAD_REACTORS
330
3B
102
}
102
{ACAD_XDICTIONARY
360
2AC
102
}
330
3B
100
AcDbMaterial
  1
ByLayer
  0
MATERIAL
  5
3E
102
{ACAD_REACTORS
330
3B
102
}
102
{ACAD_XDICTIONARY
360
2B0
102
}
330
3B
100
AcDbMaterial
  1
Global
  0
MLINESTYLE
  5
18
102
{ACAD_REACTORS
330
17
102
}
330
17
100
AcDbMlineStyle
  2
Standard
 70
     0
  3

 62
   256
 51
90.0
 52
90.0
 71
     2
 49
0.5
 62
   256
  6
BYLAYER
 49
-0.5
 62
   256
  6
BYLAYER
  0
ACDBPLACEHOLDER
  5
F
102
{ACAD_REACTORS
330
E
102
}
330
E
  0
SCALE
  5
40
102
{ACAD_REACTORS
330
3F
102
}
330
3F
100
AcDbScale
 70
     0
300
1:1
140
1.0
141
1.0
290
     1
  0
SCALE
  5
41
102
{ACAD_REACTORS
330
3F
102
}
330
3F
100
AcDbScale
 70
     0
300
1:2
140
1.0
141
2.0
290
     0
  0
SCALE
  5
42
102
{ACAD_REACTORS
330
3F
102
}
330
3F
100
AcDbScale
 70
     0
300
1:4
140
1.0
141
4.0
290
     0
  0
SCALE
  5
43
102
{ACAD_REACTORS
330
3F
102
}
330
3F
100
AcDbScale
 70
     0
300
1:5
140
1.0
141
5.0
290
     0
  0
SCALE
  5
44
102
{ACAD_REACTORS
330
3F
102
}
330
3F
100
AcDbScale
 70
     0
300
1:8
140
1.0
141
8.0
290
     0
  0
SCALE
  5
45
102
{ACAD_REACTORS
330
3F
102
}
330
3F
100
AcDbScale
 70
     0
300
1:10
140
1.0
141
10.0
290
     0
  0
SCALE
  5
46
102
{ACAD_REACTORS
330
3F
102
}
330
3F
100
AcDbScale
 70
     0
300
1:16
140
1.0
141
16.0
290
     0
  0
SCALE
  5
47
102
{ACAD_REACTORS
330
3F
102
}
330
3F
100
AcDbScale
 70
     0
300
1:20
140
1.0
141
20.0
290
     0
  0
SCALE
  5
48
102
{ACAD_REACTORS
330
3F
102
}
330
3F
100
AcDbScale
 70
     0
300
1:30
140
1.0
141
30.0
290
     0
  0
SCALE
  5
49
102
{ACAD_REACTORS
330
3F
102
}
330
3F
100
AcDbScale
 70
     0
300
1:40
140
1.0
141
40.0
290
     0
  0
SCALE
  5
4A
102
{ACAD_REACTORS
330
3F
102
}
330
3F
100
AcDbScale
 70
     0
300
1:50
140
1.0
141
50.0
290
     0
  0
SCALE
  5
4B
102
{ACAD_REACTORS
330
3F
102
}
330
3F
100
AcDbScale
 70
     0
300
1:100
140
1.0
141
100.0
290
     0
  0
SCALE
  5
4C
102
{ACAD_REACTORS
330
3F
102
}
330
3F
100
AcDbScale
 70
     0
300
2:1
140
2.0
141
1.0
290
     0
  0
SCALE
  5
4D
102
{ACAD_REACTORS
330
3F
102
}
330
3F
100
AcDbScale
 70
     0
300
4:1
140
4.0
141
1.0
290
     0
  0
SCALE
  5
4E
102
{ACAD_REACTORS
330
3F
102
}
330
3F
100
AcDbScale
 70
     0
300
8:1
140
8.0
141
1.0
290
     0
  0
SCALE
  5
4F
102
{ACAD_REACTORS
330
3F
102
}
330
3F
100
AcDbScale
 70
     0
300
10:1
140
10.0
141
1.0
290
     0
  0
SCALE
  5
50
102
{ACAD_REACTORS
330
3F
102
}
330
3F
100
AcDbScale
 70
     0
300
100:1
140
100.0
141
1.0
290
     0
  0
SCALE
  5
51
102
{ACAD_REACTORS
330
3F
102
}
330
3F
100
AcDbScale
 70
     0
300
1/128" = 1'-0"
140
0.0078125
141
12.0
290
     0
  0
SCALE
  5
52
102
{ACAD_REACTORS
330
3F
102
}
330
3F
100
AcDbScale
 70
     0
300
1/64" = 1'-0"
140
0.015625
141
12.0
290
     0
  0
SCALE
  5
53
102
{ACAD_REACTORS
330
3F
102
}
330
3F
100
AcDbScale
 70
     0
300
1/32" = 1'-0"
140
0.03125
141
12.0
290
     0
  0
SCALE
  5
54
102
{ACAD_REACTORS
330
3F
102
}
330
3F
100
AcDbScale
 70
     0
300
1/16" = 1'-0"
140
0.0625
141
12.0
290
     0
  0
SCALE
  5
55
102
{ACAD_REACTORS
330
3F
102
}
330
3F
100
AcDbScale
 70
     0
300
3/32" = 1'-0"
140
0.09375
141
12.0
290
     0
  0
SCALE
  5
56
102
{ACAD_REACTORS
330
3F
102
}
330
3F
100
AcDbScale
 70
     0
300
1/8" = 1'-0"
140
0.125
141
12.0
290
     0
  0
SCALE
  5
57
102
{ACAD_REACTORS
330
3F
102
}
330
3F
100
AcDbScale
 70
     0
300
3/16" = 1'-0"
140
0.1875
141
12.0
290
     0
  0
SCALE
  5
58
102
{ACAD_REACTORS
330
3F
102
}
330
3F
100
AcDbScale
 70
     0
300
1/4" = 1'-0"
140
0.25
141
12.0
290
     0
  0
SCALE
  5
59
102
{ACAD_REACTORS
330
3F
102
}
330
3F
100
AcDbScale
 70
     0
300
3/8" = 1'-0"
140
0.375
141
12.0
290
     0
  0
SCALE
  5
5A
102
{ACAD_REACTORS
330
3F
102
}
330
3F
100
AcDbScale
 70
     0
300
1/2" = 1'-0"
140
0.5
141
12.0
290
     0
  0
SCALE
  5
5B
102
{ACAD_REACTORS
330
3F
102
}
330
3F
100
AcDbScale
 70
     0
300
3/4" = 1'-0"
140
0.75
141
12.0
290
     0
  0
SCALE
  5
5C
102
{ACAD_REACTORS
330
3F
102
}
330
3F
100
AcDbScale
 70
     0
300
1" = 1'-0"
140
1.0
141
12.0
290
     0
  0
SCALE
  5
5D
102
{ACAD_REACTORS
330
3F
102
}
330
3F
100
AcDbScale
 70
     0
300
1-1/2" = 1'-0"
140
1.5
141
12.0
290
     0
  0
SCALE
  5
5E
102
{ACAD_REACTORS
330
3F
102
}
330
3F
100
AcDbScale
 70
     0
300
3" = 1'-0"
140
3.0
141
12.0
290
     0
  0
SCALE
  5
5F
102
{ACAD_REACTORS
330
3F
102
}
330
3F
100
AcDbScale
 70
     0
300
6" = 1'-0"
140
6.0
141
12.0
290
     0
  0
SCALE
  5
60
102
{ACAD_REACTORS
330
3F
102
}
330
3F
100
AcDbScale
 70
     0
300
1'-0" = 1'-0"
140
12.0
141
12.0
290
     0
  0
VISUALSTYLE
  5
2F
102
{ACAD_REACTORS
330
2A
102
}
102
{ACAD_XDICTIONARY
360
294
102
}
330
2A
100
AcDbVisualStyle
  2
2dWireframe
 70
     4
 71
     0
 72
     2
 73
     0
 90
        0
 40
0.6
 41
30.0
 62
     5
 63
     7
421
 16777215
 74
     1
 91
        4
 64
     7
 65
   257
 75
     1
175
     1
 42
1.0
 92
        0
 66
   257
 43
1.0
 76
     1
 77
     6
 78
     2
 67
     7
 79
     5
170
     0
171
     0
290
     0
174
     0
 93
        1
 44
0.0
173
     0
291
     0
 45
0.0
1001
ACAD
1000
AcDbSavedByObjectVersion
1070
     0
  0
VISUALSTYLE
  5
31
102
{ACAD_REACTORS
330
2A
102
}
102
{ACAD_XDICTIONARY
360
298
102
}
330
2A
100
AcDbVisualStyle
  2
3D Hidden
 70
     6
 71
     1
 72
     2
 73
     2
 90
        0
 40
0.6
 41
30.0
 62
     5
 63
     7
421
 16777215
 74
     2
 91
        2
 64
     7
 65
   257
 75
     2
175
     1
 42
40.0
 92
        0
 66
   257
 43
1.0
 76
     1
 77
     6
 78
     2
 67
     7
 79
     3
170
     0
171
     0
290
     0
174
     0
 93
        1
 44
0.0
173
     0
291
     0
 45
0.0
1001
ACAD
1000
AcDbSavedByObjectVersion
1070
     0
  0
VISUALSTYLE
  5
30
102
{ACAD_REACTORS
330
2A
102
}
102
{ACAD_XDICTIONARY
360
296
102
}
330
2A
100
AcDbVisualStyle
  2
3dWireframe
 70
     5
 71
     0
 72
     2
 73
     0
 90
        0
 40
0.6
 41
30.0
 62
     5
 63
     7
421
 16777215
 74
     1
 91
        4
 64
     7
 65
   257
 75
     1
175
     1
 42
1.0
 92
        0
 66
   257
 43
1.0
 76
     1
 77
     6
 78
     2
 67
     7
 79
     5
170
     0
171
     0
290
     0
174
     0
 93
        1
 44
0.0
173
     0
291
     0
 45
0.0
1001
ACAD
1000
AcDbSavedByObjectVersion
1070
     0
  0
VISUALSTYLE
  5
32
102
{ACAD_REACTORS
330
2A
102
}
102
{ACAD_XDICTIONARY
360
29A
102
}
330
2A
100
AcDbVisualStyle
  2
Basic
 70
     7
 71
     1
 72
     0
 73
     1
 90
        0
 40
0.6
 41
30.0
 62
     5
 63
     7
421
 16777215
 74
     0
 91
        4
 64
     7
 65
   257
 75
     1
175
     1
 42
1.0
 92
        8
 66
     7
 43
1.0
 76
     1
 77
     6
 78
     2
 67
     7
 79
     5
170
     0
171
     0
290
     0
174
     0
 93
        1
 44
0.0
173
     0
291
     1
 45
0.0
1001
ACAD
1000
AcDbSavedByObjectVersion
1070
     0
  0
VISUALSTYLE
  5
36
102
{ACAD_REACTORS
330
2A
102
}
102
{ACAD_XDICTIONARY
360
2A2
102
}
330
2A
100
AcDbVisualStyle
  2
Brighten
 70
    12
 71
     2
 72
     2
 73
     0
 90
        0
 40
0.6
 41
30.0
 62
     5
 63
     7
421
 16777215
 74
     1
 91
        4
 64
     7
 65
   257
 75
     1
175
     1
 42
1.0
 92
        8
 66
     7
 43
1.0
 76
     1
 77
     6
 78
     2
 67
     7
 79
     5
170
     0
171
     0
290
     0
174
     0
 93
        1
 44
50.0
173
     0
291
     1
 45
0.0
1001
ACAD
1000
AcDbSavedByObjectVersion
1070
     0
  0
VISUALSTYLE
  5
3A
102
{ACAD_REACTORS
330
2A
102
}
102
{ACAD_XDICTIONARY
360
2AA
102
}
330
2A
100
AcDbVisualStyle
  2
ColorChange
 70
    16
 71
     2
 72
     2
 73
     3
 90
        0
 40
0.6
 41
30.0
 62
     5
 63
     8
421
  8421504
 74
     1
 91
        4
 64
     7
 65
   257
 75
     1
175
     1
 42
1.0
 92
        8
 66
     8
424
  8421504
 43
1.0
 76
     1
 77
     6
 78
     2
 67
     7
 79
     5
170
     0
171
     0
290
     0
174
     0
 93
        1
 44
0.0
173
     0
291
     1
 45
0.0
1001
ACAD
1000
AcDbSavedByObjectVersion
1070
     0
  0
VISUALSTYLE
  5
34
102
{ACAD_REACTORS
330
2A
102
}
102
{ACAD_XDICTIONARY
360
29E
102
}
330
2A
100
AcDbVisualStyle
  2
Conceptual
 70
     9
 71
     3
 72
     2
 73
     0
 90
        0
 40
0.6
 41
30.0
 62
     5
 63
     7
421
 16777215
 74
     2
 91
        2
 64
     7
 65
   257
 75
     1
175
     1
 42
40.0
 92
        8
 66
     7
 43
1.0
 76
     1
 77
     6
 78
     2
 67
     7
 79
     3
170
     0
171
     0
290
     0
174
     0
 93
        1
 44
0.0
173
     0
291
     0
 45
0.0
1001
ACAD
1000
AcDbSavedByObjectVersion
1070
     0
  0
VISUALSTYLE
  5
35
102
{ACAD_REACTORS
330
2A
102
}
102
{ACAD_XDICTIONARY
360
2A0
102
}
330
2A
100
AcDbVisualStyle
  2
Dim
 70
    11
 71
     2
 72
     2
 73
     0
 90
        0
 40
0.6
 41
30.0
 62
     5
 63
     7
421
 16777215
 74
     1
 91
        4
 64
     7
 65
   257
 75
     1
175
     1
 42
1.0
 92
        8
 66
     7
 43
1.0
 76
     1
 77
     6
 78
     2
 67
     7
 79
     5
170
     0
171
     0
290
     0
174
     0
 93
        1
 44
-50.0
173
     0
291
     1
 45
0.0
1001
ACAD
1000
AcDbSavedByObjectVersion
1070
     0
  0
VISUALSTYLE
  5
39
102
{ACAD_REACTORS
330
2A
102
}
102
{ACAD_XDICTIONARY
360
2A8
102
}
330
2A
100
AcDbVisualStyle
  2
Facepattern
 70
    15
 71
     2
 72
     2
 73
     0
 90
        0
 40
0.6
 41
30.0
 62
     5
 63
     7
421
 16777215
 74
     1
 91
        4
 64
     7
 65
   257
 75
     1
175
     1
 42
1.0
 92
        8
 66
     7
 43
1.0
 76
     1
 77
     6
 78
     2
 67
     7
 79
     5
170
     0
171
     0
290
     0
174
     0
 93
        1
 44
0.0
173
     0
291
     1
 45
0.0
1001
ACAD
1000
AcDbSavedByObjectVersion
1070
     0
  0
VISUALSTYLE
  5
2B
102
{ACAD_REACTORS
330
2A
102
}
102
{ACAD_XDICTIONARY
360
28C
102
}
330
2A
100
AcDbVisualStyle
  2
Flat
 70
     0
 71
     2
 72
     1
 73
     1
 90
        2
 40
0.6
 41
30.0
 62
     5
 63
     7
421
 16777215
 74
     0
 91
        4
 64
     7
 65
   257
 75
     1
175
     1
 42
1.0
 92
        8
 66
     7
 43
1.0
 76
     1
 77
     6
 78
     2
 67
     7
 79
     5
170
     0
171
     0
290
     0
174
     0
 93
       13
 44
0.0
173
     0
291
     1
 45
0.0
1001
ACAD
1000
AcDbSavedByObjectVersion
1070
     0
  0
VISUALSTYLE
  5
2C
102
{ACAD_REACTORS
330
2A
102
}
102
{ACAD_XDICTIONARY
360
28E
102
}
330
2A
100
AcDbVisualStyle
  2
FlatWithEdges
 70
     1
 71
     2
 72
     1
 73
     1
 90
        2
 40
0.6
 41
30.0
 62
     5
 63
     7
421
 16777215
 74
     1
 91
        4
 64
     7
 65
   257
 75
     1
175
     1
 42
1.0
 92
        0
 66
   257
 43
1.0
 76
     1
 77
     6
 78
     2
 67
     7
 79
     5
170
     0
171
     0
290
     0
174
     0
 93
       13
 44
0.0
173
     0
291
     1
 45
0.0
1001
ACAD
1000
AcDbSavedByObjectVersion
1070
     0
  0
VISUALSTYLE
  5
2D
102
{ACAD_REACTORS
330
2A
102
}
102
{ACAD_XDICTIONARY
360
290
102
}
330
2A
100
AcDbVisualStyle
  2
Gouraud
 70
     2
 71
     2
 72
     2
 73
     1
 90
        2
 40
0.6
 41
30.0
 62
     5
 63
     7
421
 16777215
 74
     0
 91
        4
 64
     7
 65
   257
 75
     1
175
     1
 42
1.0
 92
        0
 66
     7
 43
1.0
 76
     1
 77
     6
 78
     2
 67
     7
 79
     5
170
     0
171
     0
290
     0
174
     0
 93
       13
 44
0.0
173
     0
291
     1
 45
0.0
1001
ACAD
1000
AcDbSavedByObjectVersion
1070
     0
  0
VISUALSTYLE
  5
2E
102
{ACAD_REACTORS
330
2A
102
}
102
{ACAD_XDICTIONARY
360
292
102
}
330
2A
100
AcDbVisualStyle
  2
GouraudWithEdges
 70
     3
 71
     2
 72
     2
 73
     1
 90
        2
 40
0.6
 41
30.0
 62
     5
 63
     7
421
 16777215
 74
     1
 91
        4
 64
     7
 65
   257
 75
     1
175
     1
 42
1.0
 92
        0
 66
   257
 43
1.0
 76
     1
 77
     6
 78
     2
 67
     7
 79
     5
170
     0
171
     0
290
     0
174
     0
 93
       13
 44
0.0
173
     0
291
     1
 45
0.0
1001
ACAD
1000
AcDbSavedByObjectVersion
1070
     0
  0
VISUALSTYLE
  5
38
102
{ACAD_REACTORS
330
2A
102
}
102
{ACAD_XDICTIONARY
360
2A6
102
}
330
2A
100
AcDbVisualStyle
  2
Linepattern
 70
    14
 71
     2
 72
     2
 73
     0
 90
        0
 40
0.6
 41
30.0
 62
     5
 63
     7
421
 16777215
 74
     1
 91
        4
 64
     7
 65
   257
 75
     7
175
     7
 42
1.0
 92
        8
 66
     7
 43
1.0
 76
     1
 77
     6
 78
     2
 67
     7
 79
     5
170
     0
171
     0
290
     0
174
     0
 93
        1
 44
0.0
173
     0
291
     1
 45
0.0
1001
ACAD
1000
AcDbSavedByObjectVersion
1070
     0
  0
VISUALSTYLE
  5
33
102
{ACAD_REACTORS
330
2A
102
}
102
{ACAD_XDICTIONARY
360
29C
102
}
330
2A
100
AcDbVisualStyle
  2
Realistic
 70
     8
 71
     2
 72
     3
 73
     0
 90
        2
 40
0.6
 41
30.0
 62
     5
 63
     7
421
 16777215
 74
     0
 91
        0
 64
     7
 65
   257
 75
     1
175
     1
 42
1.0
 92
        8
 66
   257
 43
1.0
 76
     1
 77
     6
 78
     2
 67
     7
 79
     3
170
     0
171
     0
290
     0
174
     0
 93
       13
 44
0.0
173
     0
291
     0
 45
0.0
1001
ACAD
1000
AcDbSavedByObjectVersion
1070
     0
  0
VISUALSTYLE
  5
37
102
{ACAD_REACTORS
330
2A
102
}
102
{ACAD_XDICTIONARY
360
2A4
102
}
330
2A
100
AcDbVisualStyle
  2
Thicken
 70
    13
 71
     2
 72
     2
 73
     0
 90
        0
 40
0.6
 41
30.0
 62
     5
 63
     7
421
 16777215
 74
     1
 91
        4
 64
     7
 65
   257
 75
     1
175
     1
 42
1.0
 92
       12
 66
     7
 43
1.0
 76
     1
 77
     6
 78
     2
 67
     7
 79
     5
170
     0
171
     0
290
     0
174
     0
 93
        1
 44
0.0
173
     0
291
     1
 45
0.0
1001
ACAD
1000
AcDbSavedByObjectVersion
1070
     0
  0
DICTIONARYVAR
  5
28A
102
{ACAD_REACTORS
330
289
102
}
330
289
100
DictionaryVariables
280
     0
  1
1:1
  0
DICTIONARYVAR
  5
28B
102
{ACAD_REACTORS
330
289
102
}
330
289
100
DictionaryVariables
280
     0
  1
1
  0
DICTIONARY
  5
2AE
330
3D
100
AcDbDictionary
280
     1
281
     1
  3
ACAD_XREC_ROUNDTRIP
360
2AF
  0
DICTIONARY
  5
2AC
330
3C
100
AcDbDictionary
280
     1
281
     1
  3
ACAD_XREC_ROUNDTRIP
360
2AD
  0
DICTIONARY
  5
2B0
330
3E
100
AcDbDictionary
280
     1
281
     1
  3
ACAD_XREC_ROUNDTRIP
360
2B1
  0
DICTIONARY
  5
294
330
2F
100
AcDbDictionary
280
     1
281
     1
  3
ACAD_XREC_ROUNDTRIP
360
295
  0
DICTIONARY
  5
298
330
31
100
AcDbDictionary
280
     1
281
     1
  3
ACAD_XREC_ROUNDTRIP
360
299
  0
DICTIONARY
  5
296
330
30
100
AcDbDictionary
280
     1
281
     1
  3
ACAD_XREC_ROUNDTRIP
360
297
  0
DICTIONARY
  5
29A
330
32
100
AcDbDictionary
280
     1
281
     1
  3
ACAD_XREC_ROUNDTRIP
360
29B
  0
DICTIONARY
  5
2A2
330
36
100
AcDbDictionary
280
     1
281
     1
  3
ACAD_XREC_ROUNDTRIP
360
2A3
  0
DICTIONARY
  5
2AA
330
3A
100
AcDbDictionary
280
     1
281
     1
  3
ACAD_XREC_ROUNDTRIP
360
2AB
  0
DICTIONARY
  5
29E
330
34
100
AcDbDictionary
280
     1
281
     1
  3
ACAD_XREC_ROUNDTRIP
360
29F
  0
DICTIONARY
  5
2A0
330
35
100
AcDbDictionary
280
     1
281
     1
  3
ACAD_XREC_ROUNDTRIP
360
2A1
  0
DICTIONARY
  5
2A8
330
39
100
AcDbDictionary
280
     1
281
     1
  3
ACAD_XREC_ROUNDTRIP
360
2A9
  0
DICTIONARY
  5
28C
330
2B
100
AcDbDictionary
280
     1
281
     1
  3
ACAD_XREC_ROUNDTRIP
360
28D
  0
DICTIONARY
  5
28E
330
2C
100
AcDbDictionary
280
     1
281
     1
  3
ACAD_XREC_ROUNDTRIP
360
28F
  0
DICTIONARY
  5
290
330
2D
100
AcDbDictionary
280
     1
281
     1
  3
ACAD_XREC_ROUNDTRIP
360
291
  0
DICTIONARY
  5
292
330
2E
100
AcDbDictionary
280
     1
281
     1
  3
ACAD_XREC_ROUNDTRIP
360
293
  0
DICTIONARY
  5
2A6
330
38
100
AcDbDictionary
280
     1
281
     1
  3
ACAD_XREC_ROUNDTRIP
360
2A7
  0
DICTIONARY
  5
29C
330
33
100
AcDbDictionary
280
     1
281
     1
  3
ACAD_XREC_ROUNDTRIP
360
29D
  0
DICTIONARY
  5
2A4
330
37
100
AcDbDictionary
280
     1
281
     1
  3
ACAD_XREC_ROUNDTRIP
360
2A5
  0
XRECORD
  5
2AF
102
{ACAD_REACTORS
330
2AE
102
}
330
2AE
100
AcDbXrecord
280
     1
102
MATERIAL
148
0.0
149
0.0
149
0.0
 93
        0
 94
      127
282
     0
 72
     1
 77
     1
171
     1
175
     1
179
     1
273
     0
  0
XRECORD
  5
2AD
102
{ACAD_REACTORS
330
2AC
102
}
330
2AC
100
AcDbXrecord
280
     1
102
MATERIAL
148
0.0
149
0.0
149
0.0
 93
        0
 94
      127
282
     0
 72
     1
 77
     1
171
     1
175
     1
179
     1
273
     0
  0
XRECORD
  5
2B1
102
{ACAD_REACTORS
330
2B0
102
}
330
2B0
100
AcDbXrecord
280
     1
102
MATERIAL
148
0.0
149
0.0
149
0.0
 93
        0
 94
      127
282
     0
 72
     1
 77
     1
171
     1
175
     1
179
     1
273
     0
  0
XRECORD
  5
295
102
{ACAD_REACTORS
330
294
102
}
330
294
100
AcDbXrecord
280
     1
102
RTVSPropertyOp0
 70
     1
102
RTVSPropertyOp1
 70
     1
102
RTVSPropertyOp2
 70
     1
102
RTVSPropertyOp3
 70
     1
102
RTVSPropertyOp4
 70
     1
102
RTVSPropertyOp5
 70
     1
102
RTVSPropertyOp6
 70
     1
102
RTVSPropertyOp7
 70
     1
102
RTVSPropertyOp8
 70
     1
102
RTVSPropertyOp9
 70
     1
102
RTVSPropertyOp10
 70
     1
102
RTVSPropertyOp11
 70
     1
102
RTVSPropertyOp12
 70
     1
102
RTVSPropertyOp13
 70
     1
102
RTVSPropertyOp14
 70
     1
102
RTVSPropertyOp15
 70
     1
102
RTVSPropertyOp16
 70
     1
102
RTVSPropertyOp17
 70
     1
102
RTVSPropertyOp18
 70
     1
102
RTVSPropertyOp19
 70
     1
102
RTVSPropertyOp20
 70
     1
102
RTVSPropertyOp21
 70
     1
102
RTVSPropertyOp22
 70
     1
102
RTVSPropertyOp23
 70
     1
102
RTVSPropertyOp24
 70
     1
102
RTVSPropertyOp25
 70
     1
102
RTVSPropertyOp26
 70
     1
102
RTVSPropertyOp27
 70
     1
102
RTVSPropertyOp28
 70
     1
102
RTVSPropertyOp29
 70
     1
102
RTVSPropertyOp30
 70
     1
102
RTVSPropertyOp31
 70
     1
102
RTVSPropertyOp32
 70
     1
102
RTVSPropertyOp33
 70
     1
102
RTVSPropertyOp34
 70
     1
102
RTVSPropertyOp35
 70
     1
102
RTVSPropertyOp36
 70
     1
102
RTVSPropertyOp37
 70
     1
102
RTVSPropertyOp38
 70
     1
102
RTVSPropertyOp39
 70
     1
102
RTVSPropertyOp40
 70
     1
102
RTVSPropertyOp41
 70
     1
102
RTVSPropertyOp42
 70
     1
102
RTVSPropertyOp43
 70
     1
102
RTVSPropertyOp44
 70
     1
102
RTVSPropertyOp45
 70
     1
102
RTVSPropertyOp46
 70
     1
102
RTVSPropertyOp47
 70
     1
102
RTVSPropertyOp48
 70
     1
102
RTVSPropertyOp49
 70
     1
102
RTVSPropertyOp50
 70
     1
102
RTVSPropertyOp51
 70
     0
102
RTVSPropertyOp52
 70
     0
102
RTVSPropertyOp53
 70
     1
102
RTVSPropertyOp54
 70
     1
102
RTVSPropertyOp55
 70
     1
102
RTVSPropertyOp56
 70
     1
102
RTVSPropertyOp57
 70
     1
102
RTVSPost2010Prop28
280
     1
102
RTVSPost2010PropOp28
 70
     1
102
RTVSPost2010Prop29
280
     1
102
RTVSPost2010PropOp29
 70
     1
102
RTVSPost2010Prop30
280
     0
102
RTVSPost2010PropOp30
 70
     1
102
RTVSPost2010Prop31
280
     0
102
RTVSPost2010PropOp31
 70
     1
102
RTVSPost2010Prop32
280
     0
102
RTVSPost2010PropOp32
 70
     1
102
RTVSPost2010Prop33
280
     0
102
RTVSPost2010PropOp33
 70
     1
102
RTVSPost2010Prop34
280
     0
102
RTVSPost2010PropOp34
 70
     1
102
RTVSPost2010Prop35
280
     0
102
RTVSPost2010PropOp35
 70
     1
102
RTVSPost2010Prop36
280
     0
102
RTVSPost2010PropOp36
 70
     1
102
RTVSPost2010Prop37
 90
       50
102
RTVSPost2010PropOp37
 70
     1
102
RTVSPost2010Prop38
140
0.0
102
RTVSPost2010PropOp38
 70
     1
102
RTVSPost2010Prop39
140
1.0
102
RTVSPost2010PropOp39
 70
     1
102
RTVSPost2010Prop40
 90
        0
102
RTVSPost2010PropOp40
 70
     1
102
RTVSPost2010Prop41ColorIndex
 90
       18
102
RTVSPost2010Prop41ColorRGB
 90
        0
102
RTVSPost2010PropOp41
 70
     1
102
RTVSPost2010Prop42
 90
       50
102
RTVSPost2010PropOp42
 70
     1
102
RTVSPost2010Prop43
 90
        3
102
RTVSPost2010PropOp43
 70
     1
102
RTVSPost2010Prop44ColorIndex
 90
        5
102
RTVSPost2010Prop44ColorRGB
 90
      255
102
RTVSPost2010PropOp44
 70
     1
102
RTVSPost2010Prop45
280
     0
102
RTVSPost2010PropOp45
 70
     1
102
RTVSPost2010Prop46
 90
       50
102
RTVSPost2010PropOp46
 70
     1
102
RTVSPost2010Prop47
 90
       50
102
RTVSPost2010PropOp47
 70
     1
102
RTVSPost2010Prop48
 90
       50
102
RTVSPost2010PropOp48
 70
     1
102
RTVSPost2010Prop49
280
     0
102
RTVSPost2010PropOp49
 70
     1
102
RTVSPost2010Prop50
 90
       50
102
RTVSPost2010PropOp50
 70
     1
102
RTVSPost2010Prop51ColorIndex
 90
      256
102
RTVSPost2010Prop51ColorRGB
 90
-16777216
102
RTVSPost2010PropOp51
 70
     0
102
RTVSPost2010Prop52
140
1.0
102
RTVSPost2010PropOp52
 70
     0
102
RTVSPost2010Prop53
 90
        2
102
RTVSPost2010PropOp53
 70
     1
102
RTVSPost2010Prop54
  1
strokes_ogs.tif
102
RTVSPost2010PropOp54
 70
     1
102
RTVSPost2010Prop55
280
     0
102
RTVSPost2010PropOp55
 70
     1
102
RTVSPost2010Prop56
140
1.0
102
RTVSPost2010PropOp56
 70
     1
102
RTVSPost2010Prop57
140
1.0
102
RTVSPost2010PropOp57
 70
     1
  0
XRECORD
  5
299
102
{ACAD_REACTORS
330
298
102
}
330
298
100
AcDbXrecord
280
     1
102
RTVSPropertyOp0
 70
     1
102
RTVSPropertyOp1
 70
     1
102
RTVSPropertyOp2
 70
     1
102
RTVSPropertyOp3
 70
     1
102
RTVSPropertyOp4
 70
     1
102
RTVSPropertyOp5
 70
     1
102
RTVSPropertyOp6
 70
     1
102
RTVSPropertyOp7
 70
     1
102
RTVSPropertyOp8
 70
     1
102
RTVSPropertyOp9
 70
     1
102
RTVSPropertyOp10
 70
     1
102
RTVSPropertyOp11
 70
     1
102
RTVSPropertyOp12
 70
     1
102
RTVSPropertyOp13
 70
     1
102
RTVSPropertyOp14
 70
     1
102
RTVSPropertyOp15
 70
     1
102
RTVSPropertyOp16
 70
     1
102
RTVSPropertyOp17
 70
     1
102
RTVSPropertyOp18
 70
     1
102
RTVSPropertyOp19
 70
     1
102
RTVSPropertyOp20
 70
     1
102
RTVSPropertyOp21
 70
     1
102
RTVSPropertyOp22
 70
     1
102
RTVSPropertyOp23
 70
     1
102
RTVSPropertyOp24
 70
     1
102
RTVSPropertyOp25
 70
     1
102
RTVSPropertyOp26
 70
     1
102
RTVSPropertyOp27
 70
     1
102
RTVSPropertyOp28
 70
     1
102
RTVSPropertyOp29
 70
     1
102
RTVSPropertyOp30
 70
     1
102
RTVSPropertyOp31
 70
     1
102
RTVSPropertyOp32
 70
     1
102
RTVSPropertyOp33
 70
     1
102
RTVSPropertyOp34
 70
     1
102
RTVSPropertyOp35
 70
     1
102
RTVSPropertyOp36
 70
     1
102
RTVSPropertyOp37
 70
     1
102
RTVSPropertyOp38
 70
     1
102
RTVSPropertyOp39
 70
     1
102
RTVSPropertyOp40
 70
     1
102
RTVSPropertyOp41
 70
     1
102
RTVSPropertyOp42
 70
     1
102
RTVSPropertyOp43
 70
     1
102
RTVSPropertyOp44
 70
     1
102
RTVSPropertyOp45
 70
     1
102
RTVSPropertyOp46
 70
     1
102
RTVSPropertyOp47
 70
     1
102
RTVSPropertyOp48
 70
     1
102
RTVSPropertyOp49
 70
     1
102
RTVSPropertyOp50
 70
     1
102
RTVSPropertyOp51
 70
     0
102
RTVSPropertyOp52
 70
     0
102
RTVSPropertyOp53
 70
     1
102
RTVSPropertyOp54
 70
     1
102
RTVSPropertyOp55
 70
     1
102
RTVSPropertyOp56
 70
     1
102
RTVSPropertyOp57
 70
     1
102
RTVSPost2010Prop28
280
     0
102
RTVSPost2010PropOp28
 70
     1
102
RTVSPost2010Prop29
280
     1
102
RTVSPost2010PropOp29
 70
     1
102
RTVSPost2010Prop30
280
     1
102
RTVSPost2010PropOp30
 70
     1
102
RTVSPost2010Prop31
280
     0
102
RTVSPost2010PropOp31
 70
     1
102
RTVSPost2010Prop32
280
     0
102
RTVSPost2010PropOp32
 70
     1
102
RTVSPost2010Prop33
280
     0
102
RTVSPost2010PropOp33
 70
     1
102
RTVSPost2010Prop34
280
     0
102
RTVSPost2010PropOp34
 70
     1
102
RTVSPost2010Prop35
280
     0
102
RTVSPost2010PropOp35
 70
     1
102
RTVSPost2010Prop36
280
     0
102
RTVSPost2010PropOp36
 70
     1
102
RTVSPost2010Prop37
 90
       50
102
RTVSPost2010PropOp37
 70
     1
102
RTVSPost2010Prop38
140
0.0
102
RTVSPost2010PropOp38
 70
     1
102
RTVSPost2010Prop39
140
1.0
102
RTVSPost2010PropOp39
 70
     1
102
RTVSPost2010Prop40
 90
        0
102
RTVSPost2010PropOp40
 70
     1
102
RTVSPost2010Prop41ColorIndex
 90
       18
102
RTVSPost2010Prop41ColorRGB
 90
        0
102
RTVSPost2010PropOp41
 70
     1
102
RTVSPost2010Prop42
 90
       50
102
RTVSPost2010PropOp42
 70
     1
102
RTVSPost2010Prop43
 90
        3
102
RTVSPost2010PropOp43
 70
     1
102
RTVSPost2010Prop44ColorIndex
 90
        5
102
RTVSPost2010Prop44ColorRGB
 90
      255
102
RTVSPost2010PropOp44
 70
     1
102
RTVSPost2010Prop45
280
     0
102
RTVSPost2010PropOp45
 70
     1
102
RTVSPost2010Prop46
 90
       50
102
RTVSPost2010PropOp46
 70
     1
102
RTVSPost2010Prop47
 90
       50
102
RTVSPost2010PropOp47
 70
     1
102
RTVSPost2010Prop48
 90
       50
102
RTVSPost2010PropOp48
 70
     1
102
RTVSPost2010Prop49
280
     0
102
RTVSPost2010PropOp49
 70
     1
102
RTVSPost2010Prop50
 90
       50
102
RTVSPost2010PropOp50
 70
     1
102
RTVSPost2010Prop51ColorIndex
 90
      256
102
RTVSPost2010Prop51ColorRGB
 90
-16777216
102
RTVSPost2010PropOp51
 70
     0
102
RTVSPost2010Prop52
140
1.0
102
RTVSPost2010PropOp52
 70
     0
102
RTVSPost2010Prop53
 90
        2
102
RTVSPost2010PropOp53
 70
     1
102
RTVSPost2010Prop54
  1
strokes_ogs.tif
102
RTVSPost2010PropOp54
 70
     1
102
RTVSPost2010Prop55
280
     0
102
RTVSPost2010PropOp55
 70
     1
102
RTVSPost2010Prop56
140
1.0
102
RTVSPost2010PropOp56
 70
     1
102
RTVSPost2010Prop57
140
1.0
102
RTVSPost2010PropOp57
 70
     1
  0
XRECORD
  5
297
102
{ACAD_REACTORS
330
296
102
}
330
296
100
AcDbXrecord
280
     1
102
RTVSPropertyOp0
 70
     1
102
RTVSPropertyOp1
 70
     1
102
RTVSPropertyOp2
 70
     1
102
RTVSPropertyOp3
 70
     1
102
RTVSPropertyOp4
 70
     1
102
RTVSPropertyOp5
 70
     1
102
RTVSPropertyOp6
 70
     1
102
RTVSPropertyOp7
 70
     1
102
RTVSPropertyOp8
 70
     1
102
RTVSPropertyOp9
 70
     1
102
RTVSPropertyOp10
 70
     1
102
RTVSPropertyOp11
 70
     1
102
RTVSPropertyOp12
 70
     1
102
RTVSPropertyOp13
 70
     1
102
RTVSPropertyOp14
 70
     1
102
RTVSPropertyOp15
 70
     1
102
RTVSPropertyOp16
 70
     1
102
RTVSPropertyOp17
 70
     1
102
RTVSPropertyOp18
 70
     1
102
RTVSPropertyOp19
 70
     1
102
RTVSPropertyOp20
 70
     1
102
RTVSPropertyOp21
 70
     1
102
RTVSPropertyOp22
 70
     1
102
RTVSPropertyOp23
 70
     1
102
RTVSPropertyOp24
 70
     1
102
RTVSPropertyOp25
 70
     1
102
RTVSPropertyOp26
 70
     1
102
RTVSPropertyOp27
 70
     1
102
RTVSPropertyOp28
 70
     1
102
RTVSPropertyOp29
 70
     1
102
RTVSPropertyOp30
 70
     1
102
RTVSPropertyOp31
 70
     1
102
RTVSPropertyOp32
 70
     1
102
RTVSPropertyOp33
 70
     1
102
RTVSPropertyOp34
 70
     1
102
RTVSPropertyOp35
 70
     1
102
RTVSPropertyOp36
 70
     1
102
RTVSPropertyOp37
 70
     1
102
RTVSPropertyOp38
 70
     1
102
RTVSPropertyOp39
 70
     1
102
RTVSPropertyOp40
 70
     1
102
RTVSPropertyOp41
 70
     1
102
RTVSPropertyOp42
 70
     1
102
RTVSPropertyOp43
 70
     1
102
RTVSPropertyOp44
 70
     1
102
RTVSPropertyOp45
 70
     1
102
RTVSPropertyOp46
 70
     1
102
RTVSPropertyOp47
 70
     1
102
RTVSPropertyOp48
 70
     1
102
RTVSPropertyOp49
 70
     1
102
RTVSPropertyOp50
 70
     1
102
RTVSPropertyOp51
 70
     0
102
RTVSPropertyOp52
 70
     0
102
RTVSPropertyOp53
 70
     1
102
RTVSPropertyOp54
 70
     1
102
RTVSPropertyOp55
 70
     1
102
RTVSPropertyOp56
 70
     1
102
RTVSPropertyOp57
 70
     1
102
RTVSPost2010Prop28
280
     0
102
RTVSPost2010PropOp28
 70
     1
102
RTVSPost2010Prop29
280
     1
102
RTVSPost2010PropOp29
 70
     1
102
RTVSPost2010Prop30
280
     1
102
RTVSPost2010PropOp30
 70
     1
102
RTVSPost2010Prop31
280
     0
102
RTVSPost2010PropOp31
 70
     1
102
RTVSPost2010Prop32
280
     0
102
RTVSPost2010PropOp32
 70
     1
102
RTVSPost2010Prop33
280
     0
102
RTVSPost2010PropOp33
 70
     1
102
RTVSPost2010Prop34
280
     0
102
RTVSPost2010PropOp34
 70
     1
102
RTVSPost2010Prop35
280
     0
102
RTVSPost2010PropOp35
 70
     1
102
RTVSPost2010Prop36
280
     0
102
RTVSPost2010PropOp36
 70
     1
102
RTVSPost2010Prop37
 90
       50
102
RTVSPost2010PropOp37
 70
     1
102
RTVSPost2010Prop38
140
0.0
102
RTVSPost2010PropOp38
 70
     1
102
RTVSPost2010Prop39
140
1.0
102
RTVSPost2010PropOp39
 70
     1
102
RTVSPost2010Prop40
 90
        0
102
RTVSPost2010PropOp40
 70
     1
102
RTVSPost2010Prop41ColorIndex
 90
       18
102
RTVSPost2010Prop41ColorRGB
 90
        0
102
RTVSPost2010PropOp41
 70
     1
102
RTVSPost2010Prop42
 90
       50
102
RTVSPost2010PropOp42
 70
     1
102
RTVSPost2010Prop43
 90
        3
102
RTVSPost2010PropOp43
 70
     1
102
RTVSPost2010Prop44ColorIndex
 90
        5
102
RTVSPost2010Prop44ColorRGB
 90
      255
102
RTVSPost2010PropOp44
 70
     1
102
RTVSPost2010Prop45
280
     0
102
RTVSPost2010PropOp45
 70
     1
102
RTVSPost2010Prop46
 90
       50
102
RTVSPost2010PropOp46
 70
     1
102
RTVSPost2010Prop47
 90
       50
102
RTVSPost2010PropOp47
 70
     1
102
RTVSPost2010Prop48
 90
       50
102
RTVSPost2010PropOp48
 70
     1
102
RTVSPost2010Prop49
280
     0
102
RTVSPost2010PropOp49
 70
     1
102
RTVSPost2010Prop50
 90
       50
102
RTVSPost2010PropOp50
 70
     1
102
RTVSPost2010Prop51ColorIndex
 90
      256
102
RTVSPost2010Prop51ColorRGB
 90
-16777216
102
RTVSPost2010PropOp51
 70
     0
102
RTVSPost2010Prop52
140
1.0
102
RTVSPost2010PropOp52
 70
     0
102
RTVSPost2010Prop53
 90
        2
102
RTVSPost2010PropOp53
 70
     1
102
RTVSPost2010Prop54
  1
strokes_ogs.tif
102
RTVSPost2010PropOp54
 70
     1
102
RTVSPost2010Prop55
280
     0
102
RTVSPost2010PropOp55
 70
     1
102
RTVSPost2010Prop56
140
1.0
102
RTVSPost2010PropOp56
 70
     1
102
RTVSPost2010Prop57
140
1.0
102
RTVSPost2010PropOp57
 70
     1
  0
XRECORD
  5
29B
102
{ACAD_REACTORS
330
29A
102
}
330
29A
100
AcDbXrecord
280
     1
102
RTVSPropertyOp0
 70
     1
102
RTVSPropertyOp1
 70
     1
102
RTVSPropertyOp2
 70
     1
102
RTVSPropertyOp3
 70
     1
102
RTVSPropertyOp4
 70
     1
102
RTVSPropertyOp5
 70
     1
102
RTVSPropertyOp6
 70
     1
102
RTVSPropertyOp7
 70
     1
102
RTVSPropertyOp8
 70
     1
102
RTVSPropertyOp9
 70
     1
102
RTVSPropertyOp10
 70
     1
102
RTVSPropertyOp11
 70
     1
102
RTVSPropertyOp12
 70
     1
102
RTVSPropertyOp13
 70
     1
102
RTVSPropertyOp14
 70
     1
102
RTVSPropertyOp15
 70
     1
102
RTVSPropertyOp16
 70
     1
102
RTVSPropertyOp17
 70
     1
102
RTVSPropertyOp18
 70
     1
102
RTVSPropertyOp19
 70
     1
102
RTVSPropertyOp20
 70
     1
102
RTVSPropertyOp21
 70
     1
102
RTVSPropertyOp22
 70
     1
102
RTVSPropertyOp23
 70
     1
102
RTVSPropertyOp24
 70
     1
102
RTVSPropertyOp25
 70
     1
102
RTVSPropertyOp26
 70
     1
102
RTVSPropertyOp27
 70
     1
102
RTVSPropertyOp28
 70
     1
102
RTVSPropertyOp29
 70
     1
102
RTVSPropertyOp30
 70
     1
102
RTVSPropertyOp31
 70
     1
102
RTVSPropertyOp32
 70
     1
102
RTVSPropertyOp33
 70
     1
102
RTVSPropertyOp34
 70
     1
102
RTVSPropertyOp35
 70
     1
102
RTVSPropertyOp36
 70
     1
102
RTVSPropertyOp37
 70
     1
102
RTVSPropertyOp38
 70
     1
102
RTVSPropertyOp39
 70
     1
102
RTVSPropertyOp40
 70
     1
102
RTVSPropertyOp41
 70
     1
102
RTVSPropertyOp42
 70
     1
102
RTVSPropertyOp43
 70
     1
102
RTVSPropertyOp44
 70
     1
102
RTVSPropertyOp45
 70
     1
102
RTVSPropertyOp46
 70
     1
102
RTVSPropertyOp47
 70
     1
102
RTVSPropertyOp48
 70
     1
102
RTVSPropertyOp49
 70
     1
102
RTVSPropertyOp50
 70
     1
102
RTVSPropertyOp51
 70
     0
102
RTVSPropertyOp52
 70
     0
102
RTVSPropertyOp53
 70
     1
102
RTVSPropertyOp54
 70
     1
102
RTVSPropertyOp55
 70
     1
102
RTVSPropertyOp56
 70
     1
102
RTVSPropertyOp57
 70
     1
102
RTVSPost2010Prop28
280
     0
102
RTVSPost2010PropOp28
 70
     1
102
RTVSPost2010Prop29
280
     1
102
RTVSPost2010PropOp29
 70
     1
102
RTVSPost2010Prop30
280
     1
102
RTVSPost2010PropOp30
 70
     1
102
RTVSPost2010Prop31
280
     0
102
RTVSPost2010PropOp31
 70
     1
102
RTVSPost2010Prop32
280
     0
102
RTVSPost2010PropOp32
 70
     1
102
RTVSPost2010Prop33
280
     0
102
RTVSPost2010PropOp33
 70
     1
102
RTVSPost2010Prop34
280
     0
102
RTVSPost2010PropOp34
 70
     1
102
RTVSPost2010Prop35
280
     0
102
RTVSPost2010PropOp35
 70
     1
102
RTVSPost2010Prop36
280
     0
102
RTVSPost2010PropOp36
 70
     1
102
RTVSPost2010Prop37
 90
       50
102
RTVSPost2010PropOp37
 70
     1
102
RTVSPost2010Prop38
140
0.0
102
RTVSPost2010PropOp38
 70
     1
102
RTVSPost2010Prop39
140
1.0
102
RTVSPost2010PropOp39
 70
     1
102
RTVSPost2010Prop40
 90
        0
102
RTVSPost2010PropOp40
 70
     1
102
RTVSPost2010Prop41ColorIndex
 90
       18
102
RTVSPost2010Prop41ColorRGB
 90
        0
102
RTVSPost2010PropOp41
 70
     1
102
RTVSPost2010Prop42
 90
       50
102
RTVSPost2010PropOp42
 70
     1
102
RTVSPost2010Prop43
 90
        3
102
RTVSPost2010PropOp43
 70
     1
102
RTVSPost2010Prop44ColorIndex
 90
        5
102
RTVSPost2010Prop44ColorRGB
 90
      255
102
RTVSPost2010PropOp44
 70
     1
102
RTVSPost2010Prop45
280
     0
102
RTVSPost2010PropOp45
 70
     1
102
RTVSPost2010Prop46
 90
       50
102
RTVSPost2010PropOp46
 70
     1
102
RTVSPost2010Prop47
 90
       50
102
RTVSPost2010PropOp47
 70
     1
102
RTVSPost2010Prop48
 90
       50
102
RTVSPost2010PropOp48
 70
     1
102
RTVSPost2010Prop49
280
     0
102
RTVSPost2010PropOp49
 70
     1
102
RTVSPost2010Prop50
 90
       50
102
RTVSPost2010PropOp50
 70
     1
102
RTVSPost2010Prop51ColorIndex
 90
      256
102
RTVSPost2010Prop51ColorRGB
 90
-16777216
102
RTVSPost2010PropOp51
 70
     0
102
RTVSPost2010Prop52
140
1.0
102
RTVSPost2010PropOp52
 70
     0
102
RTVSPost2010Prop53
 90
        2
102
RTVSPost2010PropOp53
 70
     1
102
RTVSPost2010Prop54
  1
strokes_ogs.tif
102
RTVSPost2010PropOp54
 70
     1
102
RTVSPost2010Prop55
280
     0
102
RTVSPost2010PropOp55
 70
     1
102
RTVSPost2010Prop56
140
1.0
102
RTVSPost2010PropOp56
 70
     1
102
RTVSPost2010Prop57
140
1.0
102
RTVSPost2010PropOp57
 70
     1
  0
XRECORD
  5
2A3
102
{ACAD_REACTORS
330
2A2
102
}
330
2A2
100
AcDbXrecord
280
     1
102
RTVSPropertyOp0
 70
     1
102
RTVSPropertyOp1
 70
     1
102
RTVSPropertyOp2
 70
     1
102
RTVSPropertyOp3
 70
     1
102
RTVSPropertyOp4
 70
     1
102
RTVSPropertyOp5
 70
     1
102
RTVSPropertyOp6
 70
     1
102
RTVSPropertyOp7
 70
     1
102
RTVSPropertyOp8
 70
     1
102
RTVSPropertyOp9
 70
     1
102
RTVSPropertyOp10
 70
     1
102
RTVSPropertyOp11
 70
     1
102
RTVSPropertyOp12
 70
     1
102
RTVSPropertyOp13
 70
     1
102
RTVSPropertyOp14
 70
     1
102
RTVSPropertyOp15
 70
     1
102
RTVSPropertyOp16
 70
     1
102
RTVSPropertyOp17
 70
     1
102
RTVSPropertyOp18
 70
     1
102
RTVSPropertyOp19
 70
     1
102
RTVSPropertyOp20
 70
     1
102
RTVSPropertyOp21
 70
     1
102
RTVSPropertyOp22
 70
     1
102
RTVSPropertyOp23
 70
     1
102
RTVSPropertyOp24
 70
     1
102
RTVSPropertyOp25
 70
     1
102
RTVSPropertyOp26
 70
     1
102
RTVSPropertyOp27
 70
     1
102
RTVSPropertyOp28
 70
     1
102
RTVSPropertyOp29
 70
     1
102
RTVSPropertyOp30
 70
     1
102
RTVSPropertyOp31
 70
     1
102
RTVSPropertyOp32
 70
     1
102
RTVSPropertyOp33
 70
     1
102
RTVSPropertyOp34
 70
     1
102
RTVSPropertyOp35
 70
     1
102
RTVSPropertyOp36
 70
     1
102
RTVSPropertyOp37
 70
     1
102
RTVSPropertyOp38
 70
     1
102
RTVSPropertyOp39
 70
     1
102
RTVSPropertyOp40
 70
     1
102
RTVSPropertyOp41
 70
     1
102
RTVSPropertyOp42
 70
     1
102
RTVSPropertyOp43
 70
     1
102
RTVSPropertyOp44
 70
     1
102
RTVSPropertyOp45
 70
     1
102
RTVSPropertyOp46
 70
     1
102
RTVSPropertyOp47
 70
     1
102
RTVSPropertyOp48
 70
     1
102
RTVSPropertyOp49
 70
     1
102
RTVSPropertyOp50
 70
     1
102
RTVSPropertyOp51
 70
     0
102
RTVSPropertyOp52
 70
     0
102
RTVSPropertyOp53
 70
     1
102
RTVSPropertyOp54
 70
     1
102
RTVSPropertyOp55
 70
     1
102
RTVSPropertyOp56
 70
     1
102
RTVSPropertyOp57
 70
     1
102
RTVSPost2010Prop28
280
     0
102
RTVSPost2010PropOp28
 70
     1
102
RTVSPost2010Prop29
280
     1
102
RTVSPost2010PropOp29
 70
     1
102
RTVSPost2010Prop30
280
     1
102
RTVSPost2010PropOp30
 70
     1
102
RTVSPost2010Prop31
280
     0
102
RTVSPost2010PropOp31
 70
     1
102
RTVSPost2010Prop32
280
     0
102
RTVSPost2010PropOp32
 70
     1
102
RTVSPost2010Prop33
280
     0
102
RTVSPost2010PropOp33
 70
     1
102
RTVSPost2010Prop34
280
     0
102
RTVSPost2010PropOp34
 70
     1
102
RTVSPost2010Prop35
280
     0
102
RTVSPost2010PropOp35
 70
     1
102
RTVSPost2010Prop36
280
     0
102
RTVSPost2010PropOp36
 70
     1
102
RTVSPost2010Prop37
 90
       50
102
RTVSPost2010PropOp37
 70
     1
102
RTVSPost2010Prop38
140
0.0
102
RTVSPost2010PropOp38
 70
     1
102
RTVSPost2010Prop39
140
1.0
102
RTVSPost2010PropOp39
 70
     1
102
RTVSPost2010Prop40
 90
        0
102
RTVSPost2010PropOp40
 70
     1
102
RTVSPost2010Prop41ColorIndex
 90
       18
102
RTVSPost2010Prop41ColorRGB
 90
        0
102
RTVSPost2010PropOp41
 70
     1
102
RTVSPost2010Prop42
 90
       50
102
RTVSPost2010PropOp42
 70
     1
102
RTVSPost2010Prop43
 90
        3
102
RTVSPost2010PropOp43
 70
     1
102
RTVSPost2010Prop44ColorIndex
 90
        5
102
RTVSPost2010Prop44ColorRGB
 90
      255
102
RTVSPost2010PropOp44
 70
     1
102
RTVSPost2010Prop45
280
     0
102
RTVSPost2010PropOp45
 70
     1
102
RTVSPost2010Prop46
 90
       50
102
RTVSPost2010PropOp46
 70
     1
102
RTVSPost2010Prop47
 90
       50
102
RTVSPost2010PropOp47
 70
     1
102
RTVSPost2010Prop48
 90
       50
102
RTVSPost2010PropOp48
 70
     1
102
RTVSPost2010Prop49
280
     0
102
RTVSPost2010PropOp49
 70
     1
102
RTVSPost2010Prop50
 90
       50
102
RTVSPost2010PropOp50
 70
     1
102
RTVSPost2010Prop51ColorIndex
 90
      256
102
RTVSPost2010Prop51ColorRGB
 90
-16777216
102
RTVSPost2010PropOp51
 70
     0
102
RTVSPost2010Prop52
140
1.0
102
RTVSPost2010PropOp52
 70
     0
102
RTVSPost2010Prop53
 90
        2
102
RTVSPost2010PropOp53
 70
     1
102
RTVSPost2010Prop54
  1
strokes_ogs.tif
102
RTVSPost2010PropOp54
 70
     1
102
RTVSPost2010Prop55
280
     0
102
RTVSPost2010PropOp55
 70
     1
102
RTVSPost2010Prop56
140
1.0
102
RTVSPost2010PropOp56
 70
     1
102
RTVSPost2010Prop57
140
1.0
102
RTVSPost2010PropOp57
 70
     1
  0
XRECORD
  5
2AB
102
{ACAD_REACTORS
330
2AA
102
}
330
2AA
100
AcDbXrecord
280
     1
102
RTVSPropertyOp0
 70
     1
102
RTVSPropertyOp1
 70
     1
102
RTVSPropertyOp2
 70
     1
102
RTVSPropertyOp3
 70
     1
102
RTVSPropertyOp4
 70
     1
102
RTVSPropertyOp5
 70
     1
102
RTVSPropertyOp6
 70
     1
102
RTVSPropertyOp7
 70
     1
102
RTVSPropertyOp8
 70
     1
102
RTVSPropertyOp9
 70
     1
102
RTVSPropertyOp10
 70
     1
102
RTVSPropertyOp11
 70
     1
102
RTVSPropertyOp12
 70
     1
102
RTVSPropertyOp13
 70
     1
102
RTVSPropertyOp14
 70
     1
102
RTVSPropertyOp15
 70
     1
102
RTVSPropertyOp16
 70
     1
102
RTVSPropertyOp17
 70
     1
102
RTVSPropertyOp18
 70
     1
102
RTVSPropertyOp19
 70
     1
102
RTVSPropertyOp20
 70
     1
102
RTVSPropertyOp21
 70
     1
102
RTVSPropertyOp22
 70
     1
102
RTVSPropertyOp23
 70
     1
102
RTVSPropertyOp24
 70
     1
102
RTVSPropertyOp25
 70
     1
102
RTVSPropertyOp26
 70
     1
102
RTVSPropertyOp27
 70
     1
102
RTVSPropertyOp28
 70
     1
102
RTVSPropertyOp29
 70
     1
102
RTVSPropertyOp30
 70
     1
102
RTVSPropertyOp31
 70
     1
102
RTVSPropertyOp32
 70
     1
102
RTVSPropertyOp33
 70
     1
102
RTVSPropertyOp34
 70
     1
102
RTVSPropertyOp35
 70
     1
102
RTVSPropertyOp36
 70
     1
102
RTVSPropertyOp37
 70
     1
102
RTVSPropertyOp38
 70
     1
102
RTVSPropertyOp39
 70
     1
102
RTVSPropertyOp40
 70
     1
102
RTVSPropertyOp41
 70
     1
102
RTVSPropertyOp42
 70
     1
102
RTVSPropertyOp43
 70
     1
102
RTVSPropertyOp44
 70
     1
102
RTVSPropertyOp45
 70
     1
102
RTVSPropertyOp46
 70
     1
102
RTVSPropertyOp47
 70
     1
102
RTVSPropertyOp48
 70
     1
102
RTVSPropertyOp49
 70
     1
102
RTVSPropertyOp50
 70
     1
102
RTVSPropertyOp51
 70
     0
102
RTVSPropertyOp52
 70
     0
102
RTVSPropertyOp53
 70
     1
102
RTVSPropertyOp54
 70
     1
102
RTVSPropertyOp55
 70
     1
102
RTVSPropertyOp56
 70
     1
102
RTVSPropertyOp57
 70
     1
102
RTVSPost2010Prop28
280
     0
102
RTVSPost2010PropOp28
 70
     1
102
RTVSPost2010Prop29
280
     1
102
RTVSPost2010PropOp29
 70
     1
102
RTVSPost2010Prop30
280
     1
102
RTVSPost2010PropOp30
 70
     1
102
RTVSPost2010Prop31
280
     0
102
RTVSPost2010PropOp31
 70
     1
102
RTVSPost2010Prop32
280
     0
102
RTVSPost2010PropOp32
 70
     1
102
RTVSPost2010Prop33
280
     0
102
RTVSPost2010PropOp33
 70
     1
102
RTVSPost2010Prop34
280
     0
102
RTVSPost2010PropOp34
 70
     1
102
RTVSPost2010Prop35
280
     0
102
RTVSPost2010PropOp35
 70
     1
102
RTVSPost2010Prop36
280
     0
102
RTVSPost2010PropOp36
 70
     1
102
RTVSPost2010Prop37
 90
       50
102
RTVSPost2010PropOp37
 70
     1
102
RTVSPost2010Prop38
140
0.0
102
RTVSPost2010PropOp38
 70
     1
102
RTVSPost2010Prop39
140
1.0
102
RTVSPost2010PropOp39
 70
     1
102
RTVSPost2010Prop40
 90
        0
102
RTVSPost2010PropOp40
 70
     1
102
RTVSPost2010Prop41ColorIndex
 90
       18
102
RTVSPost2010Prop41ColorRGB
 90
        0
102
RTVSPost2010PropOp41
 70
     1
102
RTVSPost2010Prop42
 90
       50
102
RTVSPost2010PropOp42
 70
     1
102
RTVSPost2010Prop43
 90
        3
102
RTVSPost2010PropOp43
 70
     1
102
RTVSPost2010Prop44ColorIndex
 90
        5
102
RTVSPost2010Prop44ColorRGB
 90
      255
102
RTVSPost2010PropOp44
 70
     1
102
RTVSPost2010Prop45
280
     0
102
RTVSPost2010PropOp45
 70
     1
102
RTVSPost2010Prop46
 90
       50
102
RTVSPost2010PropOp46
 70
     1
102
RTVSPost2010Prop47
 90
       50
102
RTVSPost2010PropOp47
 70
     1
102
RTVSPost2010Prop48
 90
       50
102
RTVSPost2010PropOp48
 70
     1
102
RTVSPost2010Prop49
280
     0
102
RTVSPost2010PropOp49
 70
     1
102
RTVSPost2010Prop50
 90
       50
102
RTVSPost2010PropOp50
 70
     1
102
RTVSPost2010Prop51ColorIndex
 90
      256
102
RTVSPost2010Prop51ColorRGB
 90
-16777216
102
RTVSPost2010PropOp51
 70
     0
102
RTVSPost2010Prop52
140
1.0
102
RTVSPost2010PropOp52
 70
     0
102
RTVSPost2010Prop53
 90
        2
102
RTVSPost2010PropOp53
 70
     1
102
RTVSPost2010Prop54
  1
strokes_ogs.tif
102
RTVSPost2010PropOp54
 70
     1
102
RTVSPost2010Prop55
280
     0
102
RTVSPost2010PropOp55
 70
     1
102
RTVSPost2010Prop56
140
1.0
102
RTVSPost2010PropOp56
 70
     1
102
RTVSPost2010Prop57
140
1.0
102
RTVSPost2010PropOp57
 70
     1
  0
XRECORD
  5
29F
102
{ACAD_REACTORS
330
29E
102
}
330
29E
100
AcDbXrecord
280
     1
102
RTVSPropertyOp0
 70
     1
102
RTVSPropertyOp1
 70
     1
102
RTVSPropertyOp2
 70
     1
102
RTVSPropertyOp3
 70
     1
102
RTVSPropertyOp4
 70
     1
102
RTVSPropertyOp5
 70
     1
102
RTVSPropertyOp6
 70
     1
102
RTVSPropertyOp7
 70
     1
102
RTVSPropertyOp8
 70
     1
102
RTVSPropertyOp9
 70
     1
102
RTVSPropertyOp10
 70
     1
102
RTVSPropertyOp11
 70
     1
102
RTVSPropertyOp12
 70
     1
102
RTVSPropertyOp13
 70
     1
102
RTVSPropertyOp14
 70
     1
102
RTVSPropertyOp15
 70
     1
102
RTVSPropertyOp16
 70
     1
102
RTVSPropertyOp17
 70
     1
102
RTVSPropertyOp18
 70
     1
102
RTVSPropertyOp19
 70
     1
102
RTVSPropertyOp20
 70
     1
102
RTVSPropertyOp21
 70
     1
102
RTVSPropertyOp22
 70
     1
102
RTVSPropertyOp23
 70
     1
102
RTVSPropertyOp24
 70
     1
102
RTVSPropertyOp25
 70
     1
102
RTVSPropertyOp26
 70
     1
102
RTVSPropertyOp27
 70
     1
102
RTVSPropertyOp28
 70
     1
102
RTVSPropertyOp29
 70
     1
102
RTVSPropertyOp30
 70
     1
102
RTVSPropertyOp31
 70
     1
102
RTVSPropertyOp32
 70
     1
102
RTVSPropertyOp33
 70
     1
102
RTVSPropertyOp34
 70
     1
102
RTVSPropertyOp35
 70
     1
102
RTVSPropertyOp36
 70
     1
102
RTVSPropertyOp37
 70
     1
102
RTVSPropertyOp38
 70
     1
102
RTVSPropertyOp39
 70
     1
102
RTVSPropertyOp40
 70
     1
102
RTVSPropertyOp41
 70
     1
102
RTVSPropertyOp42
 70
     1
102
RTVSPropertyOp43
 70
     1
102
RTVSPropertyOp44
 70
     1
102
RTVSPropertyOp45
 70
     1
102
RTVSPropertyOp46
 70
     1
102
RTVSPropertyOp47
 70
     1
102
RTVSPropertyOp48
 70
     1
102
RTVSPropertyOp49
 70
     1
102
RTVSPropertyOp50
 70
     1
102
RTVSPropertyOp51
 70
     0
102
RTVSPropertyOp52
 70
     0
102
RTVSPropertyOp53
 70
     1
102
RTVSPropertyOp54
 70
     1
102
RTVSPropertyOp55
 70
     1
102
RTVSPropertyOp56
 70
     1
102
RTVSPropertyOp57
 70
     1
102
RTVSPost2010Prop28
280
     0
102
RTVSPost2010PropOp28
 70
     1
102
RTVSPost2010Prop29
280
     1
102
RTVSPost2010PropOp29
 70
     1
102
RTVSPost2010Prop30
280
     1
102
RTVSPost2010PropOp30
 70
     1
102
RTVSPost2010Prop31
280
     0
102
RTVSPost2010PropOp31
 70
     1
102
RTVSPost2010Prop32
280
     0
102
RTVSPost2010PropOp32
 70
     1
102
RTVSPost2010Prop33
280
     0
102
RTVSPost2010PropOp33
 70
     1
102
RTVSPost2010Prop34
280
     0
102
RTVSPost2010PropOp34
 70
     1
102
RTVSPost2010Prop35
280
     0
102
RTVSPost2010PropOp35
 70
     1
102
RTVSPost2010Prop36
280
     0
102
RTVSPost2010PropOp36
 70
     1
102
RTVSPost2010Prop37
 90
       50
102
RTVSPost2010PropOp37
 70
     1
102
RTVSPost2010Prop38
140
0.0
102
RTVSPost2010PropOp38
 70
     1
102
RTVSPost2010Prop39
140
1.0
102
RTVSPost2010PropOp39
 70
     1
102
RTVSPost2010Prop40
 90
        0
102
RTVSPost2010PropOp40
 70
     1
102
RTVSPost2010Prop41ColorIndex
 90
       18
102
RTVSPost2010Prop41ColorRGB
 90
        0
102
RTVSPost2010PropOp41
 70
     1
102
RTVSPost2010Prop42
 90
       50
102
RTVSPost2010PropOp42
 70
     1
102
RTVSPost2010Prop43
 90
        3
102
RTVSPost2010PropOp43
 70
     1
102
RTVSPost2010Prop44ColorIndex
 90
        5
102
RTVSPost2010Prop44ColorRGB
 90
      255
102
RTVSPost2010PropOp44
 70
     1
102
RTVSPost2010Prop45
280
     0
102
RTVSPost2010PropOp45
 70
     1
102
RTVSPost2010Prop46
 90
       50
102
RTVSPost2010PropOp46
 70
     1
102
RTVSPost2010Prop47
 90
       50
102
RTVSPost2010PropOp47
 70
     1
102
RTVSPost2010Prop48
 90
       50
102
RTVSPost2010PropOp48
 70
     1
102
RTVSPost2010Prop49
280
     0
102
RTVSPost2010PropOp49
 70
     1
102
RTVSPost2010Prop50
 90
       50
102
RTVSPost2010PropOp50
 70
     1
102
RTVSPost2010Prop51ColorIndex
 90
      256
102
RTVSPost2010Prop51ColorRGB
 90
-16777216
102
RTVSPost2010PropOp51
 70
     0
102
RTVSPost2010Prop52
140
1.0
102
RTVSPost2010PropOp52
 70
     0
102
RTVSPost2010Prop53
 90
        2
102
RTVSPost2010PropOp53
 70
     1
102
RTVSPost2010Prop54
  1
strokes_ogs.tif
102
RTVSPost2010PropOp54
 70
     1
102
RTVSPost2010Prop55
280
     0
102
RTVSPost2010PropOp55
 70
     1
102
RTVSPost2010Prop56
140
1.0
102
RTVSPost2010PropOp56
 70
     1
102
RTVSPost2010Prop57
140
1.0
102
RTVSPost2010PropOp57
 70
     1
  0
XRECORD
  5
2A1
102
{ACAD_REACTORS
330
2A0
102
}
330
2A0
100
AcDbXrecord
280
     1
102
RTVSPropertyOp0
 70
     1
102
RTVSPropertyOp1
 70
     1
102
RTVSPropertyOp2
 70
     1
102
RTVSPropertyOp3
 70
     1
102
RTVSPropertyOp4
 70
     1
102
RTVSPropertyOp5
 70
     1
102
RTVSPropertyOp6
 70
     1
102
RTVSPropertyOp7
 70
     1
102
RTVSPropertyOp8
 70
     1
102
RTVSPropertyOp9
 70
     1
102
RTVSPropertyOp10
 70
     1
102
RTVSPropertyOp11
 70
     1
102
RTVSPropertyOp12
 70
     1
102
RTVSPropertyOp13
 70
     1
102
RTVSPropertyOp14
 70
     1
102
RTVSPropertyOp15
 70
     1
102
RTVSPropertyOp16
 70
     1
102
RTVSPropertyOp17
 70
     1
102
RTVSPropertyOp18
 70
     1
102
RTVSPropertyOp19
 70
     1
102
RTVSPropertyOp20
 70
     1
102
RTVSPropertyOp21
 70
     1
102
RTVSPropertyOp22
 70
     1
102
RTVSPropertyOp23
 70
     1
102
RTVSPropertyOp24
 70
     1
102
RTVSPropertyOp25
 70
     1
102
RTVSPropertyOp26
 70
     1
102
RTVSPropertyOp27
 70
     1
102
RTVSPropertyOp28
 70
     1
102
RTVSPropertyOp29
 70
     1
102
RTVSPropertyOp30
 70
     1
102
RTVSPropertyOp31
 70
     1
102
RTVSPropertyOp32
 70
     1
102
RTVSPropertyOp33
 70
     1
102
RTVSPropertyOp34
 70
     1
102
RTVSPropertyOp35
 70
     1
102
RTVSPropertyOp36
 70
     1
102
RTVSPropertyOp37
 70
     1
102
RTVSPropertyOp38
 70
     1
102
RTVSPropertyOp39
 70
     1
102
RTVSPropertyOp40
 70
     1
102
RTVSPropertyOp41
 70
     1
102
RTVSPropertyOp42
 70
     1
102
RTVSPropertyOp43
 70
     1
102
RTVSPropertyOp44
 70
     1
102
RTVSPropertyOp45
 70
     1
102
RTVSPropertyOp46
 70
     1
102
RTVSPropertyOp47
 70
     1
102
RTVSPropertyOp48
 70
     1
102
RTVSPropertyOp49
 70
     1
102
RTVSPropertyOp50
 70
     1
102
RTVSPropertyOp51
 70
     0
102
RTVSPropertyOp52
 70
     0
102
RTVSPropertyOp53
 70
     1
102
RTVSPropertyOp54
 70
     1
102
RTVSPropertyOp55
 70
     1
102
RTVSPropertyOp56
 70
     1
102
RTVSPropertyOp57
 70
     1
102
RTVSPost2010Prop28
280
     0
102
RTVSPost2010PropOp28
 70
     1
102
RTVSPost2010Prop29
280
     1
102
RTVSPost2010PropOp29
 70
     1
102
RTVSPost2010Prop30
280
     1
102
RTVSPost2010PropOp30
 70
     1
102
RTVSPost2010Prop31
280
     0
102
RTVSPost2010PropOp31
 70
     1
102
RTVSPost2010Prop32
280
     0
102
RTVSPost2010PropOp32
 70
     1
102
RTVSPost2010Prop33
280
     0
102
RTVSPost2010PropOp33
 70
     1
102
RTVSPost2010Prop34
280
     0
102
RTVSPost2010PropOp34
 70
     1
102
RTVSPost2010Prop35
280
     0
102
RTVSPost2010PropOp35
 70
     1
102
RTVSPost2010Prop36
280
     0
102
RTVSPost2010PropOp36
 70
     1
102
RTVSPost2010Prop37
 90
       50
102
RTVSPost2010PropOp37
 70
     1
102
RTVSPost2010Prop38
140
0.0
102
RTVSPost2010PropOp38
 70
     1
102
RTVSPost2010Prop39
140
1.0
102
RTVSPost2010PropOp39
 70
     1
102
RTVSPost2010Prop40
 90
        0
102
RTVSPost2010PropOp40
 70
     1
102
RTVSPost2010Prop41ColorIndex
 90
       18
102
RTVSPost2010Prop41ColorRGB
 90
        0
102
RTVSPost2010PropOp41
 70
     1
102
RTVSPost2010Prop42
 90
       50
102
RTVSPost2010PropOp42
 70
     1
102
RTVSPost2010Prop43
 90
        3
102
RTVSPost2010PropOp43
 70
     1
102
RTVSPost2010Prop44ColorIndex
 90
        5
102
RTVSPost2010Prop44ColorRGB
 90
      255
102
RTVSPost2010PropOp44
 70
     1
102
RTVSPost2010Prop45
280
     0
102
RTVSPost2010PropOp45
 70
     1
102
RTVSPost2010Prop46
 90
       50
102
RTVSPost2010PropOp46
 70
     1
102
RTVSPost2010Prop47
 90
       50
102
RTVSPost2010PropOp47
 70
     1
102
RTVSPost2010Prop48
 90
       50
102
RTVSPost2010PropOp48
 70
     1
102
RTVSPost2010Prop49
280
     0
102
RTVSPost2010PropOp49
 70
     1
102
RTVSPost2010Prop50
 90
       50
102
RTVSPost2010PropOp50
 70
     1
102
RTVSPost2010Prop51ColorIndex
 90
      256
102
RTVSPost2010Prop51ColorRGB
 90
-16777216
102
RTVSPost2010PropOp51
 70
     0
102
RTVSPost2010Prop52
140
1.0
102
RTVSPost2010PropOp52
 70
     0
102
RTVSPost2010Prop53
 90
        2
102
RTVSPost2010PropOp53
 70
     1
102
RTVSPost2010Prop54
  1
strokes_ogs.tif
102
RTVSPost2010PropOp54
 70
     1
102
RTVSPost2010Prop55
280
     0
102
RTVSPost2010PropOp55
 70
     1
102
RTVSPost2010Prop56
140
1.0
102
RTVSPost2010PropOp56
 70
     1
102
RTVSPost2010Prop57
140
1.0
102
RTVSPost2010PropOp57
 70
     1
  0
XRECORD
  5
2A9
102
{ACAD_REACTORS
330
2A8
102
}
330
2A8
100
AcDbXrecord
280
     1
102
RTVSPropertyOp0
 70
     1
102
RTVSPropertyOp1
 70
     1
102
RTVSPropertyOp2
 70
     1
102
RTVSPropertyOp3
 70
     1
102
RTVSPropertyOp4
 70
     1
102
RTVSPropertyOp5
 70
     1
102
RTVSPropertyOp6
 70
     1
102
RTVSPropertyOp7
 70
     1
102
RTVSPropertyOp8
 70
     1
102
RTVSPropertyOp9
 70
     1
102
RTVSPropertyOp10
 70
     1
102
RTVSPropertyOp11
 70
     1
102
RTVSPropertyOp12
 70
     1
102
RTVSPropertyOp13
 70
     1
102
RTVSPropertyOp14
 70
     1
102
RTVSPropertyOp15
 70
     1
102
RTVSPropertyOp16
 70
     1
102
RTVSPropertyOp17
 70
     1
102
RTVSPropertyOp18
 70
     1
102
RTVSPropertyOp19
 70
     1
102
RTVSPropertyOp20
 70
     1
102
RTVSPropertyOp21
 70
     1
102
RTVSPropertyOp22
 70
     1
102
RTVSPropertyOp23
 70
     1
102
RTVSPropertyOp24
 70
     1
102
RTVSPropertyOp25
 70
     1
102
RTVSPropertyOp26
 70
     1
102
RTVSPropertyOp27
 70
     1
102
RTVSPropertyOp28
 70
     1
102
RTVSPropertyOp29
 70
     1
102
RTVSPropertyOp30
 70
     1
102
RTVSPropertyOp31
 70
     1
102
RTVSPropertyOp32
 70
     1
102
RTVSPropertyOp33
 70
     1
102
RTVSPropertyOp34
 70
     1
102
RTVSPropertyOp35
 70
     1
102
RTVSPropertyOp36
 70
     1
102
RTVSPropertyOp37
 70
     1
102
RTVSPropertyOp38
 70
     1
102
RTVSPropertyOp39
 70
     1
102
RTVSPropertyOp40
 70
     1
102
RTVSPropertyOp41
 70
     1
102
RTVSPropertyOp42
 70
     1
102
RTVSPropertyOp43
 70
     1
102
RTVSPropertyOp44
 70
     1
102
RTVSPropertyOp45
 70
     1
102
RTVSPropertyOp46
 70
     1
102
RTVSPropertyOp47
 70
     1
102
RTVSPropertyOp48
 70
     1
102
RTVSPropertyOp49
 70
     1
102
RTVSPropertyOp50
 70
     1
102
RTVSPropertyOp51
 70
     0
102
RTVSPropertyOp52
 70
     0
102
RTVSPropertyOp53
 70
     1
102
RTVSPropertyOp54
 70
     1
102
RTVSPropertyOp55
 70
     1
102
RTVSPropertyOp56
 70
     1
102
RTVSPropertyOp57
 70
     1
102
RTVSPost2010Prop28
280
     0
102
RTVSPost2010PropOp28
 70
     1
102
RTVSPost2010Prop29
280
     1
102
RTVSPost2010PropOp29
 70
     1
102
RTVSPost2010Prop30
280
     1
102
RTVSPost2010PropOp30
 70
     1
102
RTVSPost2010Prop31
280
     0
102
RTVSPost2010PropOp31
 70
     1
102
RTVSPost2010Prop32
280
     0
102
RTVSPost2010PropOp32
 70
     1
102
RTVSPost2010Prop33
280
     0
102
RTVSPost2010PropOp33
 70
     1
102
RTVSPost2010Prop34
280
     0
102
RTVSPost2010PropOp34
 70
     1
102
RTVSPost2010Prop35
280
     0
102
RTVSPost2010PropOp35
 70
     1
102
RTVSPost2010Prop36
280
     0
102
RTVSPost2010PropOp36
 70
     1
102
RTVSPost2010Prop37
 90
       50
102
RTVSPost2010PropOp37
 70
     1
102
RTVSPost2010Prop38
140
0.0
102
RTVSPost2010PropOp38
 70
     1
102
RTVSPost2010Prop39
140
1.0
102
RTVSPost2010PropOp39
 70
     1
102
RTVSPost2010Prop40
 90
        0
102
RTVSPost2010PropOp40
 70
     1
102
RTVSPost2010Prop41ColorIndex
 90
       18
102
RTVSPost2010Prop41ColorRGB
 90
        0
102
RTVSPost2010PropOp41
 70
     1
102
RTVSPost2010Prop42
 90
       50
102
RTVSPost2010PropOp42
 70
     1
102
RTVSPost2010Prop43
 90
        3
102
RTVSPost2010PropOp43
 70
     1
102
RTVSPost2010Prop44ColorIndex
 90
        5
102
RTVSPost2010Prop44ColorRGB
 90
      255
102
RTVSPost2010PropOp44
 70
     1
102
RTVSPost2010Prop45
280
     0
102
RTVSPost2010PropOp45
 70
     1
102
RTVSPost2010Prop46
 90
       50
102
RTVSPost2010PropOp46
 70
     1
102
RTVSPost2010Prop47
 90
       50
102
RTVSPost2010PropOp47
 70
     1
102
RTVSPost2010Prop48
 90
       50
102
RTVSPost2010PropOp48
 70
     1
102
RTVSPost2010Prop49
280
     0
102
RTVSPost2010PropOp49
 70
     1
102
RTVSPost2010Prop50
 90
       50
102
RTVSPost2010PropOp50
 70
     1
102
RTVSPost2010Prop51ColorIndex
 90
      256
102
RTVSPost2010Prop51ColorRGB
 90
-16777216
102
RTVSPost2010PropOp51
 70
     0
102
RTVSPost2010Prop52
140
1.0
102
RTVSPost2010PropOp52
 70
     0
102
RTVSPost2010Prop53
 90
        2
102
RTVSPost2010PropOp53
 70
     1
102
RTVSPost2010Prop54
  1
strokes_ogs.tif
102
RTVSPost2010PropOp54
 70
     1
102
RTVSPost2010Prop55
280
     0
102
RTVSPost2010PropOp55
 70
     1
102
RTVSPost2010Prop56
140
1.0
102
RTVSPost2010PropOp56
 70
     1
102
RTVSPost2010Prop57
140
1.0
102
RTVSPost2010PropOp57
 70
     1
  0
XRECORD
  5
28D
102
{ACAD_REACTORS
330
28C
102
}
330
28C
100
AcDbXrecord
280
     1
102
RTVSPropertyOp0
 70
     1
102
RTVSPropertyOp1
 70
     1
102
RTVSPropertyOp2
 70
     1
102
RTVSPropertyOp3
 70
     1
102
RTVSPropertyOp4
 70
     1
102
RTVSPropertyOp5
 70
     1
102
RTVSPropertyOp6
 70
     1
102
RTVSPropertyOp7
 70
     1
102
RTVSPropertyOp8
 70
     1
102
RTVSPropertyOp9
 70
     1
102
RTVSPropertyOp10
 70
     1
102
RTVSPropertyOp11
 70
     1
102
RTVSPropertyOp12
 70
     1
102
RTVSPropertyOp13
 70
     1
102
RTVSPropertyOp14
 70
     1
102
RTVSPropertyOp15
 70
     1
102
RTVSPropertyOp16
 70
     1
102
RTVSPropertyOp17
 70
     1
102
RTVSPropertyOp18
 70
     1
102
RTVSPropertyOp19
 70
     1
102
RTVSPropertyOp20
 70
     1
102
RTVSPropertyOp21
 70
     1
102
RTVSPropertyOp22
 70
     1
102
RTVSPropertyOp23
 70
     1
102
RTVSPropertyOp24
 70
     1
102
RTVSPropertyOp25
 70
     1
102
RTVSPropertyOp26
 70
     1
102
RTVSPropertyOp27
 70
     1
102
RTVSPropertyOp28
 70
     1
102
RTVSPropertyOp29
 70
     1
102
RTVSPropertyOp30
 70
     1
102
RTVSPropertyOp31
 70
     1
102
RTVSPropertyOp32
 70
     1
102
RTVSPropertyOp33
 70
     1
102
RTVSPropertyOp34
 70
     1
102
RTVSPropertyOp35
 70
     1
102
RTVSPropertyOp36
 70
     1
102
RTVSPropertyOp37
 70
     1
102
RTVSPropertyOp38
 70
     1
102
RTVSPropertyOp39
 70
     1
102
RTVSPropertyOp40
 70
     1
102
RTVSPropertyOp41
 70
     1
102
RTVSPropertyOp42
 70
     1
102
RTVSPropertyOp43
 70
     1
102
RTVSPropertyOp44
 70
     1
102
RTVSPropertyOp45
 70
     1
102
RTVSPropertyOp46
 70
     1
102
RTVSPropertyOp47
 70
     1
102
RTVSPropertyOp48
 70
     1
102
RTVSPropertyOp49
 70
     1
102
RTVSPropertyOp50
 70
     1
102
RTVSPropertyOp51
 70
     0
102
RTVSPropertyOp52
 70
     0
102
RTVSPropertyOp53
 70
     1
102
RTVSPropertyOp54
 70
     1
102
RTVSPropertyOp55
 70
     1
102
RTVSPropertyOp56
 70
     1
102
RTVSPropertyOp57
 70
     1
102
RTVSPost2010Prop28
280
     0
102
RTVSPost2010PropOp28
 70
     1
102
RTVSPost2010Prop29
280
     1
102
RTVSPost2010PropOp29
 70
     1
102
RTVSPost2010Prop30
280
     1
102
RTVSPost2010PropOp30
 70
     1
102
RTVSPost2010Prop31
280
     0
102
RTVSPost2010PropOp31
 70
     1
102
RTVSPost2010Prop32
280
     0
102
RTVSPost2010PropOp32
 70
     1
102
RTVSPost2010Prop33
280
     0
102
RTVSPost2010PropOp33
 70
     1
102
RTVSPost2010Prop34
280
     0
102
RTVSPost2010PropOp34
 70
     1
102
RTVSPost2010Prop35
280
     0
102
RTVSPost2010PropOp35
 70
     1
102
RTVSPost2010Prop36
280
     0
102
RTVSPost2010PropOp36
 70
     1
102
RTVSPost2010Prop37
 90
       50
102
RTVSPost2010PropOp37
 70
     1
102
RTVSPost2010Prop38
140
0.0
102
RTVSPost2010PropOp38
 70
     1
102
RTVSPost2010Prop39
140
1.0
102
RTVSPost2010PropOp39
 70
     1
102
RTVSPost2010Prop40
 90
        0
102
RTVSPost2010PropOp40
 70
     1
102
RTVSPost2010Prop41ColorIndex
 90
       18
102
RTVSPost2010Prop41ColorRGB
 90
        0
102
RTVSPost2010PropOp41
 70
     1
102
RTVSPost2010Prop42
 90
       50
102
RTVSPost2010PropOp42
 70
     1
102
RTVSPost2010Prop43
 90
        3
102
RTVSPost2010PropOp43
 70
     1
102
RTVSPost2010Prop44ColorIndex
 90
        5
102
RTVSPost2010Prop44ColorRGB
 90
      255
102
RTVSPost2010PropOp44
 70
     1
102
RTVSPost2010Prop45
280
     0
102
RTVSPost2010PropOp45
 70
     1
102
RTVSPost2010Prop46
 90
       50
102
RTVSPost2010PropOp46
 70
     1
102
RTVSPost2010Prop47
 90
       50
102
RTVSPost2010PropOp47
 70
     1
102
RTVSPost2010Prop48
 90
       50
102
RTVSPost2010PropOp48
 70
     1
102
RTVSPost2010Prop49
280
     0
102
RTVSPost2010PropOp49
 70
     1
102
RTVSPost2010Prop50
 90
       50
102
RTVSPost2010PropOp50
 70
     1
102
RTVSPost2010Prop51ColorIndex
 90
      256
102
RTVSPost2010Prop51ColorRGB
 90
-16777216
102
RTVSPost2010PropOp51
 70
     0
102
RTVSPost2010Prop52
140
1.0
102
RTVSPost2010PropOp52
 70
     0
102
RTVSPost2010Prop53
 90
        2
102
RTVSPost2010PropOp53
 70
     1
102
RTVSPost2010Prop54
  1
strokes_ogs.tif
102
RTVSPost2010PropOp54
 70
     1
102
RTVSPost2010Prop55
280
     0
102
RTVSPost2010PropOp55
 70
     1
102
RTVSPost2010Prop56
140
1.0
102
RTVSPost2010PropOp56
 70
     1
102
RTVSPost2010Prop57
140
1.0
102
RTVSPost2010PropOp57
 70
     1
  0
XRECORD
  5
28F
102
{ACAD_REACTORS
330
28E
102
}
330
28E
100
AcDbXrecord
280
     1
102
RTVSPropertyOp0
 70
     1
102
RTVSPropertyOp1
 70
     1
102
RTVSPropertyOp2
 70
     1
102
RTVSPropertyOp3
 70
     1
102
RTVSPropertyOp4
 70
     1
102
RTVSPropertyOp5
 70
     1
102
RTVSPropertyOp6
 70
     1
102
RTVSPropertyOp7
 70
     1
102
RTVSPropertyOp8
 70
     1
102
RTVSPropertyOp9
 70
     1
102
RTVSPropertyOp10
 70
     1
102
RTVSPropertyOp11
 70
     1
102
RTVSPropertyOp12
 70
     1
102
RTVSPropertyOp13
 70
     1
102
RTVSPropertyOp14
 70
     1
102
RTVSPropertyOp15
 70
     1
102
RTVSPropertyOp16
 70
     1
102
RTVSPropertyOp17
 70
     1
102
RTVSPropertyOp18
 70
     1
102
RTVSPropertyOp19
 70
     1
102
RTVSPropertyOp20
 70
     1
102
RTVSPropertyOp21
 70
     1
102
RTVSPropertyOp22
 70
     1
102
RTVSPropertyOp23
 70
     1
102
RTVSPropertyOp24
 70
     1
102
RTVSPropertyOp25
 70
     1
102
RTVSPropertyOp26
 70
     1
102
RTVSPropertyOp27
 70
     1
102
RTVSPropertyOp28
 70
     1
102
RTVSPropertyOp29
 70
     1
102
RTVSPropertyOp30
 70
     1
102
RTVSPropertyOp31
 70
     1
102
RTVSPropertyOp32
 70
     1
102
RTVSPropertyOp33
 70
     1
102
RTVSPropertyOp34
 70
     1
102
RTVSPropertyOp35
 70
     1
102
RTVSPropertyOp36
 70
     1
102
RTVSPropertyOp37
 70
     1
102
RTVSPropertyOp38
 70
     1
102
RTVSPropertyOp39
 70
     1
102
RTVSPropertyOp40
 70
     1
102
RTVSPropertyOp41
 70
     1
102
RTVSPropertyOp42
 70
     1
102
RTVSPropertyOp43
 70
     1
102
RTVSPropertyOp44
 70
     1
102
RTVSPropertyOp45
 70
     1
102
RTVSPropertyOp46
 70
     1
102
RTVSPropertyOp47
 70
     1
102
RTVSPropertyOp48
 70
     1
102
RTVSPropertyOp49
 70
     1
102
RTVSPropertyOp50
 70
     1
102
RTVSPropertyOp51
 70
     0
102
RTVSPropertyOp52
 70
     0
102
RTVSPropertyOp53
 70
     1
102
RTVSPropertyOp54
 70
     1
102
RTVSPropertyOp55
 70
     1
102
RTVSPropertyOp56
 70
     1
102
RTVSPropertyOp57
 70
     1
102
RTVSPost2010Prop28
280
     0
102
RTVSPost2010PropOp28
 70
     1
102
RTVSPost2010Prop29
280
     1
102
RTVSPost2010PropOp29
 70
     1
102
RTVSPost2010Prop30
280
     1
102
RTVSPost2010PropOp30
 70
     1
102
RTVSPost2010Prop31
280
     0
102
RTVSPost2010PropOp31
 70
     1
102
RTVSPost2010Prop32
280
     0
102
RTVSPost2010PropOp32
 70
     1
102
RTVSPost2010Prop33
280
     0
102
RTVSPost2010PropOp33
 70
     1
102
RTVSPost2010Prop34
280
     0
102
RTVSPost2010PropOp34
 70
     1
102
RTVSPost2010Prop35
280
     0
102
RTVSPost2010PropOp35
 70
     1
102
RTVSPost2010Prop36
280
     0
102
RTVSPost2010PropOp36
 70
     1
102
RTVSPost2010Prop37
 90
       50
102
RTVSPost2010PropOp37
 70
     1
102
RTVSPost2010Prop38
140
0.0
102
RTVSPost2010PropOp38
 70
     1
102
RTVSPost2010Prop39
140
1.0
102
RTVSPost2010PropOp39
 70
     1
102
RTVSPost2010Prop40
 90
        0
102
RTVSPost2010PropOp40
 70
     1
102
RTVSPost2010Prop41ColorIndex
 90
       18
102
RTVSPost2010Prop41ColorRGB
 90
        0
102
RTVSPost2010PropOp41
 70
     1
102
RTVSPost2010Prop42
 90
       50
102
RTVSPost2010PropOp42
 70
     1
102
RTVSPost2010Prop43
 90
        3
102
RTVSPost2010PropOp43
 70
     1
102
RTVSPost2010Prop44ColorIndex
 90
        5
102
RTVSPost2010Prop44ColorRGB
 90
      255
102
RTVSPost2010PropOp44
 70
     1
102
RTVSPost2010Prop45
280
     0
102
RTVSPost2010PropOp45
 70
     1
102
RTVSPost2010Prop46
 90
       50
102
RTVSPost2010PropOp46
 70
     1
102
RTVSPost2010Prop47
 90
       50
102
RTVSPost2010PropOp47
 70
     1
102
RTVSPost2010Prop48
 90
       50
102
RTVSPost2010PropOp48
 70
     1
102
RTVSPost2010Prop49
280
     0
102
RTVSPost2010PropOp49
 70
     1
102
RTVSPost2010Prop50
 90
       50
102
RTVSPost2010PropOp50
 70
     1
102
RTVSPost2010Prop51ColorIndex
 90
      256
102
RTVSPost2010Prop51ColorRGB
 90
-16777216
102
RTVSPost2010PropOp51
 70
     0
102
RTVSPost2010Prop52
140
1.0
102
RTVSPost2010PropOp52
 70
     0
102
RTVSPost2010Prop53
 90
        2
102
RTVSPost2010PropOp53
 70
     1
102
RTVSPost2010Prop54
  1
strokes_ogs.tif
102
RTVSPost2010PropOp54
 70
     1
102
RTVSPost2010Prop55
280
     0
102
RTVSPost2010PropOp55
 70
     1
102
RTVSPost2010Prop56
140
1.0
102
RTVSPost2010PropOp56
 70
     1
102
RTVSPost2010Prop57
140
1.0
102
RTVSPost2010PropOp57
 70
     1
  0
XRECORD
  5
291
102
{ACAD_REACTORS
330
290
102
}
330
290
100
AcDbXrecord
280
     1
102
RTVSPropertyOp0
 70
     1
102
RTVSPropertyOp1
 70
     1
102
RTVSPropertyOp2
 70
     1
102
RTVSPropertyOp3
 70
     1
102
RTVSPropertyOp4
 70
     1
102
RTVSPropertyOp5
 70
     1
102
RTVSPropertyOp6
 70
     1
102
RTVSPropertyOp7
 70
     1
102
RTVSPropertyOp8
 70
     1
102
RTVSPropertyOp9
 70
     1
102
RTVSPropertyOp10
 70
     1
102
RTVSPropertyOp11
 70
     1
102
RTVSPropertyOp12
 70
     1
102
RTVSPropertyOp13
 70
     1
102
RTVSPropertyOp14
 70
     1
102
RTVSPropertyOp15
 70
     1
102
RTVSPropertyOp16
 70
     1
102
RTVSPropertyOp17
 70
     1
102
RTVSPropertyOp18
 70
     1
102
RTVSPropertyOp19
 70
     1
102
RTVSPropertyOp20
 70
     1
102
RTVSPropertyOp21
 70
     1
102
RTVSPropertyOp22
 70
     1
102
RTVSPropertyOp23
 70
     1
102
RTVSPropertyOp24
 70
     1
102
RTVSPropertyOp25
 70
     1
102
RTVSPropertyOp26
 70
     1
102
RTVSPropertyOp27
 70
     1
102
RTVSPropertyOp28
 70
     1
102
RTVSPropertyOp29
 70
     1
102
RTVSPropertyOp30
 70
     1
102
RTVSPropertyOp31
 70
     1
102
RTVSPropertyOp32
 70
     1
102
RTVSPropertyOp33
 70
     1
102
RTVSPropertyOp34
 70
     1
102
RTVSPropertyOp35
 70
     1
102
RTVSPropertyOp36
 70
     1
102
RTVSPropertyOp37
 70
     1
102
RTVSPropertyOp38
 70
     1
102
RTVSPropertyOp39
 70
     1
102
RTVSPropertyOp40
 70
     1
102
RTVSPropertyOp41
 70
     1
102
RTVSPropertyOp42
 70
     1
102
RTVSPropertyOp43
 70
     1
102
RTVSPropertyOp44
 70
     1
102
RTVSPropertyOp45
 70
     1
102
RTVSPropertyOp46
 70
     1
102
RTVSPropertyOp47
 70
     1
102
RTVSPropertyOp48
 70
     1
102
RTVSPropertyOp49
 70
     1
102
RTVSPropertyOp50
 70
     1
102
RTVSPropertyOp51
 70
     0
102
RTVSPropertyOp52
 70
     0
102
RTVSPropertyOp53
 70
     1
102
RTVSPropertyOp54
 70
     1
102
RTVSPropertyOp55
 70
     1
102
RTVSPropertyOp56
 70
     1
102
RTVSPropertyOp57
 70
     1
102
RTVSPost2010Prop28
280
     0
102
RTVSPost2010PropOp28
 70
     1
102
RTVSPost2010Prop29
280
     1
102
RTVSPost2010PropOp29
 70
     1
102
RTVSPost2010Prop30
280
     1
102
RTVSPost2010PropOp30
 70
     1
102
RTVSPost2010Prop31
280
     0
102
RTVSPost2010PropOp31
 70
     1
102
RTVSPost2010Prop32
280
     0
102
RTVSPost2010PropOp32
 70
     1
102
RTVSPost2010Prop33
280
     0
102
RTVSPost2010PropOp33
 70
     1
102
RTVSPost2010Prop34
280
     0
102
RTVSPost2010PropOp34
 70
     1
102
RTVSPost2010Prop35
280
     0
102
RTVSPost2010PropOp35
 70
     1
102
RTVSPost2010Prop36
280
     0
102
RTVSPost2010PropOp36
 70
     1
102
RTVSPost2010Prop37
 90
       50
102
RTVSPost2010PropOp37
 70
     1
102
RTVSPost2010Prop38
140
0.0
102
RTVSPost2010PropOp38
 70
     1
102
RTVSPost2010Prop39
140
1.0
102
RTVSPost2010PropOp39
 70
     1
102
RTVSPost2010Prop40
 90
        0
102
RTVSPost2010PropOp40
 70
     1
102
RTVSPost2010Prop41ColorIndex
 90
       18
102
RTVSPost2010Prop41ColorRGB
 90
        0
102
RTVSPost2010PropOp41
 70
     1
102
RTVSPost2010Prop42
 90
       50
102
RTVSPost2010PropOp42
 70
     1
102
RTVSPost2010Prop43
 90
        3
102
RTVSPost2010PropOp43
 70
     1
102
RTVSPost2010Prop44ColorIndex
 90
        5
102
RTVSPost2010Prop44ColorRGB
 90
      255
102
RTVSPost2010PropOp44
 70
     1
102
RTVSPost2010Prop45
280
     0
102
RTVSPost2010PropOp45
 70
     1
102
RTVSPost2010Prop46
 90
       50
102
RTVSPost2010PropOp46
 70
     1
102
RTVSPost2010Prop47
 90
       50
102
RTVSPost2010PropOp47
 70
     1
102
RTVSPost2010Prop48
 90
       50
102
RTVSPost2010PropOp48
 70
     1
102
RTVSPost2010Prop49
280
     0
102
RTVSPost2010PropOp49
 70
     1
102
RTVSPost2010Prop50
 90
       50
102
RTVSPost2010PropOp50
 70
     1
102
RTVSPost2010Prop51ColorIndex
 90
      256
102
RTVSPost2010Prop51ColorRGB
 90
-16777216
102
RTVSPost2010PropOp51
 70
     0
102
RTVSPost2010Prop52
140
1.0
102
RTVSPost2010PropOp52
 70
     0
102
RTVSPost2010Prop53
 90
        2
102
RTVSPost2010PropOp53
 70
     1
102
RTVSPost2010Prop54
  1
strokes_ogs.tif
102
RTVSPost2010PropOp54
 70
     1
102
RTVSPost2010Prop55
280
     0
102
RTVSPost2010PropOp55
 70
     1
102
RTVSPost2010Prop56
140
1.0
102
RTVSPost2010PropOp56
 70
     1
102
RTVSPost2010Prop57
140
1.0
102
RTVSPost2010PropOp57
 70
     1
  0
XRECORD
  5
293
102
{ACAD_REACTORS
330
292
102
}
330
292
100
AcDbXrecord
280
     1
102
RTVSPropertyOp0
 70
     1
102
RTVSPropertyOp1
 70
     1
102
RTVSPropertyOp2
 70
     1
102
RTVSPropertyOp3
 70
     1
102
RTVSPropertyOp4
 70
     1
102
RTVSPropertyOp5
 70
     1
102
RTVSPropertyOp6
 70
     1
102
RTVSPropertyOp7
 70
     1
102
RTVSPropertyOp8
 70
     1
102
RTVSPropertyOp9
 70
     1
102
RTVSPropertyOp10
 70
     1
102
RTVSPropertyOp11
 70
     1
102
RTVSPropertyOp12
 70
     1
102
RTVSPropertyOp13
 70
     1
102
RTVSPropertyOp14
 70
     1
102
RTVSPropertyOp15
 70
     1
102
RTVSPropertyOp16
 70
     1
102
RTVSPropertyOp17
 70
     1
102
RTVSPropertyOp18
 70
     1
102
RTVSPropertyOp19
 70
     1
102
RTVSPropertyOp20
 70
     1
102
RTVSPropertyOp21
 70
     1
102
RTVSPropertyOp22
 70
     1
102
RTVSPropertyOp23
 70
     1
102
RTVSPropertyOp24
 70
     1
102
RTVSPropertyOp25
 70
     1
102
RTVSPropertyOp26
 70
     1
102
RTVSPropertyOp27
 70
     1
102
RTVSPropertyOp28
 70
     1
102
RTVSPropertyOp29
 70
     1
102
RTVSPropertyOp30
 70
     1
102
RTVSPropertyOp31
 70
     1
102
RTVSPropertyOp32
 70
     1
102
RTVSPropertyOp33
 70
     1
102
RTVSPropertyOp34
 70
     1
102
RTVSPropertyOp35
 70
     1
102
RTVSPropertyOp36
 70
     1
102
RTVSPropertyOp37
 70
     1
102
RTVSPropertyOp38
 70
     1
102
RTVSPropertyOp39
 70
     1
102
RTVSPropertyOp40
 70
     1
102
RTVSPropertyOp41
 70
     1
102
RTVSPropertyOp42
 70
     1
102
RTVSPropertyOp43
 70
     1
102
RTVSPropertyOp44
 70
     1
102
RTVSPropertyOp45
 70
     1
102
RTVSPropertyOp46
 70
     1
102
RTVSPropertyOp47
 70
     1
102
RTVSPropertyOp48
 70
     1
102
RTVSPropertyOp49
 70
     1
102
RTVSPropertyOp50
 70
     1
102
RTVSPropertyOp51
 70
     0
102
RTVSPropertyOp52
 70
     0
102
RTVSPropertyOp53
 70
     1
102
RTVSPropertyOp54
 70
     1
102
RTVSPropertyOp55
 70
     1
102
RTVSPropertyOp56
 70
     1
102
RTVSPropertyOp57
 70
     1
102
RTVSPost2010Prop28
280
     0
102
RTVSPost2010PropOp28
 70
     1
102
RTVSPost2010Prop29
280
     1
102
RTVSPost2010PropOp29
 70
     1
102
RTVSPost2010Prop30
280
     1
102
RTVSPost2010PropOp30
 70
     1
102
RTVSPost2010Prop31
280
     0
102
RTVSPost2010PropOp31
 70
     1
102
RTVSPost2010Prop32
280
     0
102
RTVSPost2010PropOp32
 70
     1
102
RTVSPost2010Prop33
280
     0
102
RTVSPost2010PropOp33
 70
     1
102
RTVSPost2010Prop34
280
     0
102
RTVSPost2010PropOp34
 70
     1
102
RTVSPost2010Prop35
280
     0
102
RTVSPost2010PropOp35
 70
     1
102
RTVSPost2010Prop36
280
     0
102
RTVSPost2010PropOp36
 70
     1
102
RTVSPost2010Prop37
 90
       50
102
RTVSPost2010PropOp37
 70
     1
102
RTVSPost2010Prop38
140
0.0
102
RTVSPost2010PropOp38
 70
     1
102
RTVSPost2010Prop39
140
1.0
102
RTVSPost2010PropOp39
 70
     1
102
RTVSPost2010Prop40
 90
        0
102
RTVSPost2010PropOp40
 70
     1
102
RTVSPost2010Prop41ColorIndex
 90
       18
102
RTVSPost2010Prop41ColorRGB
 90
        0
102
RTVSPost2010PropOp41
 70
     1
102
RTVSPost2010Prop42
 90
       50
102
RTVSPost2010PropOp42
 70
     1
102
RTVSPost2010Prop43
 90
        3
102
RTVSPost2010PropOp43
 70
     1
102
RTVSPost2010Prop44ColorIndex
 90
        5
102
RTVSPost2010Prop44ColorRGB
 90
      255
102
RTVSPost2010PropOp44
 70
     1
102
RTVSPost2010Prop45
280
     0
102
RTVSPost2010PropOp45
 70
     1
102
RTVSPost2010Prop46
 90
       50
102
RTVSPost2010PropOp46
 70
     1
102
RTVSPost2010Prop47
 90
       50
102
RTVSPost2010PropOp47
 70
     1
102
RTVSPost2010Prop48
 90
       50
102
RTVSPost2010PropOp48
 70
     1
102
RTVSPost2010Prop49
280
     0
102
RTVSPost2010PropOp49
 70
     1
102
RTVSPost2010Prop50
 90
       50
102
RTVSPost2010PropOp50
 70
     1
102
RTVSPost2010Prop51ColorIndex
 90
      256
102
RTVSPost2010Prop51ColorRGB
 90
-16777216
102
RTVSPost2010PropOp51
 70
     0
102
RTVSPost2010Prop52
140
1.0
102
RTVSPost2010PropOp52
 70
     0
102
RTVSPost2010Prop53
 90
        2
102
RTVSPost2010PropOp53
 70
     1
102
RTVSPost2010Prop54
  1
strokes_ogs.tif
102
RTVSPost2010PropOp54
 70
     1
102
RTVSPost2010Prop55
280
     0
102
RTVSPost2010PropOp55
 70
     1
102
RTVSPost2010Prop56
140
1.0
102
RTVSPost2010PropOp56
 70
     1
102
RTVSPost2010Prop57
140
1.0
102
RTVSPost2010PropOp57
 70
     1
  0
XRECORD
  5
2A7
102
{ACAD_REACTORS
330
2A6
102
}
330
2A6
100
AcDbXrecord
280
     1
102
RTVSPropertyOp0
 70
     1
102
RTVSPropertyOp1
 70
     1
102
RTVSPropertyOp2
 70
     1
102
RTVSPropertyOp3
 70
     1
102
RTVSPropertyOp4
 70
     1
102
RTVSPropertyOp5
 70
     1
102
RTVSPropertyOp6
 70
     1
102
RTVSPropertyOp7
 70
     1
102
RTVSPropertyOp8
 70
     1
102
RTVSPropertyOp9
 70
     1
102
RTVSPropertyOp10
 70
     1
102
RTVSPropertyOp11
 70
     1
102
RTVSPropertyOp12
 70
     1
102
RTVSPropertyOp13
 70
     1
102
RTVSPropertyOp14
 70
     1
102
RTVSPropertyOp15
 70
     1
102
RTVSPropertyOp16
 70
     1
102
RTVSPropertyOp17
 70
     1
102
RTVSPropertyOp18
 70
     1
102
RTVSPropertyOp19
 70
     1
102
RTVSPropertyOp20
 70
     1
102
RTVSPropertyOp21
 70
     1
102
RTVSPropertyOp22
 70
     1
102
RTVSPropertyOp23
 70
     1
102
RTVSPropertyOp24
 70
     1
102
RTVSPropertyOp25
 70
     1
102
RTVSPropertyOp26
 70
     1
102
RTVSPropertyOp27
 70
     1
102
RTVSPropertyOp28
 70
     1
102
RTVSPropertyOp29
 70
     1
102
RTVSPropertyOp30
 70
     1
102
RTVSPropertyOp31
 70
     1
102
RTVSPropertyOp32
 70
     1
102
RTVSPropertyOp33
 70
     1
102
RTVSPropertyOp34
 70
     1
102
RTVSPropertyOp35
 70
     1
102
RTVSPropertyOp36
 70
     1
102
RTVSPropertyOp37
 70
     1
102
RTVSPropertyOp38
 70
     1
102
RTVSPropertyOp39
 70
     1
102
RTVSPropertyOp40
 70
     1
102
RTVSPropertyOp41
 70
     1
102
RTVSPropertyOp42
 70
     1
102
RTVSPropertyOp43
 70
     1
102
RTVSPropertyOp44
 70
     1
102
RTVSPropertyOp45
 70
     1
102
RTVSPropertyOp46
 70
     1
102
RTVSPropertyOp47
 70
     1
102
RTVSPropertyOp48
 70
     1
102
RTVSPropertyOp49
 70
     1
102
RTVSPropertyOp50
 70
     1
102
RTVSPropertyOp51
 70
     0
102
RTVSPropertyOp52
 70
     0
102
RTVSPropertyOp53
 70
     1
102
RTVSPropertyOp54
 70
     1
102
RTVSPropertyOp55
 70
     1
102
RTVSPropertyOp56
 70
     1
102
RTVSPropertyOp57
 70
     1
102
RTVSPost2010Prop28
280
     0
102
RTVSPost2010PropOp28
 70
     1
102
RTVSPost2010Prop29
280
     1
102
RTVSPost2010PropOp29
 70
     1
102
RTVSPost2010Prop30
280
     1
102
RTVSPost2010PropOp30
 70
     1
102
RTVSPost2010Prop31
280
     0
102
RTVSPost2010PropOp31
 70
     1
102
RTVSPost2010Prop32
280
     0
102
RTVSPost2010PropOp32
 70
     1
102
RTVSPost2010Prop33
280
     0
102
RTVSPost2010PropOp33
 70
     1
102
RTVSPost2010Prop34
280
     0
102
RTVSPost2010PropOp34
 70
     1
102
RTVSPost2010Prop35
280
     0
102
RTVSPost2010PropOp35
 70
     1
102
RTVSPost2010Prop36
280
     0
102
RTVSPost2010PropOp36
 70
     1
102
RTVSPost2010Prop37
 90
       50
102
RTVSPost2010PropOp37
 70
     1
102
RTVSPost2010Prop38
140
0.0
102
RTVSPost2010PropOp38
 70
     1
102
RTVSPost2010Prop39
140
1.0
102
RTVSPost2010PropOp39
 70
     1
102
RTVSPost2010Prop40
 90
        0
102
RTVSPost2010PropOp40
 70
     1
102
RTVSPost2010Prop41ColorIndex
 90
       18
102
RTVSPost2010Prop41ColorRGB
 90
        0
102
RTVSPost2010PropOp41
 70
     1
102
RTVSPost2010Prop42
 90
       50
102
RTVSPost2010PropOp42
 70
     1
102
RTVSPost2010Prop43
 90
        3
102
RTVSPost2010PropOp43
 70
     1
102
RTVSPost2010Prop44ColorIndex
 90
        5
102
RTVSPost2010Prop44ColorRGB
 90
      255
102
RTVSPost2010PropOp44
 70
     1
102
RTVSPost2010Prop45
280
     0
102
RTVSPost2010PropOp45
 70
     1
102
RTVSPost2010Prop46
 90
       50
102
RTVSPost2010PropOp46
 70
     1
102
RTVSPost2010Prop47
 90
       50
102
RTVSPost2010PropOp47
 70
     1
102
RTVSPost2010Prop48
 90
       50
102
RTVSPost2010PropOp48
 70
     1
102
RTVSPost2010Prop49
280
     0
102
RTVSPost2010PropOp49
 70
     1
102
RTVSPost2010Prop50
 90
       50
102
RTVSPost2010PropOp50
 70
     1
102
RTVSPost2010Prop51ColorIndex
 90
      256
102
RTVSPost2010Prop51ColorRGB
 90
-16777216
102
RTVSPost2010PropOp51
 70
     0
102
RTVSPost2010Prop52
140
1.0
102
RTVSPost2010PropOp52
 70
     0
102
RTVSPost2010Prop53
 90
        2
102
RTVSPost2010PropOp53
 70
     1
102
RTVSPost2010Prop54
  1
strokes_ogs.tif
102
RTVSPost2010PropOp54
 70
     1
102
RTVSPost2010Prop55
280
     0
102
RTVSPost2010PropOp55
 70
     1
102
RTVSPost2010Prop56
140
1.0
102
RTVSPost2010PropOp56
 70
     1
102
RTVSPost2010Prop57
140
1.0
102
RTVSPost2010PropOp57
 70
     1
  0
XRECORD
  5
29D
102
{ACAD_REACTORS
330
29C
102
}
330
29C
100
AcDbXrecord
280
     1
102
RTVSPropertyOp0
 70
     1
102
RTVSPropertyOp1
 70
     1
102
RTVSPropertyOp2
 70
     1
102
RTVSPropertyOp3
 70
     1
102
RTVSPropertyOp4
 70
     1
102
RTVSPropertyOp5
 70
     1
102
RTVSPropertyOp6
 70
     1
102
RTVSPropertyOp7
 70
     1
102
RTVSPropertyOp8
 70
     1
102
RTVSPropertyOp9
 70
     1
102
RTVSPropertyOp10
 70
     1
102
RTVSPropertyOp11
 70
     1
102
RTVSPropertyOp12
 70
     1
102
RTVSPropertyOp13
 70
     1
102
RTVSPropertyOp14
 70
     1
102
RTVSPropertyOp15
 70
     1
102
RTVSPropertyOp16
 70
     1
102
RTVSPropertyOp17
 70
     1
102
RTVSPropertyOp18
 70
     1
102
RTVSPropertyOp19
 70
     1
102
RTVSPropertyOp20
 70
     1
102
RTVSPropertyOp21
 70
     1
102
RTVSPropertyOp22
 70
     1
102
RTVSPropertyOp23
 70
     1
102
RTVSPropertyOp24
 70
     1
102
RTVSPropertyOp25
 70
     1
102
RTVSPropertyOp26
 70
     1
102
RTVSPropertyOp27
 70
     1
102
RTVSPropertyOp28
 70
     1
102
RTVSPropertyOp29
 70
     1
102
RTVSPropertyOp30
 70
     1
102
RTVSPropertyOp31
 70
     1
102
RTVSPropertyOp32
 70
     1
102
RTVSPropertyOp33
 70
     1
102
RTVSPropertyOp34
 70
     1
102
RTVSPropertyOp35
 70
     1
102
RTVSPropertyOp36
 70
     1
102
RTVSPropertyOp37
 70
     1
102
RTVSPropertyOp38
 70
     1
102
RTVSPropertyOp39
 70
     1
102
RTVSPropertyOp40
 70
     1
102
RTVSPropertyOp41
 70
     1
102
RTVSPropertyOp42
 70
     1
102
RTVSPropertyOp43
 70
     1
102
RTVSPropertyOp44
 70
     1
102
RTVSPropertyOp45
 70
     1
102
RTVSPropertyOp46
 70
     1
102
RTVSPropertyOp47
 70
     1
102
RTVSPropertyOp48
 70
     1
102
RTVSPropertyOp49
 70
     1
102
RTVSPropertyOp50
 70
     1
102
RTVSPropertyOp51
 70
     0
102
RTVSPropertyOp52
 70
     0
102
RTVSPropertyOp53
 70
     1
102
RTVSPropertyOp54
 70
     1
102
RTVSPropertyOp55
 70
     1
102
RTVSPropertyOp56
 70
     1
102
RTVSPropertyOp57
 70
     1
102
RTVSPost2010Prop28
280
     0
102
RTVSPost2010PropOp28
 70
     1
102
RTVSPost2010Prop29
280
     1
102
RTVSPost2010PropOp29
 70
     1
102
RTVSPost2010Prop30
280
     1
102
RTVSPost2010PropOp30
 70
     1
102
RTVSPost2010Prop31
280
     0
102
RTVSPost2010PropOp31
 70
     1
102
RTVSPost2010Prop32
280
     0
102
RTVSPost2010PropOp32
 70
     1
102
RTVSPost2010Prop33
280
     0
102
RTVSPost2010PropOp33
 70
     1
102
RTVSPost2010Prop34
280
     0
102
RTVSPost2010PropOp34
 70
     1
102
RTVSPost2010Prop35
280
     0
102
RTVSPost2010PropOp35
 70
     1
102
RTVSPost2010Prop36
280
     0
102
RTVSPost2010PropOp36
 70
     1
102
RTVSPost2010Prop37
 90
       50
102
RTVSPost2010PropOp37
 70
     1
102
RTVSPost2010Prop38
140
0.0
102
RTVSPost2010PropOp38
 70
     1
102
RTVSPost2010Prop39
140
1.0
102
RTVSPost2010PropOp39
 70
     1
102
RTVSPost2010Prop40
 90
        0
102
RTVSPost2010PropOp40
 70
     1
102
RTVSPost2010Prop41ColorIndex
 90
       18
102
RTVSPost2010Prop41ColorRGB
 90
        0
102
RTVSPost2010PropOp41
 70
     1
102
RTVSPost2010Prop42
 90
       50
102
RTVSPost2010PropOp42
 70
     1
102
RTVSPost2010Prop43
 90
        3
102
RTVSPost2010PropOp43
 70
     1
102
RTVSPost2010Prop44ColorIndex
 90
        5
102
RTVSPost2010Prop44ColorRGB
 90
      255
102
RTVSPost2010PropOp44
 70
     1
102
RTVSPost2010Prop45
280
     0
102
RTVSPost2010PropOp45
 70
     1
102
RTVSPost2010Prop46
 90
       50
102
RTVSPost2010PropOp46
 70
     1
102
RTVSPost2010Prop47
 90
       50
102
RTVSPost2010PropOp47
 70
     1
102
RTVSPost2010Prop48
 90
       50
102
RTVSPost2010PropOp48
 70
     1
102
RTVSPost2010Prop49
280
     0
102
RTVSPost2010PropOp49
 70
     1
102
RTVSPost2010Prop50
 90
       50
102
RTVSPost2010PropOp50
 70
     1
102
RTVSPost2010Prop51ColorIndex
 90
      256
102
RTVSPost2010Prop51ColorRGB
 90
-16777216
102
RTVSPost2010PropOp51
 70
     0
102
RTVSPost2010Prop52
140
1.0
102
RTVSPost2010PropOp52
 70
     0
102
RTVSPost2010Prop53
 90
        2
102
RTVSPost2010PropOp53
 70
     1
102
RTVSPost2010Prop54
  1
strokes_ogs.tif
102
RTVSPost2010PropOp54
 70
     1
102
RTVSPost2010Prop55
280
     0
102
RTVSPost2010PropOp55
 70
     1
102
RTVSPost2010Prop56
140
1.0
102
RTVSPost2010PropOp56
 70
     1
102
RTVSPost2010Prop57
140
1.0
102
RTVSPost2010PropOp57
 70
     1
  0
XRECORD
  5
2A5
102
{ACAD_REACTORS
330
2A4
102
}
330
2A4
100
AcDbXrecord
280
     1
102
RTVSPropertyOp0
 70
     1
102
RTVSPropertyOp1
 70
     1
102
RTVSPropertyOp2
 70
     1
102
RTVSPropertyOp3
 70
     1
102
RTVSPropertyOp4
 70
     1
102
RTVSPropertyOp5
 70
     1
102
RTVSPropertyOp6
 70
     1
102
RTVSPropertyOp7
 70
     1
102
RTVSPropertyOp8
 70
     1
102
RTVSPropertyOp9
 70
     1
102
RTVSPropertyOp10
 70
     1
102
RTVSPropertyOp11
 70
     1
102
RTVSPropertyOp12
 70
     1
102
RTVSPropertyOp13
 70
     1
102
RTVSPropertyOp14
 70
     1
102
RTVSPropertyOp15
 70
     1
102
RTVSPropertyOp16
 70
     1
102
RTVSPropertyOp17
 70
     1
102
RTVSPropertyOp18
 70
     1
102
RTVSPropertyOp19
 70
     1
102
RTVSPropertyOp20
 70
     1
102
RTVSPropertyOp21
 70
     1
102
RTVSPropertyOp22
 70
     1
102
RTVSPropertyOp23
 70
     1
102
RTVSPropertyOp24
 70
     1
102
RTVSPropertyOp25
 70
     1
102
RTVSPropertyOp26
 70
     1
102
RTVSPropertyOp27
 70
     1
102
RTVSPropertyOp28
 70
     1
102
RTVSPropertyOp29
 70
     1
102
RTVSPropertyOp30
 70
     1
102
RTVSPropertyOp31
 70
     1
102
RTVSPropertyOp32
 70
     1
102
RTVSPropertyOp33
 70
     1
102
RTVSPropertyOp34
 70
     1
102
RTVSPropertyOp35
 70
     1
102
RTVSPropertyOp36
 70
     1
102
RTVSPropertyOp37
 70
     1
102
RTVSPropertyOp38
 70
     1
102
RTVSPropertyOp39
 70
     1
102
RTVSPropertyOp40
 70
     1
102
RTVSPropertyOp41
 70
     1
102
RTVSPropertyOp42
 70
     1
102
RTVSPropertyOp43
 70
     1
102
RTVSPropertyOp44
 70
     1
102
RTVSPropertyOp45
 70
     1
102
RTVSPropertyOp46
 70
     1
102
RTVSPropertyOp47
 70
     1
102
RTVSPropertyOp48
 70
     1
102
RTVSPropertyOp49
 70
     1
102
RTVSPropertyOp50
 70
     1
102
RTVSPropertyOp51
 70
     0
102
RTVSPropertyOp52
 70
     0
102
RTVSPropertyOp53
 70
     1
102
RTVSPropertyOp54
 70
     1
102
RTVSPropertyOp55
 70
     1
102
RTVSPropertyOp56
 70
     1
102
RTVSPropertyOp57
 70
     1
102
RTVSPost2010Prop28
280
     0
102
RTVSPost2010PropOp28
 70
     1
102
RTVSPost2010Prop29
280
     1
102
RTVSPost2010PropOp29
 70
     1
102
RTVSPost2010Prop30
280
     1
102
RTVSPost2010PropOp30
 70
     1
102
RTVSPost2010Prop31
280
     0
102
RTVSPost2010PropOp31
 70
     1
102
RTVSPost2010Prop32
280
     0
102
RTVSPost2010PropOp32
 70
     1
102
RTVSPost2010Prop33
280
     0
102
RTVSPost2010PropOp33
 70
     1
102
RTVSPost2010Prop34
280
     0
102
RTVSPost2010PropOp34
 70
     1
102
RTVSPost2010Prop35
280
     0
102
RTVSPost2010PropOp35
 70
     1
102
RTVSPost2010Prop36
280
     0
102
RTVSPost2010PropOp36
 70
     1
102
RTVSPost2010Prop37
 90
       50
102
RTVSPost2010PropOp37
 70
     1
102
RTVSPost2010Prop38
140
0.0
102
RTVSPost2010PropOp38
 70
     1
102
RTVSPost2010Prop39
140
1.0
102
RTVSPost2010PropOp39
 70
     1
102
RTVSPost2010Prop40
 90
        0
102
RTVSPost2010PropOp40
 70
     1
102
RTVSPost2010Prop41ColorIndex
 90
       18
102
RTVSPost2010Prop41ColorRGB
 90
        0
102
RTVSPost2010PropOp41
 70
     1
102
RTVSPost2010Prop42
 90
       50
102
RTVSPost2010PropOp42
 70
     1
102
RTVSPost2010Prop43
 90
        3
102
RTVSPost2010PropOp43
 70
     1
102
RTVSPost2010Prop44ColorIndex
 90
        5
102
RTVSPost2010Prop44ColorRGB
 90
      255
102
RTVSPost2010PropOp44
 70
     1
102
RTVSPost2010Prop45
280
     0
102
RTVSPost2010PropOp45
 70
     1
102
RTVSPost2010Prop46
 90
       50
102
RTVSPost2010PropOp46
 70
     1
102
RTVSPost2010Prop47
 90
       50
102
RTVSPost2010PropOp47
 70
     1
102
RTVSPost2010Prop48
 90
       50
102
RTVSPost2010PropOp48
 70
     1
102
RTVSPost2010Prop49
280
     0
102
RTVSPost2010PropOp49
 70
     1
102
RTVSPost2010Prop50
 90
       50
102
RTVSPost2010PropOp50
 70
     1
102
RTVSPost2010Prop51ColorIndex
 90
      256
102
RTVSPost2010Prop51ColorRGB
 90
-16777216
102
RTVSPost2010PropOp51
 70
     0
102
RTVSPost2010Prop52
140
1.0
102
RTVSPost2010PropOp52
 70
     0
102
RTVSPost2010Prop53
 90
        2
102
RTVSPost2010PropOp53
 70
     1
102
RTVSPost2010Prop54
  1
strokes_ogs.tif
102
RTVSPost2010PropOp54
 70
     1
102
RTVSPost2010Prop55
280
     0
102
RTVSPost2010PropOp55
 70
     1
102
RTVSPost2010Prop56
140
1.0
102
RTVSPost2010PropOp56
 70
     1
102
RTVSPost2010Prop57
140
1.0
102
RTVSPost2010PropOp57
 70
     1
  0
ENDSEC
  0
EOF
