  0
SECTION
  2
HEADER
  9
$ACADVER
  1
AC1018
  9
$ACADMAINTVER
 70
     0
  9
$DWGCODEPAGE
  3
ANSI_936
  9
$INSBASE
 10
0.0
 20
0.0
 30
0.0
  9
$EXTMIN
 10
1.000000000000000E+20
 20
1.000000000000000E+20
 30
1.000000000000000E+20
  9
$EXTMAX
 10
-1.000000000000000E+20
 20
-1.000000000000000E+20
 30
-1.000000000000000E+20
  9
$LIMMIN
 10
0.0
 20
0.0
  9
$LIMMAX
 10
12.0
 20
9.0
  9
$ORTHOMODE
 70
     0
  9
$REGENMODE
 70
     1
  9
$FILLMODE
 70
     1
  9
$QTEXTMODE
 70
     0
  9
$MIRRTEXT
 70
     1
  9
$LTSCALE
 40
1.0
  9
$ATTMODE
 70
     1
  9
$TEXTSIZE
 40
0.2
  9
$TRACEWID
 40
0.05
  9
$TEXTSTYLE
  7
Standard
  9
$CLAYER
  8
0
  9
$CELTYPE
  6
ByLayer
  9
$CECOLOR
 62
   256
  9
$CELTSCALE
 40
1.0
  9
$DISPSILH
 70
     0
  9
$DIMSCALE
 40
1.0
  9
$DIMASZ
 40
0.18
  9
$DIMEXO
 40
0.0625
  9
$DIMDLI
 40
0.38
  9
$DIMRND
 40
0.0
  9
$DIMDLE
 40
0.0
  9
$DIMEXE
 40
0.18
  9
$DIMTP
 40
0.0
  9
$DIMTM
 40
0.0
  9
$DIMTXT
 40
0.18
  9
$DIMCEN
 40
0.09
  9
$DIMTSZ
 40
0.0
  9
$DIMTOL
 70
     0
  9
$DIMLIM
 70
     0
  9
$DIMTIH
 70
     1
  9
$DIMTOH
 70
     1
  9
$DIMSE1
 70
     0
  9
$DIMSE2
 70
     0
  9
$DIMTAD
 70
     0
  9
$DIMZIN
 70
     0
  9
$DIMBLK
  1

  9
$DIMASO
 70
     1
  9
$DIMSHO
 70
     1
  9
$DIMPOST
  1

  9
$DIMAPOST
  1

  9
$DIMALT
 70
     0
  9
$DIMALTD
 70
     2
  9
$DIMALTF
 40
25.4
  9
$DIMLFAC
 40
1.0
  9
$DIMTOFL
 70
     0
  9
$DIMTVP
 40
0.0
  9
$DIMTIX
 70
     0
  9
$DIMSOXD
 70
     0
  9
$DIMSAH
 70
     0
  9
$DIMBLK1
  1

  9
$DIMBLK2
  1

  9
$DIMSTYLE
  2
STANDARD_ACAD
  9
$DIMCLRD
 70
     0
  9
$DIMCLRE
 70
     0
  9
$DIMCLRT
 70
     0
  9
$DIMTFAC
 40
1.0
  9
$DIMGAP
 40
0.09
  9
$DIMJUST
 70
     0
  9
$DIMSD1
 70
     0
  9
$DIMSD2
 70
     0
  9
$DIMTOLJ
 70
     1
  9
$DIMTZIN
 70
     0
  9
$DIMALTZ
 70
     0
  9
$DIMALTTZ
 70
     0
  9
$DIMUPT
 70
     0
  9
$DIMDEC
 70
     4
  9
$DIMTDEC
 70
     4
  9
$DIMALTU
 70
     2
  9
$DIMALTTD
 70
     2
  9
$DIMTXSTY
  7
Standard
  9
$DIMAUNIT
 70
     0
  9
$DIMADEC
 70
     0
  9
$DIMALTRND
 40
0.0
  9
$DIMAZIN
 70
     0
  9
$DIMDSEP
 70
    46
  9
$DIMATFIT
 70
     3
  9
$DIMFRAC
 70
     0
  9
$DIMLDRBLK
  1

  9
$DIMLUNIT
 70
     2
  9
$DIMLWD
 70
    -2
  9
$DIMLWE
 70
    -2
  9
$DIMTMOVE
 70
     2
  9
$LUNITS
 70
     2
  9
$LUPREC
 70
     3
  9
$SKETCHINC
 40
0.1
  9
$FILLETRAD
 40
0.5
  9
$AUNITS
 70
     0
  9
$AUPREC
 70
     0
  9
$MENU
  1
.
  9
$ELEVATION
 40
0.0
  9
$PELEVATION
 40
0.0
  9
$THICKNESS
 40
0.0
  9
$LIMCHECK
 70
     0
  9
$CHAMFERA
 40
0.0
  9
$CHAMFERB
 40
0.0
  9
$CHAMFERC
 40
0.0
  9
$CHAMFERD
 40
0.0
  9
$SKPOLY
 70
     0
  9
$TDCREATE
 40
2458603.314724387
  9
$TDUCREATE
 40
2458602.981391053
  9
$TDUPDATE
 40
2458603.314724387
  9
$TDUUPDATE
 40
2458602.981391053
  9
$TDINDWG
 40
0.0000000116
  9
$TDUSRTIMER
 40
0.0000000116
  9
$USRTIMER
 70
     1
  9
$ANGBASE
 50
0.0
  9
$ANGDIR
 70
     0
  9
$PDMODE
 70
     0
  9
$PDSIZE
 40
0.0
  9
$PLINEWID
 40
0.0
  9
$SPLFRAME
 70
     0
  9
$SPLINETYPE
 70
     6
  9
$SPLINESEGS
 70
     8
  9
$HANDSEED
  5
187
  9
$SURFTAB1
 70
     6
  9
$SURFTAB2
 70
     6
  9
$SURFTYPE
 70
     6
  9
$SURFU
 70
     6
  9
$SURFV
 70
     6
  9
$UCSBASE
  2

  9
$UCSNAME
  2

  9
$UCSORG
 10
0.0
 20
0.0
 30
0.0
  9
$UCSXDIR
 10
1.0
 20
0.0
 30
0.0
  9
$UCSYDIR
 10
0.0
 20
1.0
 30
0.0
  9
$UCSORTHOREF
  2

  9
$UCSORTHOVIEW
 70
     0
  9
$UCSORGTOP
 10
0.0
 20
0.0
 30
0.0
  9
$UCSORGBOTTOM
 10
0.0
 20
0.0
 30
0.0
  9
$UCSORGLEFT
 10
0.0
 20
0.0
 30
0.0
  9
$UCSORGRIGHT
 10
0.0
 20
0.0
 30
0.0
  9
$UCSORGFRONT
 10
0.0
 20
0.0
 30
0.0
  9
$UCSORGBACK
 10
0.0
 20
0.0
 30
0.0
  9
$PUCSBASE
  2

  9
$PUCSNAME
  2

  9
$PUCSORG
 10
0.0
 20
0.0
 30
0.0
  9
$PUCSXDIR
 10
1.0
 20
0.0
 30
0.0
  9
$PUCSYDIR
 10
0.0
 20
1.0
 30
0.0
  9
$PUCSORTHOREF
  2

  9
$PUCSORTHOVIEW
 70
     0
  9
$PUCSORGTOP
 10
0.0
 20
0.0
 30
0.0
  9
$PUCSORGBOTTOM
 10
0.0
 20
0.0
 30
0.0
  9
$PUCSORGLEFT
 10
0.0
 20
0.0
 30
0.0
  9
$PUCSORGRIGHT
 10
0.0
 20
0.0
 30
0.0
  9
$PUCSORGFRONT
 10
0.0
 20
0.0
 30
0.0
  9
$PUCSORGBACK
 10
0.0
 20
0.0
 30
0.0
  9
$USERI1
 70
     0
  9
$USERI2
 70
     0
  9
$USERI3
 70
     0
  9
$USERI4
 70
     0
  9
$USERI5
 70
     0
  9
$USERR1
 40
0.0
  9
$USERR2
 40
0.0
  9
$USERR3
 40
0.0
  9
$USERR4
 40
0.0
  9
$USERR5
 40
0.0
  9
$WORLDVIEW
 70
     1
  9
$SHADEDGE
 70
     3
  9
$SHADEDIF
 70
    70
  9
$TILEMODE
 70
     1
  9
$MAXACTVP
 70
    64
  9
$PINSBASE
 10
0.0
 20
0.0
 30
0.0
  9
$PLIMCHECK
 70
     0
  9
$PEXTMIN
 10
1.000000000000000E+20
 20
1.000000000000000E+20
 30
1.000000000000000E+20
  9
$PEXTMAX
 10
-1.000000000000000E+20
 20
-1.000000000000000E+20
 30
-1.000000000000000E+20
  9
$PLIMMIN
 10
0.0
 20
0.0
  9
$PLIMMAX
 10
12.0
 20
9.0
  9
$UNITMODE
 70
     0
  9
$VISRETAIN
 70
     1
  9
$PLINEGEN
 70
     0
  9
$PSLTSCALE
 70
     1
  9
$TREEDEPTH
 70
  3020
  9
$CMLSTYLE
  2
Standard
  9
$CMLJUST
 70
     0
  9
$CMLSCALE
 40
1.0
  9
$PROXYGRAPHICS
 70
     1
  9
$MEASUREMENT
 70
     0
  9
$CELWEIGHT
370
    -1
  9
$ENDCAPS
280
     0
  9
$JOINSTYLE
280
     0
  9
$LWDISPLAY
290
     0
  9
$INSUNITS
 70
     4
  9
$HYPERLINKBASE
  1

  9
$STYLESHEET
  1

  9
$XEDIT
290
     1
  9
$CEPSNTYPE
380
     0
  9
$PSTYLEMODE
290
     1
  9
$FINGERPRINTGUID
  2
{4ccf61b6-04fe-4135-9f7a-4aeff2adde81}
  9
$VERSIONGUID
  2
{FAEB1C32-E019-11D5-929B-00C0DF256EC4}
  9
$EXTNAMES
290
     1
  9
$PSVPSCALE
 40
0.0
  9
$OLESTARTUP
290
     0
  9
$SORTENTS
280
   127
  9
$INDEXCTL
280
     0
  9
$HIDETEXT
280
     1
  9
$XCLIPFRAME
290
     0
  9
$HALOGAP
280
     0
  9
$OBSCOLOR
 70
   257
  9
$OBSLTYPE
280
     0
  9
$INTERSECTIONDISPLAY
280
     0
  9
$INTERSECTIONCOLOR
 70
   257
  9
$DIMASSOC
280
     2
  9
$PROJECTNAME
  1

  0
ENDSEC
  0
SECTION
  2
CLASSES
  0
CLASS
  1
ACDBDICTIONARYWDFLT
  2
AcDbDictionaryWithDefault
  3
ObjectDBX Classes
 90
        0
 91
        3
280
     0
281
     0
  0
CLASS
  1
VISUALSTYLE
  2
AcDbVisualStyle
  3
ObjectDBX Classes
 90
     4095
 91
        3
280
     0
281
     0
  0
CLASS
  1
MATERIAL
  2
AcDbMaterial
  3
ObjectDBX Classes
 90
     1153
 91
        3
280
     0
281
     0
  0
CLASS
  1
SCALE
  2
AcDbScale
  3
ObjectDBX Classes
 90
     1153
 91
        3
280
     0
281
     0
  0
CLASS
  1
TABLESTYLE
  2
AcDbTableStyle
  3
ObjectDBX Classes
 90
     4095
 91
        3
280
     0
281
     0
  0
CLASS
  1
MLEADERSTYLE
  2
AcDbMLeaderStyle
  3
ACDB_MLEADERSTYLE_CLASS
 90
     4095
 91
        3
280
     0
281
     0
  0
CLASS
  1
SUN
  2
AcDbSun
  3
SCENEOE
 90
     1153
 91
        3
280
     0
281
     0
  0
CLASS
  1
DICTIONARYVAR
  2
AcDbDictionaryVar
  3
ObjectDBX Classes
 90
        0
 91
        3
280
     0
281
     0
  0
CLASS
  1
CELLSTYLEMAP
  2
AcDbCellStyleMap
  3
ObjectDBX Classes
 90
     1152
 91
        3
280
     0
281
     0
  0
ENDSEC
  0
SECTION
  2
TABLES
  0
TABLE
  2
VPORT
  5
8
102
{ACAD_XDICTIONARY
360
140
102
}
330
0
100
AcDbSymbolTable
 70
     1
  0
VPORT
  5
29
330
8
100
AcDbSymbolTableRecord
100
AcDbViewportTableRecord
  2
*Active
 70
     0
 10
0.0
 20
0.0
 11
1.0
 21
1.0
 12
10.42990654205607
 22
4.5
 13
0.0
 23
0.0
 14
0.5
 24
0.5
 15
0.5
 25
0.5
 16
0.0
 26
0.0
 36
1.0
 17
0.0
 27
0.0
 37
0.0
 40
9.0
 41
1.972972972850329
 42
50.0
 43
0.0
 44
0.0
 50
0.0
 51
0.0
 71
     0
 72
   100
 73
     1
 74
     3
 75
     0
 76
     0
 77
     0
 78
     0
281
     0
 65
     1
110
0.0
120
0.0
130
0.0
111
1.0
121
0.0
131
0.0
112
0.0
122
1.0
132
0.0
 79
     0
146
0.0
  0
ENDTAB
  0
TABLE
  2
LTYPE
  5
5
330
0
100
AcDbSymbolTable
 70
     1
  0
LTYPE
  5
14
330
5
100
AcDbSymbolTableRecord
100
AcDbLinetypeTableRecord
  2
ByBlock
 70
     0
  3

 72
    65
 73
     0
 40
0.0
  0
LTYPE
  5
15
330
5
100
AcDbSymbolTableRecord
100
AcDbLinetypeTableRecord
  2
ByLayer
 70
     0
  3

 72
    65
 73
     0
 40
0.0
  0
LTYPE
  5
16
330
5
100
AcDbSymbolTableRecord
100
AcDbLinetypeTableRecord
  2
Continuous
 70
     0
  3
Solid line
 72
    65
 73
     0
 40
0.0
  0
ENDTAB
  0
TABLE
  2
LAYER
  5
2
330
0
100
AcDbSymbolTable
 70
     2
  0
LAYER
  5
10
330
2
100
AcDbSymbolTableRecord
100
AcDbLayerTableRecord
  2
0
 70
     0
 62
     7
  6
Continuous
370
    -3
390
F
  0
LAYER
  5
6E
330
2
100
AcDbSymbolTableRecord
100
AcDbLayerTableRecord
  2
Make2D$Visible$Curves
 70
     0
 62
    18
420
        0
  6
Continuous
370
    -3
390
F
  0
ENDTAB
  0
TABLE
  2
STYLE
  5
3
330
0
100
AcDbSymbolTable
 70
     1
  0
STYLE
  5
11
330
3
100
AcDbSymbolTableRecord
100
AcDbTextStyleTableRecord
  2
Standard
 70
     0
 40
0.0
 41
1.0
 50
0.0
 71
     0
 42
0.2
  3
txt
  4

  0
ENDTAB
  0
TABLE
  2
VIEW
  5
6
330
0
100
AcDbSymbolTable
 70
     0
  0
ENDTAB
  0
TABLE
  2
UCS
  5
7
330
0
100
AcDbSymbolTable
 70
     0
  0
ENDTAB
  0
TABLE
  2
APPID
  5
9
330
0
100
AcDbSymbolTable
 70
     2
  0
APPID
  5
12
330
9
100
AcDbSymbolTableRecord
100
AcDbRegAppTableRecord
  2
ACAD
 70
     0
  0
APPID
  5
17F
330
9
100
AcDbSymbolTableRecord
100
AcDbRegAppTableRecord
  2
ACAD_MLEADERVER
 70
     0
  0
ENDTAB
  0
TABLE
  2
DIMSTYLE
  5
A
330
0
100
AcDbSymbolTable
 70
     1
100
AcDbDimStyleTable
  0
DIMSTYLE
105
27
330
A
100
AcDbSymbolTableRecord
100
AcDbDimStyleTableRecord
  2
STANDARD_ACAD
 70
     0
178
     0
340
11
  0
ENDTAB
  0
TABLE
  2
BLOCK_RECORD
  5
1
330
0
100
AcDbSymbolTable
 70
     1
  0
BLOCK_RECORD
  5
1F
330
1
100
AcDbSymbolTableRecord
100
AcDbBlockTableRecord
  2
*Model_Space
340
22
  0
BLOCK_RECORD
  5
1B
330
1
100
AcDbSymbolTableRecord
100
AcDbBlockTableRecord
  2
*Paper_Space
340
1E
  0
BLOCK_RECORD
  5
23
330
1
100
AcDbSymbolTableRecord
100
AcDbBlockTableRecord
  2
*Paper_Space0
340
26
  0
ENDTAB
  0
ENDSEC
  0
SECTION
  2
BLOCKS
  0
BLOCK
  5
20
330
1F
100
AcDbEntity
  8
0
100
AcDbBlockBegin
  2
*Model_Space
 70
     0
 10
0.0
 20
0.0
 30
0.0
  3
*Model_Space
  1

  0
ENDBLK
  5
21
330
1F
100
AcDbEntity
  8
0
100
AcDbBlockEnd
  0
BLOCK
  5
1C
330
1B
100
AcDbEntity
 67
     1
  8
0
100
AcDbBlockBegin
  2
*Paper_Space
 70
     0
 10
0.0
 20
0.0
 30
0.0
  3
*Paper_Space
  1

  0
ENDBLK
  5
1D
330
1B
100
AcDbEntity
 67
     1
  8
0
100
AcDbBlockEnd
  0
BLOCK
  5
24
330
23
100
AcDbEntity
  8
0
100
AcDbBlockBegin
  2
*Paper_Space0
 70
     0
 10
0.0
 20
0.0
 30
0.0
  3
*Paper_Space0
  1

  0
ENDBLK
  5
25
330
23
100
AcDbEntity
  8
0
100
AcDbBlockEnd
  0
ENDSEC
  0
SECTION
  2
ENTITIES
  0
SPLINE
  5
6F
330
1F
100
AcDbEntity
  8
Make2D$Visible$Curves
370
    -3
100
AcDbSpline
210
0.0
220
0.0
230
1.0
 70
     8
 71
     3
 72
    14
 73
    10
 74
     0
 42
0.000000001
 43
0.0000000001
 40
0.0597747924756066
 40
0.0597747924756066
 40
0.0597747924756066
 40
0.0597747924756066
 40
0.1
 40
0.2
 40
0.3
 40
0.4
 40
0.5
 40
0.6
 40
0.6610765942154081
 40
0.6610765942154081
 40
0.6610765942154081
 40
0.6610765942154081
 10
169.684126664934
 20
812.2346040589775
 30
0.0
 10
170.2033660047802
 20
811.8518130532597
 30
0.0
 10
171.9665649236553
 20
810.4917207824301
 30
0.0
 10
174.7255557941391
 20
808.0114791724869
 30
0.0
 10
177.7861223634645
 20
804.6604957491516
 30
0.0
 10
180.4975024332272
 20
801.0654921007638
 30
0.0
 10
182.9155993414878
 20
797.182684709707
 30
0.0
 10
184.7300555608104
 20
793.5834372363116
 30
0.0
 10
185.6457400597198
 20
791.4712093048868
 30
0.0
 10
185.9744278304212
 20
790.6687327629916
 30
0.0
  0
ARC
  5
70
330
1F
100
AcDbEntity
  8
Make2D$Visible$Curves
370
    -3
100
AcDbCircle
 10
279.543770852321
 20
964.4850980976629
 30
0.0
 40
187.7481141210293
100
AcDbArc
 50
232.3592876740692
 51
234.186850811748
  0
SPLINE
  5
71
330
1F
100
AcDbEntity
  8
Make2D$Visible$Curves
370
    -3
100
AcDbSpline
210
0.0
220
0.0
230
1.0
 70
     8
 71
     3
 72
    10
 73
     6
 74
     0
 42
0.000000001
 43
0.0000000001
 40
0.0802184563514562
 40
0.0802184563514562
 40
0.0802184563514562
 40
0.0802184563514562
 40
0.3333333333333
 40
0.6666666666667
 40
0.9778484483962311
 40
0.9778484483962311
 40
0.9778484483962311
 40
0.9778484483962311
 10
192.5956759325924
 20
763.9054315324939
 30
0.0
 10
192.9233736557964
 20
761.559302042849
 30
0.0
 10
193.5793610668697
 20
756.0039295406749
 30
0.0
 10
194.261751873842
 20
747.1018145483691
 30
0.0
 10
194.5441572972101
 20
740.4211771984061
 30
0.0
 10
194.6421921231684
 20
737.1340229672116
 30
0.0
  0
SPLINE
  5
72
330
1F
100
AcDbEntity
  8
Make2D$Visible$Curves
370
    -3
100
AcDbSpline
210
0.0
220
0.0
230
1.0
 70
     8
 71
     3
 72
    10
 73
     6
 74
     0
 42
0.000000001
 43
0.0000000001
 40
0.1302920414648396
 40
0.1302920414648396
 40
0.1302920414648396
 40
0.1302920414648396
 40
0.3333333333333
 40
0.6666666666667
 40
0.9648971784728886
 40
0.9648971784728886
 40
0.9648971784728886
 40
0.9648971784728886
 10
187.2534443418874
 20
787.2920985217356
 30
0.0
 10
187.8447159434676
 20
785.6103827539896
 30
0.0
 10
189.2921070788867
 20
781.0200984221601
 30
0.0
 10
191.1122980374217
 20
773.2994631869931
 30
0.0
 10
192.1618144796093
 20
766.9844035329894
 30
0.0
 10
192.5956759325924
 20
763.9054315324939
 30
0.0
  0
ARC
  5
73
330
1F
100
AcDbEntity
  8
Make2D$Visible$Curves
370
    -3
100
AcDbCircle
 10
-120.3096237757673
 20
763.8653738086207
 30
0.0
 40
70.92451298932511
210
0.0
220
0.0
230
-1.0
100
AcDbArc
 50
157.7954757635804
 51
160.7127082578161
  0
SPLINE
  5
74
330
1F
100
AcDbEntity
  8
Make2D$Visible$Curves
370
    -3
100
AcDbSpline
210
0.0
220
0.0
230
1.0
 70
     8
 71
     3
 72
    19
 73
    15
 74
     0
 42
0.000000001
 43
0.0000000001
 40
1.57755767504498
 40
1.57755767504498
 40
1.57755767504498
 40
1.57755767504498
 40
12.67493576965438
 40
24.67140662340295
 40
36.66787747714145
 40
48.66434833087994
 40
60.66081918463283
 40
72.6572900383713
 40
84.65376089210979
 40
96.6502317458627
 40
108.6467025996012
 40
120.6431734533397
 40
132.6396443070926
 40
142.304012411919
 40
142.304012411919
 40
142.304012411919
 40
142.304012411919
 10
194.6421921231684
 20
737.1340229672116
 30
0.0
 10
194.7437230942525
 20
733.8440874633711
 30
0.0
 10
194.9118017702316
 20
726.9943748031656
 30
0.0
 10
194.9987979152252
 20
716.6024589339745
 30
0.0
 10
194.8720016313397
 20
705.9917410029664
 30
0.0
 10
194.5300711220363
 20
695.2284090324358
 30
0.0
 10
193.9697112947342
 20
684.3568935817626
 30
0.0
 10
193.2422620995682
 20
673.8664379408985
 30
0.0
 10
192.3691990619275
 20
663.6890936549543
 30
0.0
 10
191.1882097790808
 20
652.295627724016
 30
0.0
 10
189.6415267031818
 20
639.8502580119066
 30
0.0
 10
187.6760569983965
 20
626.441694228774
 30
0.0
 10
185.3439116197384
 20
612.8266777091378
 30
0.0
 10
183.4704489307198
 20
603.3233471962942
 30
0.0
 10
182.5466909836607
 20
598.9170813094528
 30
0.0
  0
SPLINE
  5
75
330
1F
100
AcDbEntity
  8
Make2D$Visible$Curves
370
    -3
100
AcDbSpline
210
0.0
220
0.0
230
1.0
 70
     8
 71
     3
 72
    19
 73
    15
 74
     0
 42
0.000000001
 43
0.0000000001
 40
1.465211652434774
 40
1.465211652434774
 40
1.465211652434774
 40
1.465211652434774
 40
13.12096406206697
 40
25.48705952373132
 40
37.85315498540829
 40
50.21925044708526
 40
62.58534590874119
 40
74.95144137041817
 40
87.31753683209513
 40
99.68363229375106
 40
112.049727755428
 40
124.415823217084
 40
136.7819186787609
 40
138.4863502945516
 40
138.4863502945516
 40
138.4863502945516
 40
138.4863502945516
 10
182.0265673604782
 20
596.4622310969579
 30
0.0
 10
181.1128911798365
 20
592.2033299183814
 30
0.0
 10
179.1762305211534
 20
583.6908543430981
 30
0.0
 10
176.0700159814036
 20
571.4601878136795
 30
0.0
 10
172.7162376557298
 20
559.5061024047632
 30
0.0
 10
169.1678998305378
 20
547.9751339787663
 30
0.0
 10
165.4073162133211
 20
536.7604633968128
 30
0.0
 10
161.3960617759745
 20
525.732799317144
 30
0.0
 10
157.054948428492
 20
514.6998968374131
 30
0.0
 10
152.4242550695266
 20
503.8472667156368
 30
0.0
 10
147.5301955468073
 20
493.2779072104015
 30
0.0
 10
142.0631442356518
 20
482.4244904478419
 30
0.0
 10
137.4982513781273
 20
474.1620560249602
 30
0.0
 10
134.7586351249676
 20
469.5138454306351
 30
0.0
 10
134.4220876980036
 20
468.9471860807109
 30
0.0
  0
SPLINE
  5
76
330
1F
100
AcDbEntity
  8
Make2D$Visible$Curves
370
    -3
100
AcDbSpline
210
0.0
220
0.0
230
1.0
 70
     8
 71
     3
 72
    17
 73
    13
 74
     0
 42
0.000000001
 43
0.0000000001
 40
1.465211652434774
 40
1.465211652434774
 40
1.465211652434774
 40
1.465211652434774
 40
13.12096406206697
 40
25.48705952373132
 40
37.85315498540829
 40
50.21925044708526
 40
62.58534590874119
 40
74.95144137041817
 40
87.31753683209513
 40
99.68363229375106
 40
112.049727755428
 40
119.2617977827598
 40
119.2617977827598
 40
119.2617977827598
 40
119.2617977827598
 10
-182.0265673604784
 20
596.4622310969579
 30
0.0
 10
-181.1128911798367
 20
592.2033299183814
 30
0.0
 10
-179.1762305211537
 20
583.6908543430981
 30
0.0
 10
-176.070015981404
 20
571.4601878136795
 30
0.0
 10
-172.7162376557301
 20
559.5061024047632
 30
0.0
 10
-169.167899830538
 20
547.9751339787663
 30
0.0
 10
-165.4073162133213
 20
536.7604633968128
 30
0.0
 10
-161.3960617759747
 20
525.732799317144
 30
0.0
 10
-157.0549484284923
 20
514.6998968374131
 30
0.0
 10
-152.424255069527
 20
503.8472667156368
 30
0.0
 10
-148.2101220263067
 20
494.7462970748062
 30
0.0
 10
-145.3879687242106
 20
489.0497793190778
 30
0.0
 10
-144.3037854273602
 20
486.9201184959662
 30
0.0
  0
SPLINE
  5
77
330
1F
100
AcDbEntity
  8
Make2D$Visible$Curves
370
    -3
100
AcDbSpline
210
0.0
220
0.0
230
1.0
 70
     8
 71
     3
 72
    19
 73
    15
 74
     0
 42
0.000000001
 43
0.0000000001
 40
1.57755767504498
 40
1.57755767504498
 40
1.57755767504498
 40
1.57755767504498
 40
12.67493576965438
 40
24.67140662340295
 40
36.66787747714145
 40
48.66434833087994
 40
60.66081918463283
 40
72.6572900383713
 40
84.65376089210979
 40
96.6502317458627
 40
108.6467025996012
 40
120.6431734533397
 40
132.6396443070926
 40
142.3040124118531
 40
142.3040124118531
 40
142.3040124118531
 40
142.3040124118531
 10
-194.6421921231687
 20
737.1340229672116
 30
0.0
 10
-194.7437230942529
 20
733.8440874633711
 30
0.0
 10
-194.911801770232
 20
726.9943748031656
 30
0.0
 10
-194.9987979152255
 20
716.6024589339745
 30
0.0
 10
-194.8720016313401
 20
705.9917410029664
 30
0.0
 10
-194.5300711220366
 20
695.2284090324358
 30
0.0
 10
-193.9697112947344
 20
684.3568935817626
 30
0.0
 10
-193.2422620995686
 20
673.8664379408985
 30
0.0
 10
-192.3691990619278
 20
663.6890936549543
 30
0.0
 10
-191.1882097790811
 20
652.295627724016
 30
0.0
 10
-189.6415267031821
 20
639.8502580119066
 30
0.0
 10
-187.6760569983967
 20
626.441694228774
 30
0.0
 10
-185.3439116197433
 20
612.8266777091645
 30
0.0
 10
-183.4704489307315
 20
603.323347196352
 30
0.0
 10
-182.5466909836799
 20
598.9170813095429
 30
0.0
  0
ARC
  5
78
330
1F
100
AcDbEntity
  8
Make2D$Visible$Curves
370
    -3
100
AcDbCircle
 10
279.543770852317
 20
964.4850980976571
 30
0.0
 40
187.7481141210221
210
0.0
220
0.0
230
-1.0
100
AcDbArc
 50
232.3592876740691
 51
234.186850811748
  0
SPLINE
  5
79
330
1F
100
AcDbEntity
  8
Make2D$Visible$Curves
370
    -3
100
AcDbSpline
210
0.0
220
0.0
230
1.0
 70
     8
 71
     3
 72
    10
 73
     6
 74
     0
 42
0.000000001
 43
0.0000000001
 40
0.1302920414648396
 40
0.1302920414648396
 40
0.1302920414648396
 40
0.1302920414648396
 40
0.3333333333333
 40
0.6666666666667
 40
0.9648971784728886
 40
0.9648971784728886
 40
0.9648971784728886
 40
0.9648971784728886
 10
-187.2534443418877
 20
787.2920985217356
 30
0.0
 10
-187.844715943468
 20
785.6103827539896
 30
0.0
 10
-189.2921070788869
 20
781.0200984221601
 30
0.0
 10
-191.1122980374219
 20
773.2994631869931
 30
0.0
 10
-192.1618144796095
 20
766.9844035329894
 30
0.0
 10
-192.5956759325928
 20
763.9054315324939
 30
0.0
  0
ARC
  5
7A
330
1F
100
AcDbEntity
  8
Make2D$Visible$Curves
370
    -3
100
AcDbCircle
 10
-120.3096237757673
 20
763.8653738086206
 30
0.0
 40
70.92451298932546
100
AcDbArc
 50
157.7954757635805
 51
160.7127082578161
  0
SPLINE
  5
7B
330
1F
100
AcDbEntity
  8
Make2D$Visible$Curves
370
    -3
100
AcDbSpline
210
0.0
220
0.0
230
1.0
 70
     8
 71
     3
 72
    14
 73
    10
 74
     0
 42
0.000000001
 43
0.0000000001
 40
0.0597747924756066
 40
0.0597747924756066
 40
0.0597747924756066
 40
0.0597747924756066
 40
0.1
 40
0.2
 40
0.3
 40
0.4
 40
0.5
 40
0.6
 40
0.6610765942154081
 40
0.6610765942154081
 40
0.6610765942154081
 40
0.6610765942154081
 10
-169.6841266649344
 20
812.2346040589775
 30
0.0
 10
-170.2033660047805
 20
811.8518130532597
 30
0.0
 10
-171.9665649236557
 20
810.4917207824301
 30
0.0
 10
-174.7255557941394
 20
808.0114791724869
 30
0.0
 10
-177.7861223634647
 20
804.6604957491516
 30
0.0
 10
-180.4975024332276
 20
801.0654921007638
 30
0.0
 10
-182.9155993414881
 20
797.182684709707
 30
0.0
 10
-184.7300555608107
 20
793.5834372363116
 30
0.0
 10
-185.64574005972
 20
791.4712093048868
 30
0.0
 10
-185.9744278304216
 20
790.6687327629916
 30
0.0
  0
SPLINE
  5
7C
330
1F
100
AcDbEntity
  8
Make2D$Visible$Curves
370
    -3
100
AcDbSpline
210
0.0
220
0.0
230
1.0
 70
     8
 71
     3
 72
    12
 73
     8
 74
     0
 42
0.000000001
 43
0.0000000001
 40
-1.0
 40
-1.0
 40
-1.0
 40
-1.0
 40
-0.5000002575018834
 40
-0.5000002575018834
 40
-0.2500003382807437
 40
-0.2500003382807437
 40
0.0
 40
0.0
 40
0.0
 40
0.0
 10
0.0000001211490712
 20
374.8633992516843
 30
0.0
 10
-51.59177989009078
 20
374.8633243127869
 30
0.0
 10
-95.83494983589884
 20
412.7414325987888
 30
0.0
 10
-138.9862597777588
 20
476.2701253233372
 30
0.0
 10
-150.2624258400489
 20
499.4133377758868
 30
0.0
 10
-168.6688807769353
 20
547.0774217952704
 30
0.0
 10
-175.8264863658495
 20
571.6711572670276
 30
0.0
 10
-181.1711903876827
 20
596.6457764932015
 30
0.0
  0
SPLINE
  5
7D
330
1F
100
AcDbEntity
  8
Make2D$Visible$Curves
370
    -3
100
AcDbSpline
210
0.0
220
0.0
230
1.0
 70
     8
 71
     3
 72
    12
 73
     8
 74
     0
 42
0.000000001
 43
0.0000000001
 40
-1.0
 40
-1.0
 40
-1.0
 40
-1.0
 40
-0.4999990368105114
 40
-0.4999990368105114
 40
-0.2499994886029872
 40
-0.2499994886029872
 40
0.0
 40
0.0
 40
0.0
 40
0.0
 10
0.0000001211490712
 20
374.8633992516843
 30
0.0
 10
51.59190563076157
 20
374.8633243126048
 30
0.0
 10
95.83515016968187
 20
412.7415992517055
 30
0.0
 10
138.9864190102501
 20
476.2704241648339
 30
0.0
 10
150.2625473621594
 20
499.4136107992078
 30
0.0
 10
168.6689291888462
 20
547.0775891310311
 30
0.0
 10
175.826504511707
 20
571.6712421484292
 30
0.0
 10
181.1711903876823
 20
596.6457764932015
 30
0.0
  0
ARC
  5
7E
330
1F
100
AcDbEntity
  8
Make2D$Visible$Curves
370
    -3
100
AcDbCircle
 10
-159.9476739860235
 20
813.541497057021
 30
0.0
 40
4.899942277511684
210
0.0
220
0.0
230
-1.0
100
AcDbArc
 50
81.5935209413799
 51
105.7854053148706
  0
ARC
  5
7F
330
1F
100
AcDbEntity
  8
Make2D$Visible$Curves
370
    -3
100
AcDbCircle
 10
211.8579946753551
 20
875.1326348408261
 30
0.0
 40
75.6638246494617
100
AcDbArc
 50
230.1529627556963
 51
231.6240757595708
  0
LINE
  5
80
330
1F
100
AcDbEntity
  8
Make2D$Visible$Curves
370
    -3
100
AcDbLine
 10
169.4297139746859
 20
811.8324766553926
 30
0.0
 11
169.684126664934
 21
812.2346040589775
 31
0.0
  0
ARC
  5
81
330
1F
100
AcDbEntity
  8
Make2D$Visible$Curves
370
    -3
100
AcDbCircle
 10
211.8579946753526
 20
875.1326348408226
 30
0.0
 40
75.66382464945714
210
0.0
220
0.0
230
-1.0
100
AcDbArc
 50
230.1529627556962
 51
231.6240757595708
  0
LINE
  5
82
330
1F
100
AcDbEntity
  8
Make2D$Visible$Curves
370
    -3
100
AcDbLine
 10
-148.3767483880188
 20
819.9471396261658
 30
0.0
 11
-143.502331389886
 21
819.9471396261658
 31
0.0
  0
LINE
  5
83
330
1F
100
AcDbEntity
  8
Make2D$Visible$Curves
370
    -3
100
AcDbLine
 10
-143.4996273797396
 20
819.9485759915326
 30
0.0
 11
-142.9927633719615
 21
819.4416853652111
 31
0.0
  0
LINE
  5
84
330
1F
100
AcDbEntity
  8
Make2D$Visible$Curves
370
    -3
100
AcDbLine
 10
-143.0280614471559
 20
819.1552808836558
 30
0.0
 11
-143.044133565938
 21
818.5000550935791
 31
0.0
  0
LINE
  5
85
330
1F
100
AcDbEntity
  8
Make2D$Visible$Curves
370
    -3
100
AcDbLine
 10
-143.0441333693958
 20
818.5000640842599
 30
0.0
 11
-143.0739053209316
 21
817.2526399823416
 31
0.0
  0
LINE
  5
86
330
1F
100
AcDbEntity
  8
Make2D$Visible$Curves
370
    -3
100
AcDbLine
 10
-143.0738833571259
 20
817.2526752707553
 30
0.0
 11
-143.0886789201405
 21
816.6106356720874
 31
0.0
  0
LINE
  5
87
330
1F
100
AcDbEntity
  8
Make2D$Visible$Curves
370
    -3
100
AcDbLine
 10
143.5023313898826
 20
819.9471396261658
 30
0.0
 11
148.376752677869
 21
819.9471396261658
 31
0.0
  0
LINE
  5
88
330
1F
100
AcDbEntity
  8
Make2D$Visible$Curves
370
    -3
100
AcDbLine
 10
142.9927633719612
 20
819.4416853652112
 30
0.0
 11
143.4996273797252
 21
819.9485759915184
 31
0.0
  0
LINE
  5
89
330
1F
100
AcDbEntity
  8
Make2D$Visible$Curves
370
    -3
100
AcDbLine
 10
143.0441335659377
 20
818.5000550935812
 30
0.0
 11
143.0280614471557
 21
819.1552808836558
 31
0.0
  0
SPLINE
  5
8A
330
1F
100
AcDbEntity
  8
Make2D$Visible$Curves
370
    -3
100
AcDbSpline
210
0.0
220
0.0
230
1.0
 70
     8
 71
     3
 72
    32
 73
    28
 74
     0
 42
0.000000001
 43
0.0000000001
 40
3.648370549456067
 40
3.648370549456067
 40
3.648370549456067
 40
3.648370549456067
 40
5.115255325800725
 40
5.115255325800725
 40
5.115255325800725
 40
6.721039584418691
 40
6.721039584418691
 40
6.721039584418691
 40
8.35026449507985
 40
8.35026449507985
 40
8.35026449507985
 40
9.989948754825292
 40
9.989948754825292
 40
9.989948754825292
 40
11.638113887553
 40
11.638113887553
 40
11.638113887553
 40
13.332044100547
 40
13.332044100547
 40
13.332044100547
 40
14.46246418480268
 40
14.46246418480268
 40
14.46246418480268
 40
15.13579570036597
 40
15.13579570036597
 40
15.13579570036597
 40
17.11744048674531
 40
17.11744048674531
 40
17.11744048674531
 40
17.11744048674531
 10
148.3794809906631
 20
819.9471531585797
 30
0.0
 10
148.8534853704739
 20
819.947156090577
 30
0.0
 10
149.3272149259525
 20
819.9429377278452
 30
0.0
 10
149.7979754279784
 20
819.933266026317
 30
0.0
 10
150.3134492402095
 20
819.9226756967629
 30
0.0
 10
150.8297304523525
 20
819.9053908843061
 30
0.0
 10
151.342911150042
 20
819.8805595846791
 30
0.0
 10
151.8638898387704
 20
819.8553509632766
 30
0.0
 10
152.3852877751642
 20
819.8221749048771
 30
0.0
 10
152.9042927950938
 20
819.780545939194
 30
0.0
 10
153.4269758747675
 20
819.7386219593645
 30
0.0
 10
153.9492089236047
 20
819.6879701284201
 30
0.0
 10
154.4699022932927
 20
819.6281148216462
 30
0.0
 10
154.9934058371039
 20
819.5679364767005
 30
0.0
 10
155.5159999714775
 20
819.4983843917654
 30
0.0
 10
156.0371811361763
 20
819.419016474748
 30
0.0
 10
156.5728962095666
 20
819.3374352658138
 30
0.0
 10
157.1072555929832
 20
819.2454656015452
 30
0.0
 10
157.6400341060843
 20
819.1426383712354
 30
0.0
 10
157.9955932370455
 20
819.0740148067539
 30
0.0
 10
158.3503967598528
 20
819.0005656640102
 30
0.0
 10
158.7044066873138
 20
818.9221616203013
 30
0.0
 10
158.9069950632264
 20
818.8772935342737
 30
0.0
 10
159.1176100287537
 20
818.8289708658118
 30
0.0
 10
159.3361013137584
 20
818.7767674553323
 30
0.0
 10
159.9550024726471
 20
818.628895418958
 30
0.0
 10
160.5707465602218
 20
818.4657220619038
 30
0.0
 10
161.1835820359915
 20
818.2863843332782
 30
0.0
  0
ARC
  5
8B
330
1F
100
AcDbEntity
  8
Make2D$Visible$Curves
370
    -3
100
AcDbCircle
 10
-159.522793298434
 20
812.8089292963712
 30
0.0
 40
5.724303059394731
210
0.0
220
0.0
230
-1.0
100
AcDbArc
 50
107.8835366698848
 51
132.3246196138344
  0
LINE
  5
8C
330
1F
100
AcDbEntity
  8
Make2D$Visible$Curves
370
    -3
100
AcDbLine
 10
143.0886789201399
 20
816.6106356720977
 30
0.0
 11
143.0738833571259
 21
817.2526752707423
 31
0.0
  0
LINE
  5
8D
330
1F
100
AcDbEntity
  8
Make2D$Visible$Curves
370
    -3
100
AcDbLine
 10
143.073904118698
 20
817.2526883303332
 30
0.0
 11
143.0441334512937
 21
818.5000603381542
 31
0.0
  0
SPLINE
  5
8E
330
1F
100
AcDbEntity
  8
Make2D$Visible$Curves
370
    -3
100
AcDbSpline
210
0.0
220
0.0
230
1.0
 70
     8
 71
     3
 72
    32
 73
    28
 74
     0
 42
0.000000001
 43
0.0000000001
 40
2.174164362186778
 40
2.174164362186778
 40
2.174164362186778
 40
2.174164362186778
 40
4.155809148566076
 40
4.155809148566076
 40
4.155809148566076
 40
4.829140664252442
 40
4.829140664252442
 40
4.829140664252442
 40
5.959560748508161
 40
5.959560748508161
 40
5.959560748508161
 40
7.653490961502162
 40
7.653490961502162
 40
7.653490961502162
 40
9.301656094229854
 40
9.301656094229854
 40
9.301656094229854
 40
10.94134035397531
 40
10.94134035397531
 40
10.94134035397531
 40
12.57056526463646
 40
12.57056526463646
 40
12.57056526463646
 40
14.17634952325444
 40
14.17634952325444
 40
14.17634952325444
 40
15.64324090436718
 40
15.64324090436718
 40
15.64324090436718
 40
15.64324090436718
 10
-161.1835820359918
 20
818.2863843332782
 30
0.0
 10
-160.5707465602291
 20
818.4657220619018
 30
0.0
 10
-159.9550024726405
 20
818.6288954189597
 30
0.0
 10
-159.3361013137588
 20
818.7767674553324
 30
0.0
 10
-159.117599761328
 20
818.8289733189745
 30
0.0
 10
-158.9069845839165
 20
818.8772958551698
 30
0.0
 10
-158.7044066873141
 20
818.9221616203013
 30
0.0
 10
-158.3503967598447
 20
819.0005656640119
 30
0.0
 10
-157.9955932370554
 20
819.0740148067521
 30
0.0
 10
-157.6400341060847
 20
819.1426383712354
 30
0.0
 10
-157.107255592986
 20
819.2454656015448
 30
0.0
 10
-156.5728962095644
 20
819.3374352658142
 30
0.0
 10
-156.0371811361766
 20
819.419016474748
 30
0.0
 10
-155.5159999714833
 20
819.4983843917646
 30
0.0
 10
-154.9934058370986
 20
819.5679364767012
 30
0.0
 10
-154.4699022932929
 20
819.6281148216462
 30
0.0
 10
-153.9492089236056
 20
819.68797012842
 30
0.0
 10
-153.4269758747672
 20
819.7386219593645
 30
0.0
 10
-152.9042927950941
 20
819.780545939194
 30
0.0
 10
-152.3852877751587
 20
819.8221749048776
 30
0.0
 10
-151.8638898387764
 20
819.8553509632761
 30
0.0
 10
-151.3429111500423
 20
819.880559584679
 30
0.0
 10
-150.8297304523502
 20
819.9053908843061
 30
0.0
 10
-150.3134492402123
 20
819.9226756967628
 30
0.0
 10
-149.7979754279787
 20
819.9332660263169
 30
0.0
 10
-149.3272128063025
 20
819.9429377713931
 30
0.0
 10
-148.8534811044726
 20
819.9471561285641
 30
0.0
 10
-148.3794745879358
 20
819.9471531585399
 30
0.0
  0
ARC
  5
8F
330
1F
100
AcDbEntity
  8
Make2D$Visible$Curves
370
    -3
100
AcDbCircle
 10
-159.5227932993712
 20
812.8089292985082
 30
0.0
 40
5.724303057183918
100
AcDbArc
 50
107.8835366767997
 51
132.3246196213045
  0
ARC
  5
90
330
1F
100
AcDbEntity
  8
Make2D$Visible$Curves
370
    -3
100
AcDbCircle
 10
142.5593846740871
 20
819.9524778674794
 30
0.0
 40
0.9697148254248842
210
0.0
220
0.0
230
-1.0
100
AcDbArc
 50
319.1220177674512
 51
343.6486602013071
  0
ARC
  5
91
330
1F
100
AcDbEntity
  8
Make2D$Visible$Curves
370
    -3
100
AcDbCircle
 10
142.5590284578414
 20
819.9526236388087
 30
0.0
 40
0.9700976883079443
100
AcDbArc
 50
319.1447072942429
 51
343.6463692971459
  0
ARC
  5
92
330
1F
100
AcDbEntity
  8
Make2D$Visible$Curves
370
    -3
100
AcDbCircle
 10
146.133597821679
 20
815.0140382590118
 30
0.0
 40
3.191324199153723
100
AcDbArc
 50
169.7737805141197
 51
181.4052935011451
  0
LINE
  5
93
330
1F
100
AcDbEntity
  8
Make2D$Visible$Curves
370
    -3
100
AcDbLine
 10
-143.0886964904032
 20
816.6102198264805
 30
0.0
 11
-143.121300958787
 21
814.8808020993607
 31
0.0
  0
LINE
  5
94
330
1F
100
AcDbEntity
  8
Make2D$Visible$Curves
370
    -3
100
AcDbLine
 10
-62.89723784918129
 20
815.1530181139564
 30
0.0
 11
62.89723784918095
 21
815.1530181139564
 31
0.0
  0
LINE
  5
95
330
1F
100
AcDbEntity
  8
Make2D$Visible$Curves
370
    -3
100
AcDbLine
 10
92.19999999999987
 20
819.4019532057127
 30
0.0
 11
92.19999999999987
 21
819.1435762058961
 31
0.0
  0
LINE
  5
96
330
1F
100
AcDbEntity
  8
Make2D$Visible$Curves
370
    -3
100
AcDbLine
 10
107.7999999999999
 20
819.1435762058961
 30
0.0
 11
107.7999999999999
 21
819.4019529112602
 31
0.0
  0
ARC
  5
97
330
1F
100
AcDbEntity
  8
Make2D$Visible$Curves
370
    -3
100
AcDbCircle
 10
142.2352285701173
 20
815.9130564273462
 30
0.0
 40
0.5633186084291799
100
AcDbArc
 50
186.0792874557152
 51
230.9847281101921
  0
LINE
  5
98
330
1F
100
AcDbEntity
  8
Make2D$Visible$Curves
370
    -3
100
AcDbLine
 10
-141.6750779000141
 20
815.8533983902928
 30
0.0
 11
-141.5018513688036
 21
819.4022236940984
 31
0.0
  0
LINE
  5
99
330
1F
100
AcDbEntity
  8
Make2D$Visible$Curves
370
    -3
100
AcDbLine
 10
-107.8000000000002
 20
819.4019529112602
 30
0.0
 11
-107.8000000000001
 21
819.1435762058966
 31
0.0
  0
LINE
  5
9A
330
1F
100
AcDbEntity
  8
Make2D$Visible$Curves
370
    -3
100
AcDbLine
 10
-92.2000000000001
 20
819.1435762058966
 30
0.0
 11
-92.20000000000033
 21
819.4019532057127
 31
0.0
  0
ARC
  5
9B
330
1F
100
AcDbEntity
  8
Make2D$Visible$Curves
370
    -3
100
AcDbCircle
 10
-70.78290670768682
 20
817.5321015935481
 30
0.0
 40
0.9193622067402017
100
AcDbArc
 50
193.8002307395292
 51
229.1169150617493
  0
LINE
  5
9C
330
1F
100
AcDbEntity
  8
Make2D$Visible$Curves
370
    -3
100
AcDbLine
 10
-71.29539953884051
 20
818.6401797468893
 30
0.0
 11
-70.88742906711656
 21
816.5504514145907
 31
0.0
  0
ARC
  5
9D
330
1F
100
AcDbEntity
  8
Make2D$Visible$Curves
370
    -3
100
AcDbCircle
 10
-73.33666476460579
 20
819.2911745165992
 30
0.0
 40
1.25810630268593
100
AcDbArc
 50
5.067020308764862
 51
30.24614261136863
  0
LINE
  5
9E
330
1F
100
AcDbEntity
  8
Make2D$Visible$Curves
370
    -3
100
AcDbLine
 10
-107.8000000000002
 20
819.4019529112602
 30
0.0
 11
-107.8000000000001
 21
819.9471396832478
 31
0.0
  0
LINE
  5
9F
330
1F
100
AcDbEntity
  8
Make2D$Visible$Curves
370
    -3
100
AcDbLine
 10
-142.3017179042311
 20
818.6296691855434
 30
0.0
 11
-142.4749157651235
 21
815.0814638399379
 31
0.0
  0
LINE
  5
A0
330
1F
100
AcDbEntity
  8
Make2D$Visible$Curves
370
    -3
100
AcDbLine
 10
-142.4749157651235
 20
815.0814638399379
 30
0.0
 11
-142.4744407840934
 21
814.9165824050497
 31
0.0
  0
LINE
  5
A1
330
1F
100
AcDbEntity
  8
Make2D$Visible$Curves
370
    -3
100
AcDbLine
 10
-149.3827318199379
 20
814.3743975741068
 30
0.0
 11
-147.4625513985946
 21
814.3739960936134
 31
0.0
  0
SPLINE
  5
A2
330
1F
100
AcDbEntity
  8
Make2D$Visible$Curves
370
    -3
100
AcDbSpline
210
0.0
220
0.0
230
1.0
 70
     8
 71
     3
 72
    10
 73
     6
 74
     0
 42
0.000000001
 43
0.0000000001
 40
0.0
 40
0.0
 40
0.0
 40
0.0
 40
0.499992437325411
 40
0.499992437325411
 40
1.0
 40
1.0
 40
1.0
 40
1.0
 10
-149.3827318199379
 20
814.3743975741068
 30
0.0
 10
-155.2789766739441
 20
814.3793416531418
 30
0.0
 10
-161.5676153741293
 20
812.9806645188289
 30
0.0
 10
-172.7444838005432
 20
807.2801342267508
 30
0.0
 10
-177.5539747985673
 20
803.0104172017385
 30
0.0
 10
-180.9235328797643
 20
798.1858585786151
 30
0.0
  0
SPLINE
  5
A3
330
1F
100
AcDbEntity
  8
Make2D$Visible$Curves
370
    -3
100
AcDbSpline
210
0.0
220
0.0
230
1.0
 70
     8
 71
     3
 72
    10
 73
     6
 74
     0
 42
0.000000001
 43
0.0000000001
 40
-1.0
 40
-1.0
 40
-1.0
 40
-1.0
 40
-0.5000024146114141
 40
-0.5000024146114141
 40
0.0
 40
0.0
 40
0.0
 40
0.0
 10
180.9235328797637
 20
798.185858578615
 30
0.0
 10
177.5540420356392
 20
803.0103209311922
 30
0.0
 10
172.7446786659265
 20
807.2799660249258
 30
0.0
 10
161.5678665665829
 20
812.980605214636
 30
0.0
 10
155.2790943327659
 20
814.3793417518002
 30
0.0
 10
149.3827318199375
 20
814.3743975741068
 30
0.0
  0
LINE
  5
A4
330
1F
100
AcDbEntity
  8
Make2D$Visible$Curves
370
    -3
100
AcDbLine
 10
147.4625513985943
 20
814.3739960936134
 30
0.0
 11
149.3827318199375
 21
814.3743975741068
 31
0.0
  0
LINE
  5
A5
330
1F
100
AcDbEntity
  8
Make2D$Visible$Curves
370
    -3
100
AcDbLine
 10
142.3017179042308
 20
818.6296691855434
 30
0.0
 11
142.4749157651233
 21
815.0814638399379
 31
0.0
  0
ARC
  5
A6
330
1F
100
AcDbEntity
  8
Make2D$Visible$Curves
370
    -3
100
AcDbCircle
 10
-142.3079123001207
 20
819.6489281230761
 30
0.0
 40
0.7874496595891625
210
0.0
220
0.0
230
-1.0
100
AcDbArc
 50
292.6762653488349
 51
339.8355542110128
  0
LINE
  5
A7
330
1F
100
AcDbEntity
  8
Make2D$Visible$Curves
370
    -3
100
AcDbLine
 10
70.88742906711622
 20
816.5504514145907
 30
0.0
 11
70.88984994165907
 21
816.3696532269762
 31
0.0
  0
LINE
  5
A8
330
1F
100
AcDbEntity
  8
Make2D$Visible$Curves
370
    -3
100
AcDbLine
 10
71.29539953884017
 20
818.6401797468893
 30
0.0
 11
70.88742906711622
 21
816.5504514145907
 31
0.0
  0
SPLINE
  5
A9
330
1F
100
AcDbEntity
  8
Make2D$Visible$Curves
370
    -3
100
AcDbSpline
210
0.0
220
0.0
230
1.0
 70
     8
 71
     3
 72
    12
 73
     8
 74
     0
 42
0.000000001
 43
0.0000000001
 40
0.2500239794982216
 40
0.2500239794982216
 40
0.2500239794982216
 40
0.2500239794982216
 40
0.4999929799451576
 40
0.4999929799451576
 40
0.7499640375168292
 40
0.7499640375168292
 40
0.8372368466049989
 40
0.8372368466049989
 40
0.8372368466049989
 40
0.8372368466049989
 10
-142.0043316757997
 20
818.9223499986291
 30
0.0
 10
-141.9347732097
 20
818.9388177226257
 30
0.0
 10
-141.866718489174
 20
818.9802737587627
 30
0.0
 10
-141.7327734279345
 20
819.1098980447138
 30
0.0
 10
-141.6669217325544
 20
819.1987362730999
 30
0.0
 10
-141.5801693068616
 20
819.3541904939098
 30
0.0
 10
-141.5578989348926
 20
819.3975035992155
 30
0.0
 10
-141.5359521528827
 20
819.4450149552445
 30
0.0
  0
LINE
  5
AA
330
1F
100
AcDbEntity
  8
Make2D$Visible$Curves
370
    -3
100
AcDbLine
 10
92.19999999999987
 20
819.4019532057127
 30
0.0
 11
92.19999999999975
 21
819.9471399439623
 31
0.0
  0
LINE
  5
AB
330
1F
100
AcDbEntity
  8
Make2D$Visible$Curves
370
    -3
100
AcDbLine
 10
-72.2494080399386
 20
819.9253197002632
 30
0.0
 11
-71.45979527485184
 21
819.1357218021059
 31
0.0
  0
ARC
  5
AC
330
1F
100
AcDbEntity
  8
Make2D$Visible$Curves
370
    -3
100
AcDbCircle
 10
72.61295977625154
 20
818.4871134474545
 30
0.0
 40
1.326421603876089
210
0.0
220
0.0
230
-1.0
100
AcDbArc
 50
151.2408436747877
 51
173.3734227798891
  0
LINE
  5
AD
330
1F
100
AcDbEntity
  8
Make2D$Visible$Curves
370
    -3
100
AcDbLine
 10
-141.4499947331882
 20
819.9471396261658
 30
0.0
 11
-107.8000000000002
 21
819.9471396261658
 31
0.0
  0
LINE
  5
AE
330
1F
100
AcDbEntity
  8
Make2D$Visible$Curves
370
    -3
100
AcDbLine
 10
-92.20000000000046
 20
819.9471399439623
 30
0.0
 11
-92.20000000000033
 21
819.4019532057127
 31
0.0
  0
LINE
  5
AF
330
1F
100
AcDbEntity
  8
Make2D$Visible$Curves
370
    -3
100
AcDbLine
 10
-72.29017557050662
 20
819.9453078005336
 30
0.0
 11
-72.3109464163752
 21
819.9400769813002
 31
0.0
  0
ARC
  5
B0
330
1F
100
AcDbEntity
  8
Make2D$Visible$Curves
370
    -3
100
AcDbCircle
 10
-142.2352285701167
 20
815.9130564273457
 30
0.0
 40
0.5633186084282424
100
AcDbArc
 50
309.0152718896401
 51
353.920712544321
  0
LINE
  5
B1
330
1F
100
AcDbEntity
  8
Make2D$Visible$Curves
370
    -3
100
AcDbLine
 10
142.6604410978793
 20
814.741337653561
 30
0.0
 11
141.9011360948248
 21
815.456671803977
 31
0.0
  0
ARC
  5
B2
330
1F
100
AcDbEntity
  8
Make2D$Visible$Curves
370
    -3
100
AcDbCircle
 10
-142.9882165035834
 20
815.1403473056271
 30
0.0
 40
0.5166671178189156
210
0.0
220
0.0
230
-1.0
100
AcDbArc
 50
309.4043548376103
 51
353.4559013892606
  0
LINE
  5
B3
330
1F
100
AcDbEntity
  8
Make2D$Visible$Curves
370
    -3
100
AcDbLine
 10
141.4528003800346
 20
819.9446637035521
 30
0.0
 11
142.2523895554423
 21
819.1451188325468
 31
0.0
  0
LINE
  5
B4
330
1F
100
AcDbEntity
  8
Make2D$Visible$Curves
370
    -3
100
AcDbLine
 10
107.7999999999999
 20
819.9471396261658
 30
0.0
 11
141.4499947331879
 21
819.9471396261658
 31
0.0
  0
LINE
  5
B5
330
1F
100
AcDbEntity
  8
Make2D$Visible$Curves
370
    -3
100
AcDbLine
 10
107.8
 20
819.9471396832478
 30
0.0
 11
107.7999999999999
 21
819.4019529112602
 31
0.0
  0
LINE
  5
B6
330
1F
100
AcDbEntity
  8
Make2D$Visible$Curves
370
    -3
100
AcDbLine
 10
71.4597952748515
 20
819.1357218021059
 30
0.0
 11
72.24940803993837
 21
819.9253197002632
 31
0.0
  0
ARC
  5
B7
330
1F
100
AcDbEntity
  8
Make2D$Visible$Curves
370
    -3
100
AcDbCircle
 10
72.61295977625001
 20
818.4871134474544
 30
0.0
 40
1.326421603874943
100
AcDbArc
 50
151.2408436747605
 51
173.3734227798784
  0
ARC
  5
B8
330
1F
100
AcDbEntity
  8
Make2D$Visible$Curves
370
    -3
100
AcDbCircle
 10
73.33666476460704
 20
819.2911745165987
 30
0.0
 40
1.258106302687445
100
AcDbArc
 50
149.7538573886477
 51
174.9329796912205
  0
LINE
  5
B9
330
1F
100
AcDbEntity
  8
Make2D$Visible$Curves
370
    -3
100
AcDbLine
 10
71.37421005539801
 20
816.8273588423222
 30
0.0
 11
71.36524289844095
 21
816.8188851515512
 31
0.0
  0
ARC
  5
BA
330
1F
100
AcDbEntity
  8
Make2D$Visible$Curves
370
    -3
100
AcDbCircle
 10
70.78290670768781
 20
817.5321015935473
 30
0.0
 40
0.9193622067387157
100
AcDbArc
 50
310.8830849382202
 51
346.1997692604991
  0
ARC
  5
BB
330
1F
100
AcDbEntity
  8
Make2D$Visible$Curves
370
    -3
100
AcDbCircle
 10
-143.0555051417394
 20
816.7922067891178
 30
0.0
 40
1.764780836181268
100
AcDbArc
 50
297.2455926965649
 51
311.7398148035207
  0
LINE
  5
BC
330
1F
100
AcDbEntity
  8
Make2D$Visible$Curves
370
    -3
100
AcDbLine
 10
-142.3048677973053
 20
815.193235799215
 30
0.0
 11
-142.2475787177714
 21
815.2232242228645
 31
0.0
  0
LINE
  5
BD
330
1F
100
AcDbEntity
  8
Make2D$Visible$Curves
370
    -3
100
AcDbLine
 10
-70.88836139285871
 20
816.4808421426046
 30
0.0
 11
-70.88984994980302
 21
816.3696532346717
 31
0.0
  0
LINE
  5
BE
330
1F
100
AcDbEntity
  8
Make2D$Visible$Curves
370
    -3
100
AcDbLine
 10
141.4949524553531
 20
819.5399626168231
 30
0.0
 11
141.4620452557451
 21
819.6289287256104
 31
0.0
  0
ARC
  5
BF
330
1F
100
AcDbEntity
  8
Make2D$Visible$Curves
370
    -3
100
AcDbCircle
 10
-71.84744219885104
 20
819.2138766169867
 30
0.0
 40
0.3221040490172947
210
0.0
220
0.0
230
-1.0
100
AcDbArc
 50
242.248690994231
 51
283.9287663090485
  0
LINE
  5
C0
330
1F
100
AcDbEntity
  8
Make2D$Visible$Curves
370
    -3
100
AcDbLine
 10
-141.5359521528827
 20
819.4450149552445
 30
0.0
 11
-141.4620452557453
 21
819.6289287256104
 31
0.0
  0
SPLINE
  5
C1
330
1F
100
AcDbEntity
  8
Make2D$Visible$Curves
370
    -3
100
AcDbSpline
210
0.0
220
0.0
230
1.0
 70
     8
 71
     3
 72
    13
 73
     9
 74
     0
 42
0.000000001
 43
0.0000000001
 40
0.2646628287796394
 40
0.2646628287796394
 40
0.2646628287796394
 40
0.2646628287796394
 40
0.2857142857143
 40
0.4285714285714
 40
0.5714285714286
 40
0.7142857142857
 40
0.8571428571429
 40
1.0
 40
1.0
 40
1.0
 40
1.0
 10
-70.81958591411939
 20
816.4427877967711
 30
0.0
 10
-70.77871721048922
 20
816.420708156676
 30
0.0
 10
-70.44948499601361
 20
816.249976202185
 30
0.0
 10
-69.67390358937081
 20
815.9501744265274
 30
0.0
 10
-68.25462020506751
 20
815.6010918638672
 30
0.0
 10
-66.5828897766824
 20
815.3423086080766
 30
0.0
 10
-64.74645864445205
 20
815.1864410599676
 30
0.0
 10
-63.51998968935612
 20
815.1530954192915
 30
0.0
 10
-62.89723784918129
 20
815.1530181139564
 30
0.0
  0
LINE
  5
C2
330
1F
100
AcDbEntity
  8
Make2D$Visible$Curves
370
    -3
100
AcDbLine
 10
-107.8000000000002
 20
819.1397513340429
 30
0.0
 11
-107.8000000000002
 21
818.8897521803884
 31
0.0
  0
LINE
  5
C3
330
1F
100
AcDbEntity
  8
Make2D$Visible$Curves
370
    -3
100
AcDbLine
 10
-142.2806172030743
 20
815.0991865541748
 30
0.0
 11
-142.4510044545179
 21
814.9386627296852
 31
0.0
  0
LINE
  5
C4
330
1F
100
AcDbEntity
  8
Make2D$Visible$Curves
370
    -3
100
AcDbLine
 10
-142.5019283476782
 20
814.9607069479309
 30
0.0
 11
-142.4749157651235
 21
815.0814638399379
 31
0.0
  0
LINE
  5
C5
330
1F
100
AcDbEntity
  8
Make2D$Visible$Curves
370
    -3
100
AcDbLine
 10
92.19999999999985
 20
819.1638433200603
 30
0.0
 11
92.19999999999982
 21
818.8399642255671
 31
0.0
  0
ARC
  5
C6
330
1F
100
AcDbEntity
  8
Make2D$Visible$Curves
370
    -3
100
AcDbCircle
 10
92.78051182345102
 20
819.1506621247014
 30
0.0
 40
0.5805550683715459
100
AcDbArc
 50
180.6993364533357
 51
207.9520227754957
  0
LINE
  5
C7
330
1F
100
AcDbEntity
  8
Make2D$Visible$Curves
370
    -3
100
AcDbLine
 10
-72.0834750553791
 20
819.4022916689493
 30
0.0
 11
-71.67572997914664
 21
817.3127993520593
 31
0.0
  0
LINE
  5
C8
330
1F
100
AcDbEntity
  8
Make2D$Visible$Curves
370
    -3
100
AcDbLine
 10
-70.61241174578544
 20
816.1074825173473
 30
0.0
 11
-70.88924027857087
 21
816.3690771138099
 31
0.0
  0
LINE
  5
C9
330
1F
100
AcDbEntity
  8
Make2D$Visible$Curves
370
    -3
100
AcDbLine
 10
72.29017557050639
 20
819.9471396261658
 30
0.0
 11
92.19999999999987
 21
819.9471396261658
 31
0.0
  0
LINE
  5
CA
330
1F
100
AcDbEntity
  8
Make2D$Visible$Curves
370
    -3
100
AcDbLine
 10
-142.2523895554428
 20
819.1451188325466
 30
0.0
 11
-141.4528003800348
 21
819.944663703552
 31
0.0
  0
LINE
  5
CB
330
1F
100
AcDbEntity
  8
Make2D$Visible$Curves
370
    -3
100
AcDbLine
 10
-142.2633639878244
 20
819.1128124836646
 30
0.0
 11
-142.3017179042311
 21
818.6296691855434
 31
0.0
  0
LINE
  5
CC
330
1F
100
AcDbEntity
  8
Make2D$Visible$Curves
370
    -3
100
AcDbLine
 10
-107.6500000000001
 20
819.2087676815352
 30
0.0
 11
-107.6499998008952
 21
818.9535680674489
 31
0.0
  0
LINE
  5
CD
330
1F
100
AcDbEntity
  8
Make2D$Visible$Curves
370
    -3
100
AcDbLine
 10
-107.6499998944865
 20
819.7471396264457
 30
0.0
 11
-107.6500000000001
 21
819.2087676815352
 31
0.0
  0
ARC
  5
CE
330
1F
100
AcDbEntity
  8
Make2D$Visible$Curves
370
    -3
100
AcDbCircle
 10
-105.343187101619
 20
818.2002599723377
 30
0.0
 40
0.5931872809594951
100
AcDbArc
 50
359.8774351024165
 51
19.4730285912702
  0
LINE
  5
CF
330
1F
100
AcDbEntity
  8
Make2D$Visible$Curves
370
    -3
100
AcDbLine
 10
-104.7499999645343
 20
818.9471396258308
 30
0.0
 11
-104.7499999988144
 21
818.4745013449134
 31
0.0
  0
LINE
  5
D0
330
1F
100
AcDbEntity
  8
Make2D$Visible$Curves
370
    -3
100
AcDbLine
 10
-107.4499999999984
 20
819.9471396261658
 30
0.0
 11
-105.7500000000002
 21
819.9471396261658
 31
0.0
  0
LINE
  5
D1
330
1F
100
AcDbEntity
  8
Make2D$Visible$Curves
370
    -3
100
AcDbLine
 10
-94.25000000000017
 20
819.9471396261658
 30
0.0
 11
-92.55000000000194
 21
819.9471396261658
 31
0.0
  0
ARC
  5
D2
330
1F
100
AcDbEntity
  8
Make2D$Visible$Curves
370
    -3
100
AcDbCircle
 10
-92.89926835873972
 20
818.9558107456754
 30
0.0
 40
0.5492727380764686
100
AcDbArc
 50
340.1937138127267
 51
359.7660609287494
  0
SPLINE
  5
D3
330
1F
100
AcDbEntity
  8
Make2D$Visible$Curves
370
    -3
100
AcDbSpline
210
0.0
220
0.0
230
1.0
 70
    12
 71
     3
 72
    11
 73
     7
 74
     0
 42
0.000000001
 43
0.0000000001
 40
0.0
 40
0.0
 40
0.0
 40
0.0
 40
0.1611487945855902
 40
0.1611487945855902
 40
0.1611487945855902
 40
0.3245657307451601
 40
0.3245657307451601
 40
0.3245657307451601
 40
0.3245657307451601
 10
-92.55000000000014
 20
819.947139626166
 30
0.0
 41
0.9905338294883702
 10
-92.49775922500733
 20
819.9471396261658
 30
0.0
 41
0.8938269489342155
 10
-92.44763107293794
 20
819.9276134115784
 30
0.0
 41
0.8454735086571382
 10
-92.40857864376281
 20
819.8885609824031
 30
0.0
 41
0.8454735086571382
 10
-92.3954568247495
 20
819.8754391633898
 30
0.0
 41
0.8454735086571382
 10
-92.35000000108892
 20
819.7549250264215
 30
0.0
 41
0.8454735086571382
 10
-92.35000000000014
 20
819.7471396264456
 30
0.0
 41
0.8454735086571382
  0
LINE
  5
D4
330
1F
100
AcDbEntity
  8
Make2D$Visible$Curves
370
    -3
100
AcDbLine
 10
-92.35000010551386
 20
819.7471396264457
 30
0.0
 11
-92.3500000000002
 21
819.2087676815352
 31
0.0
  0
ARC
  5
D5
330
1F
100
AcDbEntity
  8
Make2D$Visible$Curves
370
    -3
100
AcDbCircle
 10
107.3309145453079
 20
819.6280541713054
 30
0.0
 40
0.3405831367268681
210
0.0
220
0.0
230
-1.0
100
AcDbArc
 50
20.46600985490287
 51
69.53399022601484
  0
LINE
  5
D6
330
1F
100
AcDbEntity
  8
Make2D$Visible$Curves
370
    -3
100
AcDbLine
 10
-107.6499997647271
 20
819.2087676815349
 30
0.0
 11
-107.6499998944865
 21
819.7471396264457
 31
0.0
  0
LINE
  5
D7
330
1F
100
AcDbEntity
  8
Make2D$Visible$Curves
370
    -3
100
AcDbLine
 10
-95.25000003546603
 20
818.9471396258308
 30
0.0
 11
-95.25000000297904
 21
818.5289945913281
 31
0.0
  0
ARC
  5
D8
330
1F
100
AcDbEntity
  8
Make2D$Visible$Curves
370
    -3
100
AcDbCircle
 10
-100.0000000000002
 20
803.9471396261713
 30
0.0
 40
16.49999999998886
100
AcDbArc
 50
90.00000000000006
 51
107.8517578827203
  0
ARC
  5
D9
330
1F
100
AcDbEntity
  8
Make2D$Visible$Curves
370
    -3
100
AcDbCircle
 10
100.0000000000006
 20
803.9471396261522
 30
0.0
 40
16.49999999999625
100
AcDbArc
 50
90.00000000000281
 51
107.7049973732204
  0
ARC
  5
DA
330
1F
100
AcDbEntity
  8
Make2D$Visible$Curves
370
    -3
100
AcDbCircle
 10
99.99999999999939
 20
803.947139626169
 30
0.0
 40
15.99999999999693
210
0.0
220
0.0
230
-1.0
100
AcDbArc
 50
89.9999999999972
 51
107.639826497393
  0
ARC
  5
DB
330
1F
100
AcDbEntity
  8
Make2D$Visible$Curves
370
    -3
100
AcDbCircle
 10
-100.000000000002
 20
803.9471396261597
 30
0.0
 40
16.50000000000045
100
AcDbArc
 50
72.19459432532936
 51
89.99999999999349
  0
ARC
  5
DC
330
1F
100
AcDbEntity
  8
Make2D$Visible$Curves
370
    -3
100
AcDbCircle
 10
100.0000000000007
 20
803.947139626168
 30
0.0
 40
15.99999999999784
210
0.0
220
0.0
230
-1.0
100
AcDbArc
 50
72.34663996745863
 51
90.00000000000178
  0
ARC
  5
DD
330
1F
100
AcDbEntity
  8
Make2D$Visible$Curves
370
    -3
100
AcDbCircle
 10
-107.1007316422594
 20
818.9558107457567
 30
0.0
 40
0.5492727370779803
100
AcDbArc
 50
180.233939080155
 51
199.8062862331533
  0
ARC
  5
DE
330
1F
100
AcDbEntity
  8
Make2D$Visible$Curves
370
    -3
100
AcDbCircle
 10
-100.0000000000017
 20
803.9471396261746
 30
0.0
 40
15.99999999999125
210
0.0
220
0.0
230
-1.0
100
AcDbArc
 50
89.99999999999318
 51
107.4712201593668
  0
LINE
  5
DF
330
1F
100
AcDbEntity
  8
Make2D$Visible$Curves
370
    -3
100
AcDbLine
 10
95.24999999999983
 20
818.4360270205048
 30
0.0
 11
95.25000005595365
 21
818.356018367302
 31
0.0
  0
LINE
  5
E0
330
1F
100
AcDbEntity
  8
Make2D$Visible$Curves
370
    -3
100
AcDbLine
 10
104.7499999999998
 20
818.4360270205048
 30
0.0
 11
104.7499998341953
 21
818.1989423932658
 31
0.0
  0
LINE
  5
E1
330
1F
100
AcDbEntity
  8
Make2D$Visible$Curves
370
    -3
100
AcDbLine
 10
92.34999999999985
 20
819.2087676815352
 30
0.0
 11
92.35000019910484
 21
818.9535680674489
 31
0.0
  0
LINE
  5
E2
330
1F
100
AcDbEntity
  8
Make2D$Visible$Curves
370
    -3
100
AcDbLine
 10
92.35000010551352
 20
819.7471396264457
 30
0.0
 11
92.34999999999985
 21
819.2087676815352
 31
0.0
  0
ARC
  5
E3
330
1F
100
AcDbEntity
  8
Make2D$Visible$Curves
370
    -3
100
AcDbCircle
 10
94.65681289853913
 20
818.2002599723628
 30
0.0
 40
0.5931872808020535
100
AcDbArc
 50
359.8774350985296
 51
19.47302859443402
  0
LINE
  5
E4
330
1F
100
AcDbEntity
  8
Make2D$Visible$Curves
370
    -3
100
AcDbLine
 10
95.25000003546569
 20
818.9471396258308
 30
0.0
 11
95.25000000176684
 21
818.4926406369636
 31
0.0
  0
LINE
  5
E5
330
1F
100
AcDbEntity
  8
Make2D$Visible$Curves
370
    -3
100
AcDbLine
 10
92.55000000000172
 20
819.9471396261658
 30
0.0
 11
94.24999999999983
 21
819.9471396261658
 31
0.0
  0
LINE
  5
E6
330
1F
100
AcDbEntity
  8
Make2D$Visible$Curves
370
    -3
100
AcDbLine
 10
105.7499999999998
 20
819.9471396261658
 30
0.0
 11
107.4499999999981
 21
819.9471396261658
 31
0.0
  0
ARC
  5
E7
330
1F
100
AcDbEntity
  8
Make2D$Visible$Curves
370
    -3
100
AcDbCircle
 10
107.1007316412604
 20
818.9558107456755
 30
0.0
 40
0.5492727380763482
100
AcDbArc
 50
340.1937138127223
 51
359.7660609287375
  0
SPLINE
  5
E8
330
1F
100
AcDbEntity
  8
Make2D$Visible$Curves
370
    -3
100
AcDbSpline
210
0.0
220
0.0
230
1.0
 70
    12
 71
     3
 72
    11
 73
     7
 74
     0
 42
0.000000001
 43
0.0000000001
 40
0.0
 40
0.0
 40
0.0
 40
0.0
 40
0.1611487945854933
 40
0.1611487945854933
 40
0.1611487945854933
 40
0.3171137905621091
 40
0.3171137905621091
 40
0.3171137905621091
 40
0.3171137905621091
 10
107.4499999999999
 20
819.9471396261658
 30
0.0
 41
0.9905338294883695
 10
107.5022407749926
 20
819.9471396261658
 30
0.0
 41
0.8938269489342149
 10
107.552368927062
 20
819.9276134115784
 30
0.0
 41
0.8454735086571374
 10
107.5914213562371
 20
819.8885609824032
 30
0.0
 41
0.8454735086571374
 10
107.6004082834553
 20
819.879574055185
 30
0.0
 41
0.8454735086571374
 10
107.6499999237358
 20
819.747284955655
 30
0.0
 41
0.8454735086571374
 10
107.6499999999998
 20
819.7471396265008
 30
0.0
 41
0.8454735086571374
  0
LINE
  5
E9
330
1F
100
AcDbEntity
  8
Make2D$Visible$Curves
370
    -3
100
AcDbLine
 10
107.6499998944861
 20
819.7471396264457
 30
0.0
 11
107.6499999999998
 21
819.2087676815352
 31
0.0
  0
ARC
  5
EA
330
1F
100
AcDbEntity
  8
Make2D$Visible$Curves
370
    -3
100
AcDbCircle
 10
-92.65642490389332
 20
819.6407147221232
 30
0.0
 40
0.3243801504194879
210
0.0
220
0.0
230
-1.0
100
AcDbArc
 50
19.1527041021021
 51
70.84729597812863
  0
LINE
  5
EB
330
1F
100
AcDbEntity
  8
Make2D$Visible$Curves
370
    -3
100
AcDbLine
 10
95.25000007641192
 20
818.4926472080492
 30
0.0
 11
95.25000003546569
 21
818.9471396258308
 31
0.0
  0
LINE
  5
EC
330
1F
100
AcDbEntity
  8
Make2D$Visible$Curves
370
    -3
100
AcDbLine
 10
92.3500002352729
 20
819.2087676815353
 30
0.0
 11
92.35000010551352
 21
819.7471396264457
 31
0.0
  0
ARC
  5
ED
330
1F
100
AcDbEntity
  8
Make2D$Visible$Curves
370
    -3
100
AcDbCircle
 10
-100.0000000000005
 20
803.9471396261622
 30
0.0
 40
16.00000000000371
210
0.0
220
0.0
230
-1.0
100
AcDbArc
 50
72.53227590589708
 51
89.73788138271823
  0
ARC
  5
EE
330
1F
100
AcDbEntity
  8
Make2D$Visible$Curves
370
    -3
100
AcDbCircle
 10
94.25053762342836
 20
818.9498933012186
 30
0.0
 40
0.9972464698657436
210
0.0
220
0.0
230
-1.0
100
AcDbArc
 50
44.61143943306191
 51
90.03088860760397
  0
LINE
  5
EF
330
1F
100
AcDbEntity
  8
Make2D$Visible$Curves
370
    -3
100
AcDbLine
 10
95.15481030281244
 20
819.1958817643973
 30
0.0
 11
95.24999999999991
 21
818.947139626166
 31
0.0
  0
LINE
  5
F0
330
1F
100
AcDbEntity
  8
Make2D$Visible$Curves
370
    -3
100
AcDbLine
 10
-104.7500000000002
 20
818.4360270205048
 30
0.0
 11
-104.7499998341956
 21
818.1989423932657
 31
0.0
  0
ARC
  5
F1
330
1F
100
AcDbEntity
  8
Make2D$Visible$Curves
370
    -3
100
AcDbCircle
 10
92.89926835773821
 20
818.9558107457564
 30
0.0
 40
0.5492727370755631
100
AcDbArc
 50
180.2339390801205
 51
199.8062862332194
  0
LINE
  5
F2
330
1F
100
AcDbEntity
  8
Make2D$Visible$Curves
370
    -3
100
AcDbLine
 10
107.6499999999998
 20
819.2087676815352
 30
0.0
 11
107.6499998008949
 21
818.9535680674489
 31
0.0
  0
ARC
  5
F3
330
1F
100
AcDbEntity
  8
Make2D$Visible$Curves
370
    -3
100
AcDbCircle
 10
105.2964303557641
 20
818.2078363696503
 30
0.0
 40
0.5465007649823604
100
AcDbArc
 50
147.3635602354198
 51
180.9273941326929
  0
ARC
  5
F4
330
1F
100
AcDbEntity
  8
Make2D$Visible$Curves
370
    -3
100
AcDbCircle
 10
-92.77431161894948
 20
819.1496705695228
 30
0.0
 40
0.574343953505439
100
AcDbArc
 50
333.421337810351
 51
359.3920230806311
  0
LINE
  5
F5
330
1F
100
AcDbEntity
  8
Make2D$Visible$Curves
370
    -3
100
AcDbLine
 10
-92.33297289389105
 20
818.7720083943934
 30
0.0
 11
-92.26066380200479
 21
818.8926941171459
 31
0.0
  0
LINE
  5
F6
330
1F
100
AcDbEntity
  8
Make2D$Visible$Curves
370
    -3
100
AcDbLine
 10
-92.44382683647262
 20
818.6413071464414
 30
0.0
 11
-92.33297289389094
 21
818.7720083943934
 31
0.0
  0
LINE
  5
F7
330
1F
100
AcDbEntity
  8
Make2D$Visible$Curves
370
    -3
100
AcDbLine
 10
-107.6680122571012
 20
818.7733848449066
 30
0.0
 11
-107.6588751949435
 21
818.760812966296
 31
0.0
  0
ARC
  5
F8
330
1F
100
AcDbEntity
  8
Make2D$Visible$Curves
370
    -3
100
AcDbCircle
 10
103.2064739365798
 20
825.7635890722534
 30
0.0
 40
8.522402913327124
100
AcDbArc
 50
280.2386459989926
 51
294.9758952904369
  0
ARC
  5
F9
330
1F
100
AcDbEntity
  8
Make2D$Visible$Curves
370
    -3
100
AcDbCircle
 10
69.73798188358387
 20
818.620192589567
 30
0.0
 40
2.427593722566315
100
AcDbArc
 50
300.3247397055796
 51
312.094005107737
  0
SPLINE
  5
FA
330
1F
100
AcDbEntity
  8
Make2D$Visible$Curves
370
    -3
100
AcDbSpline
210
0.0
220
0.0
230
1.0
 70
     8
 71
     3
 72
    10
 73
     6
 74
     0
 42
0.000000001
 43
0.0000000001
 40
-1.0
 40
-1.0
 40
-1.0
 40
-1.0
 40
-0.8
 40
-0.6
 40
-0.4464373141399174
 40
-0.4464373141399174
 40
-0.4464373141399174
 40
-0.4464373141399174
 10
-147.4625513985946
 20
814.3739960936134
 30
0.0
 10
-146.8645928587911
 20
814.3741624623952
 30
0.0
 10
-145.7187775572425
 20
814.4187013305191
 30
0.0
 10
-144.1825077702181
 20
814.6137617211928
 30
0.0
 10
-143.3803270762804
 20
814.8025865878435
 30
0.0
 10
-143.0751011898154
 20
814.8945489364464
 30
0.0
  0
ARC
  5
FB
330
1F
100
AcDbEntity
  8
Make2D$Visible$Curves
370
    -3
100
AcDbCircle
 10
-107.2194881765194
 20
819.1506621247004
 30
0.0
 40
0.5805550684010701
100
AcDbArc
 50
180.6993364531543
 51
207.9520227753587
  0
LINE
  5
FC
330
1F
100
AcDbEntity
  8
Make2D$Visible$Curves
370
    -3
100
AcDbLine
 10
-92.2000000000001
 20
819.9471396261658
 30
0.0
 11
-72.29017557050662
 21
819.9471396261658
 31
0.0
  0
ARC
  5
FD
330
1F
100
AcDbEntity
  8
Make2D$Visible$Curves
370
    -3
100
AcDbCircle
 10
-96.79661701000582
 20
825.7719647772152
 30
0.0
 40
8.53130051191149
100
AcDbArc
 50
280.2191579522882
 51
294.9709615278519
  0
LINE
  5
FE
330
1F
100
AcDbEntity
  8
Make2D$Visible$Curves
370
    -3
100
AcDbLine
 10
-92.3500000000002
 20
819.2087676815352
 30
0.0
 11
-92.35000019910507
 21
818.9535680674489
 31
0.0
  0
SPLINE
  5
FF
330
1F
100
AcDbEntity
  8
Make2D$Visible$Curves
370
    -3
100
AcDbSpline
210
0.0
220
0.0
230
1.0
 70
     8
 71
     3
 72
    12
 73
     8
 74
     0
 42
0.000000001
 43
0.0000000001
 40
0.10089141804521
 40
0.10089141804521
 40
0.10089141804521
 40
0.10089141804521
 40
0.2499986732146852
 40
0.2499986732146852
 40
0.5000059113586801
 40
0.5000059113586801
 40
0.5786259068242636
 40
0.5786259068242636
 40
0.5786259068242636
 40
0.5786259068242636
 10
-107.5553800479129
 20
818.6399946627166
 30
0.0
 10
-107.4625679309257
 20
818.4867323357605
 30
0.0
 10
-107.3020733936674
 20
818.3361689827436
 30
0.0
 10
-106.6983805139523
 20
817.9511155679606
 30
0.0
 10
-106.1375698864537
 20
817.7289464133488
 30
0.0
 10
-105.2110348981354
 20
817.4841094794547
 30
0.0
 10
-104.9751318334428
 20
817.4291058557917
 30
0.0
 10
-104.7269514391097
 20
817.3780549830949
 30
0.0
  0
LINE
  5
100
330
1F
100
AcDbEntity
  8
Make2D$Visible$Curves
370
    -3
100
AcDbLine
 10
104.7499999999998
 20
818.9471396261658
 30
0.0
 11
104.8553550603494
 21
819.2014892417263
 31
0.0
  0
LINE
  5
101
330
1F
100
AcDbEntity
  8
Make2D$Visible$Curves
370
    -3
100
AcDbLine
 10
182.205914349857
 20
597.3028966981766
 30
0.0
 11
182.0265673604782
 21
596.4622310969579
 31
0.0
  0
LINE
  5
102
330
1F
100
AcDbEntity
  8
Make2D$Visible$Curves
370
    -3
100
AcDbLine
 10
143.121128070994
 20
814.8915331746684
 30
0.0
 11
143.0886964904029
 21
816.6102198264807
 31
0.0
  0
ARC
  5
103
330
1F
100
AcDbEntity
  8
Make2D$Visible$Curves
370
    -3
100
AcDbCircle
 10
139.7569576553177
 20
814.9952463379576
 30
0.0
 40
3.288529109578231
100
AcDbArc
 50
358.4088457805018
 51
10.25339010807152
  0
LINE
  5
104
330
1F
100
AcDbEntity
  8
Make2D$Visible$Curves
370
    -3
100
AcDbLine
 10
193.7802267175957
 20
737.0527194943543
 30
0.0
 11
193.7785232339411
 21
737.1086076653232
 31
0.0
  0
SPLINE
  5
105
330
1F
100
AcDbEntity
  8
Make2D$Visible$Curves
370
    -3
100
AcDbSpline
210
0.0
220
0.0
230
1.0
 70
     8
 71
     3
 72
    10
 73
     6
 74
     0
 42
0.000000001
 43
0.0000000001
 40
0.6816057334362455
 40
0.6816057334362455
 40
0.6816057334362455
 40
0.6816057334362455
 40
0.7272727272727
 40
0.8181818181818
 40
0.9090909090909
 40
0.9090909090909
 40
0.9090909090909
 40
0.9090909090909
 10
142.8530152772885
 20
814.9700432720272
 30
0.0
 10
142.8601727248999
 20
815.5106657833282
 30
0.0
 10
142.8831731352864
 20
817.007780229095
 30
0.0
 10
142.92824877315
 20
818.8024888171886
 30
0.0
 10
142.9669226888848
 20
819.3554578265536
 30
0.0
 10
142.9860826118629
 20
819.4250773107896
 30
0.0
  0
SPLINE
  5
106
330
1F
100
AcDbEntity
  8
Make2D$Visible$Curves
370
    -3
100
AcDbSpline
210
0.0
220
0.0
230
1.0
 70
     8
 71
     3
 72
    10
 73
     6
 74
     0
 42
0.000000001
 43
0.0000000001
 40
-0.1812743991217776
 40
-0.1812743991217776
 40
-0.1812743991217776
 40
-0.1812743991217776
 40
-0.1250000127682498
 40
-0.1250000127682498
 40
0.0
 40
0.0
 40
0.0
 40
0.0
 10
192.5212309495186
 20
763.9146253711125
 30
0.0
 10
191.9878150014175
 20
767.6648117551395
 30
0.0
 10
191.3208873834488
 20
771.3892352942554
 30
0.0
 10
188.5913614599596
 20
783.2521655163071
 30
0.0
 10
185.7314005937384
 20
791.2966872543692
 30
0.0
 10
180.9235328797637
 20
798.185858578615
 30
0.0
  0
SPLINE
  5
107
330
1F
100
AcDbEntity
  8
Make2D$Visible$Curves
370
    -3
100
AcDbSpline
210
0.0
220
0.0
230
1.0
 70
     8
 71
     3
 72
    10
 73
     6
 74
     0
 42
0.000000001
 43
0.0000000001
 40
-0.1813713436984375
 40
-0.1813713436984375
 40
-0.1813713436984375
 40
-0.1813713436984375
 40
-0.1250000127682498
 40
-0.1250000127682498
 40
0.0
 40
0.0
 40
0.0
 40
0.0
 10
-192.5239865276952
 20
763.8952436653651
 30
0.0
 10
-191.9901123147794
 20
767.6519794109471
 30
0.0
 10
-191.3223471192774
 20
771.3828910627806
 30
0.0
 10
-188.59136145996
 20
783.252165516306
 30
0.0
 10
-185.7314005937388
 20
791.296687254367
 30
0.0
 10
-180.9235328797643
 20
798.1858585786151
 30
0.0
  0
LINE
  5
108
330
1F
100
AcDbEntity
  8
Make2D$Visible$Curves
370
    -3
100
AcDbLine
 10
-142.2184358408286
 20
815.2245364195411
 30
0.0
 11
-142.2379965206656
 21
815.5134856758136
 31
0.0
  0
ARC
  5
109
330
1F
100
AcDbEntity
  8
Make2D$Visible$Curves
370
    -3
100
AcDbCircle
 10
99.99999999999926
 20
803.9471396261578
 30
0.0
 40
16.49999999999068
100
AcDbArc
 50
72.22557314065207
 51
89.99999999999802
  0
ARC
  5
10A
330
1F
100
AcDbEntity
  8
Make2D$Visible$Curves
370
    -3
100
AcDbCircle
 10
107.2378378429973
 20
819.1478889055518
 30
0.0
 40
0.5621786994756356
100
AcDbArc
 50
336.3704782826997
 51
359.5604566439048
  0
LINE
  5
10B
330
1F
100
AcDbEntity
  8
Make2D$Visible$Curves
370
    -3
100
AcDbLine
 10
-107.7323159229923
 20
818.8785373557181
 30
0.0
 11
-107.6680122571013
 21
818.7733848449066
 31
0.0
  0
LINE
  5
10C
330
1F
100
AcDbEntity
  8
Make2D$Visible$Curves
370
    -3
100
AcDbLine
 10
-92.44382683647274
 20
818.6413071464415
 30
0.0
 11
-92.38248861913945
 21
818.7696945412957
 31
0.0
  0
LINE
  5
10D
330
1F
100
AcDbEntity
  8
Make2D$Visible$Curves
370
    -3
100
AcDbLine
 10
-104.8381551174539
 20
819.1599649063155
 30
0.0
 11
-104.7500000000002
 21
818.947139626166
 31
0.0
  0
SPLINE
  5
10E
330
1F
100
AcDbEntity
  8
Make2D$Visible$Curves
370
    -3
100
AcDbSpline
210
0.0
220
0.0
230
1.0
 70
     8
 71
     3
 72
    12
 73
     8
 74
     0
 42
0.000000001
 43
0.0000000001
 40
0.0850060819884249
 40
0.0850060819884249
 40
0.0850060819884249
 40
0.0850060819884249
 40
0.2499986732146852
 40
0.2499986732146852
 40
0.5000059113586801
 40
0.5000059113586801
 40
0.5778118956743166
 40
0.5778118956743166
 40
0.5778118956743166
 40
0.5778118956743166
 10
92.41726414772273
 20
818.6890657196457
 30
0.0
 10
92.50397330720801
 20
818.5188894123165
 30
0.0
 10
92.67389875359862
 20
818.3514946674685
 30
0.0
 10
93.30161948604785
 20
817.9511155679606
 30
0.0
 10
93.86243011354628
 20
817.7289464133488
 30
0.0
 10
94.78667007049108
 20
817.4847159416518
 30
0.0
 10
95.01998473425391
 20
817.430245225216
 30
0.0
 10
95.26534372413295
 20
817.3796419565712
 30
0.0
  0
SPLINE
  5
10F
330
1F
100
AcDbEntity
  8
Make2D$Visible$Curves
370
    -3
100
AcDbSpline
210
0.0
220
0.0
230
1.0
 70
     8
 71
     3
 72
    10
 73
     6
 74
     0
 42
0.000000001
 43
0.0000000001
 40
0.682737005578606
 40
0.682737005578606
 40
0.682737005578606
 40
0.682737005578606
 40
0.7272727272727
 40
0.8181818181818
 40
0.9090909090909
 40
0.9090909090909
 40
0.9090909090909
 40
0.9090909090909
 10
-142.8535481749978
 20
815.0101467047109
 30
0.0
 10
-142.8605540325653
 20
815.5354384639181
 30
0.0
 10
-142.8833972941282
 20
817.0167052231019
 30
0.0
 10
-142.9282487731503
 20
818.8024888171886
 30
0.0
 10
-142.9669226888851
 20
819.3554578265536
 30
0.0
 10
-142.9860826118632
 20
819.4250773107896
 30
0.0
  0
ARC
  5
110
330
1F
100
AcDbEntity
  8
Make2D$Visible$Curves
370
    -3
100
AcDbCircle
 10
-159.9476739834612
 20
813.541497023605
 30
0.0
 40
4.899942310441387
100
AcDbArc
 50
81.59352088479702
 51
105.78540524828
  0
SPLINE
  5
111
330
1F
100
AcDbEntity
  8
Make2D$Visible$Curves
370
    -3
100
AcDbSpline
210
0.0
220
0.0
230
1.0
 70
     8
 71
     3
 72
    13
 73
     9
 74
     0
 42
0.000000001
 43
0.0000000001
 40
-1.0
 40
-1.0
 40
-1.0
 40
-1.0
 40
-0.8571428571429
 40
-0.7142857142857
 40
-0.5714285714286
 40
-0.4285714285714
 40
-0.2857142857143
 40
-0.2388201308679317
 40
-0.2388201308679317
 40
-0.2388201308679317
 40
-0.2388201308679317
 10
62.89723784918095
 20
815.1530181139564
 30
0.0
 10
63.5199896893559
 20
815.1530954192915
 30
0.0
 10
64.74645864445182
 20
815.1864410599676
 30
0.0
 10
66.58288977668218
 20
815.3423086080766
 30
0.0
 10
68.25462020506717
 20
815.6010918638672
 30
0.0
 10
69.67390358937047
 20
815.9501744265274
 30
0.0
 10
70.5148218743256
 20
816.2752322384517
 30
0.0
 10
70.88041700952061
 20
816.4748072784679
 30
0.0
 10
70.9636748808345
 20
816.5247480166101
 30
0.0
  0
LINE
  5
112
330
1F
100
AcDbEntity
  8
Make2D$Visible$Curves
370
    -3
100
AcDbLine
 10
92.26768407700484
 20
818.8785373557319
 30
0.0
 11
92.39173528392547
 21
818.6977237701897
 31
0.0
  0
SPLINE
  5
113
330
1F
100
AcDbEntity
  8
Make2D$Visible$Curves
370
    -3
100
AcDbSpline
210
0.0
220
0.0
230
1.0
 70
     8
 71
     3
 72
    14
 73
    10
 74
     0
 42
0.000000001
 43
0.0000000001
 40
0.0752203968731406
 40
0.0752203968731406
 40
0.0752203968731406
 40
0.0752203968731406
 40
0.125
 40
0.25
 40
0.375
 40
0.5
 40
0.625
 40
0.75
 40
0.8622905985018826
 40
0.8622905985018826
 40
0.8622905985018826
 40
0.8622905985018826
 10
92.39173528392547
 20
818.6977237701897
 30
0.0
 10
92.47851995605919
 20
818.597471899373
 30
0.0
 10
92.8916959436853
 20
818.2441909427064
 30
0.0
 10
94.3145138216799
 20
817.6678246937037
 30
0.0
 10
97.11466344269985
 20
817.2036349417481
 30
0.0
 10
99.99999999999983
 20
817.0737968438189
 30
0.0
 10
102.8853365572998
 20
817.2036349417481
 30
0.0
 10
105.590584242865
 20
817.6520924965599
 30
0.0
 10
106.7496384113176
 20
818.1000544386707
 30
0.0
 10
107.1297848979987
 20
818.3219446257867
 30
0.0
  0
ARC
  5
114
330
1F
100
AcDbEntity
  8
Make2D$Visible$Curves
370
    -3
100
AcDbCircle
 10
106.3340216558528
 20
819.8160898447375
 30
0.0
 40
1.692840533796462
100
AcDbArc
 50
298.0392121551153
 51
322.2225377217119
  0
LINE
  5
115
330
1F
100
AcDbEntity
  8
Make2D$Visible$Curves
370
    -3
100
AcDbLine
 10
107.6720361148479
 20
818.779062178576
 30
0.0
 11
107.7528814157779
 21
818.922555800391
 31
0.0
  0
LINE
  5
116
330
1F
100
AcDbEntity
  8
Make2D$Visible$Curves
370
    -3
100
AcDbLine
 10
141.5018513688032
 20
819.4022236940984
 30
0.0
 11
141.6750779000137
 21
815.8533983902928
 31
0.0
  0
ARC
  5
117
330
1F
100
AcDbEntity
  8
Make2D$Visible$Curves
370
    -3
100
AcDbCircle
 10
-144.3800699119427
 20
819.4021698406531
 30
0.0
 40
4.692716652619406
100
AcDbArc
 50
286.1458762295383
 51
296.2454615459851
  0
SPLINE
  5
118
330
1F
100
AcDbEntity
  8
Make2D$Visible$Curves
370
    -3
100
AcDbSpline
210
0.0
220
0.0
230
1.0
 70
     8
 71
     3
 72
    15
 73
    11
 74
     0
 42
0.000000001
 43
0.0000000001
 40
-0.9352325687368988
 40
-0.9352325687368988
 40
-0.9352325687368988
 40
-0.9352325687368988
 40
-0.875
 40
-0.75
 40
-0.625
 40
-0.5
 40
-0.375
 40
-0.25
 40
-0.125
 40
-0.0845537161300242
 40
-0.0845537161300242
 40
-0.0845537161300242
 40
-0.0845537161300242
 10
-107.6588751949435
 20
818.760812966296
 30
0.0
 10
-107.5694120420708
 20
818.6397906102279
 30
0.0
 10
-107.1579160585968
 20
818.2642881625204
 30
0.0
 10
-105.6854861783001
 20
817.6678246937042
 30
0.0
 10
-102.8853365573001
 20
817.2036349417486
 30
0.0
 10
-100.0000000000002
 20
817.0737968438193
 30
0.0
 10
-97.11466344270019
 20
817.2036349417485
 30
0.0
 10
-94.31451382168012
 20
817.6678246937042
 30
0.0
 10
-92.93599386576301
 20
818.2262463922615
 30
0.0
 10
-92.52383488273205
 20
818.559790308499
 30
0.0
 10
-92.44382683647274
 20
818.6413071464415
 30
0.0
  0
ARC
  5
119
330
1F
100
AcDbEntity
  8
Make2D$Visible$Curves
370
    -3
100
AcDbCircle
 10
-70.0561559547788
 20
816.7610965135128
 30
0.0
 40
0.8575467013496108
100
AcDbArc
 50
194.2194746598132
 51
229.6032004270903
  0
LINE
  5
11A
330
1F
100
AcDbEntity
  8
Make2D$Visible$Curves
370
    -3
100
AcDbLine
 10
-142.2970360482437
 20
815.1972406468093
 30
0.0
 11
-142.3023852094501
 21
815.0786791332772
 31
0.0
  0
LINE
  5
11B
330
1F
100
AcDbEntity
  8
Make2D$Visible$Curves
370
    -3
100
AcDbLine
 10
71.6757299791463
 20
817.3127993520593
 30
0.0
 11
72.08347505537887
 21
819.4022916689493
 31
0.0
  0
ARC
  5
11C
330
1F
100
AcDbEntity
  8
Make2D$Visible$Curves
370
    -3
100
AcDbCircle
 10
-70.05615595478025
 20
816.7610965135117
 30
0.0
 40
0.8575467013475958
210
0.0
220
0.0
230
-1.0
100
AcDbArc
 50
194.219474659769
 51
229.6032004271207
  0
SPLINE
  5
11D
330
1F
100
AcDbEntity
  8
Make2D$Visible$Curves
370
    -3
100
AcDbSpline
210
0.0
220
0.0
230
1.0
 70
     8
 71
     3
 72
    12
 73
     8
 74
     0
 42
0.000000001
 43
0.0000000001
 40
0.0
 40
0.0
 40
0.0
 40
0.0
 40
0.1249992306322566
 40
0.1249992306322566
 40
0.2500158973788324
 40
0.2500158973788324
 40
0.2600638046885115
 40
0.2600638046885115
 40
0.2600638046885115
 40
0.2600638046885115
 10
-182.1484196016192
 20
597.3212272750434
 30
0.0
 10
-178.110856975899
 20
578.3084381851265
 30
0.0
 10
-172.8077386449505
 20
558.8474844197021
 30
0.0
 10
-160.3738995892909
 20
522.2861461932256
 30
0.0
 10
-153.404028942985
 20
505.4167855957289
 30
0.0
 10
-145.4407014453528
 20
489.3141287176298
 30
0.0
 10
-144.8446376996905
 20
488.1268027712056
 30
0.0
 10
-144.2450396038199
 20
486.9500252491689
 30
0.0
  0
SPLINE
  5
11E
330
1F
100
AcDbEntity
  8
Make2D$Visible$Curves
370
    -3
100
AcDbSpline
210
0.0
220
0.0
230
1.0
 70
     8
 71
     3
 72
    14
 73
    10
 74
     0
 42
0.000000001
 43
0.0000000001
 40
0.2603593020906356
 40
0.2603593020906356
 40
0.2603593020906356
 40
0.2603593020906356
 40
0.4999976313061264
 40
0.4999976313061264
 40
0.7499997838519779
 40
0.7499997838519779
 40
0.8749998919259889
 40
0.8749998919259889
 40
1.0
 40
1.0
 40
1.0
 40
1.0
 10
-144.1921299642991
 20
486.8462295950892
 30
0.0
 10
-129.887013973675
 20
458.7953805526071
 30
0.0
 10
-113.5734035805168
 20
436.743556552272
 30
0.0
 10
-79.20564417803831
 20
402.3815521948205
 30
0.0
 10
-61.75161735181081
 20
390.9838053216548
 30
0.0
 10
-37.70606310966872
 20
380.4672593260201
 30
0.0
 10
-30.01095308025714
 20
378.0323331269618
 30
0.0
 10
-14.91859186911239
 20
374.8296853601577
 30
0.0
 10
-7.442191798913598
 20
374.064120344014
 30
0.0
 10
-0.000000000002899
 20
374.0640268401411
 30
0.0
  0
SPLINE
  5
11F
330
1F
100
AcDbEntity
  8
Make2D$Visible$Curves
370
    -3
100
AcDbSpline
210
0.0
220
0.0
230
1.0
 70
     8
 71
     3
 72
    18
 73
    14
 74
     0
 42
0.000000001
 43
0.0000000001
 40
0.0
 40
0.0
 40
0.0
 40
0.0
 40
0.1249992306322566
 40
0.1249992306322566
 40
0.2500158973787873
 40
0.2500158973787873
 40
0.4999976313060349
 40
0.4999976313060349
 40
0.7499997838519776
 40
0.7499997838519776
 40
0.8749998919259888
 40
0.8749998919259888
 40
1.0
 40
1.0
 40
1.0
 40
1.0
 10
182.1484196016189
 20
597.3212272750434
 30
0.0
 10
178.1108569758997
 20
578.3084381851236
 30
0.0
 10
172.8077386449403
 20
558.8474844196987
 30
0.0
 10
160.3738995892863
 20
522.2861461932231
 30
0.0
 10
153.4040289429922
 20
505.4167855957265
 30
0.0
 10
131.2943447677048
 20
460.7087589493624
 30
0.0
 10
114.2994049177968
 20
437.4694363171552
 30
0.0
 10
79.20564417804923
 20
402.3815521948114
 30
0.0
 10
61.75161735181081
 20
390.9838053216481
 30
0.0
 10
37.70606310966247
 20
380.467259326021
 30
0.0
 10
30.01095308025168
 20
378.0323331269602
 30
0.0
 10
14.91859186910921
 20
374.829685360136
 30
0.0
 10
7.442191798909619
 20
374.064120344013
 30
0.0
 10
-0.000000000002899
 20
374.0640268401411
 30
0.0
  0
SPLINE
  5
120
330
1F
100
AcDbEntity
  8
Make2D$Visible$Curves
370
    -3
100
AcDbSpline
210
0.0
220
0.0
230
1.0
 70
     8
 71
     3
 72
    16
 73
    12
 74
     0
 42
0.000000001
 43
0.0000000001
 40
-1.0
 40
-1.0
 40
-1.0
 40
-1.0
 40
-0.7500000708644048
 40
-0.7500000708644048
 40
-0.5000000510729994
 40
-0.5000000510729994
 40
-0.3750000383047495
 40
-0.3750000383047495
 40
-0.2500000255364996
 40
-0.2500000255364996
 40
-0.1812743991217776
 40
-0.1812743991217776
 40
-0.1812743991217776
 40
-0.1812743991217776
 10
182.1484196016189
 20
597.3212272750434
 30
0.0
 10
185.7214283786574
 20
614.1119313883368
 30
0.0
 10
188.4995691122454
 20
631.0705084220664
 30
0.0
 10
192.5870421559065
 20
665.0992959466323
 30
0.0
 10
193.9456450097305
 20
682.1683306807206
 30
0.0
 10
194.816362503642
 20
707.7196236872978
 30
0.0
 10
194.9022549621853
 20
716.2283806534226
 30
0.0
 10
194.7443821452683
 20
733.202987262896
 30
0.0
 10
194.5794994031137
 20
741.6715394879654
 30
0.0
 10
193.6249802177878
 20
754.7162995810127
 30
0.0
 10
193.1726702196433
 20
759.3346747911971
 30
0.0
 10
192.5212309495186
 20
763.9146253711125
 30
0.0
  0
SPLINE
  5
121
330
1F
100
AcDbEntity
  8
Make2D$Visible$Curves
370
    -3
100
AcDbSpline
210
0.0
220
0.0
230
1.0
 70
     8
 71
     3
 72
    16
 73
    12
 74
     0
 42
0.000000001
 43
0.0000000001
 40
-1.0
 40
-1.0
 40
-1.0
 40
-1.0
 40
-0.7500000708644049
 40
-0.7500000708644049
 40
-0.5000000510729994
 40
-0.5000000510729994
 40
-0.3750000383047496
 40
-0.3750000383047496
 40
-0.2500000255364997
 40
-0.2500000255364997
 40
-0.1813713436984375
 40
-0.1813713436984375
 40
-0.1813713436984375
 40
-0.1813713436984375
 10
-182.1484196016192
 20
597.3212272750434
 30
0.0
 10
-185.7214283786577
 20
614.1119313883366
 30
0.0
 10
-188.4995691122458
 20
631.0705084220662
 30
0.0
 10
-192.5870421559068
 20
665.0992959466319
 30
0.0
 10
-193.9456450097308
 20
682.16833068072
 30
0.0
 10
-194.8163625036423
 20
707.7196236872971
 30
0.0
 10
-194.9022549621855
 20
716.2283806534219
 30
0.0
 10
-194.7443821452685
 20
733.2029872628952
 30
0.0
 10
-194.579499403114
 20
741.6715394879648
 30
0.0
 10
-193.6254578802117
 20
754.7097716957501
 30
0.0
 10
-193.173946053134
 20
759.3216453844852
 30
0.0
 10
-192.5239865276952
 20
763.8952436653651
 30
0.0
  0
LINE
  5
122
330
1F
100
AcDbEntity
  8
Make2D$Visible$Curves
370
    -3
100
AcDbLine
 10
142.3017179042308
 20
818.6296691855434
 30
0.0
 11
142.2633639878242
 21
819.1128124836649
 31
0.0
  0
ARC
  5
123
330
1F
100
AcDbEntity
  8
Make2D$Visible$Curves
370
    -3
100
AcDbCircle
 10
-69.60115463330362
 20
818.793445800846
 30
0.0
 40
2.647672154590121
100
AcDbArc
 50
227.9551563646203
 51
242.6006550604896
  0
LINE
  5
124
330
1F
100
AcDbEntity
  8
Make2D$Visible$Curves
370
    -3
100
AcDbLine
 10
-142.2075070056106
 20
815.1680619684488
 30
0.0
 11
-142.2806172030743
 21
815.0991865541748
 31
0.0
  0
ARC
  5
125
330
1F
100
AcDbEntity
  8
Make2D$Visible$Curves
370
    -3
100
AcDbCircle
 10
143.3229175662727
 20
817.1642169673919
 30
0.0
 40
2.220916919230878
100
AcDbArc
 50
229.5019202385545
 51
248.4484171999591
  0
LINE
  5
126
330
1F
100
AcDbEntity
  8
Make2D$Visible$Curves
370
    -3
100
AcDbLine
 10
142.5070887803095
 20
815.0985704937377
 30
0.0
 11
142.9754580757747
 21
814.9254136306971
 31
0.0
  0
SPLINE
  5
127
330
1F
100
AcDbEntity
  8
Make2D$Visible$Curves
370
    -3
100
AcDbSpline
210
0.0
220
0.0
230
1.0
 70
     8
 71
     3
 72
    10
 73
     6
 74
     0
 42
0.000000001
 43
0.0000000001
 40
0.4294590565078015
 40
0.4294590565078015
 40
0.4294590565078015
 40
0.4294590565078015
 40
0.6
 40
0.8
 40
1.0
 40
1.0
 40
1.0
 40
1.0
 10
142.9754580757747
 20
814.9254136306971
 30
0.0
 10
143.3036976999278
 20
814.8208696507477
 30
0.0
 10
144.1353890158243
 20
814.6197443960574
 30
0.0
 10
145.7187775572422
 20
814.4187013305191
 30
0.0
 10
146.8645928587909
 20
814.3741624623952
 30
0.0
 10
147.4625513985943
 20
814.3739960936134
 30
0.0
  0
ARC
  5
128
330
1F
100
AcDbEntity
  8
Make2D$Visible$Curves
370
    -3
100
AcDbCircle
 10
-138.8846501242131
 20
819.4378402277399
 30
0.0
 40
2.617443579554781
210
0.0
220
0.0
230
-1.0
100
AcDbArc
 50
168.8396743702993
 51
180.7796691608704
  0
ARC
  5
129
330
1F
100
AcDbEntity
  8
Make2D$Visible$Curves
370
    -3
100
AcDbCircle
 10
142.3833721159309
 20
819.0503324033156
 30
0.0
 40
0.1616196684055596
100
AcDbArc
 50
143.9706454246757
 51
190.1928711060686
  0
LINE
  5
12A
330
1F
100
AcDbEntity
  8
Make2D$Visible$Curves
370
    -3
100
AcDbLine
 10
71.00627285274328
 20
816.4796693522935
 30
0.0
 11
70.61284421254726
 21
816.1078911853849
 31
0.0
  0
ARC
  5
12B
330
1F
100
AcDbEntity
  8
Make2D$Visible$Curves
370
    -3
100
AcDbCircle
 10
-138.8846501242171
 20
819.4378402277403
 30
0.0
 40
2.617443579551118
100
AcDbArc
 50
168.8396743702911
 51
180.7796691608789
  0
LINE
  5
12C
330
1F
100
AcDbEntity
  8
Make2D$Visible$Curves
370
    -3
100
AcDbLine
 10
-95.25000000000017
 20
818.4360270205048
 30
0.0
 11
-95.25000016580469
 21
818.1989423932658
 31
0.0
  0
SPLINE
  5
12D
330
1F
100
AcDbEntity
  8
Make2D$Visible$Curves
370
    -3
100
AcDbSpline
210
0.0
220
0.0
230
1.0
 70
     8
 71
     3
 72
    47
 73
    43
 74
     0
 42
0.000000001
 43
0.0000000001
 40
2.054168026979035
 40
2.054168026979035
 40
2.054168026979035
 40
2.054168026979035
 40
2.508592267017461
 40
2.508592267017461
 40
2.508592267017461
 40
2.964700316507089
 40
2.964700316507089
 40
2.964700316507089
 40
3.423647204208761
 40
3.423647204208761
 40
3.423647204208761
 40
3.884632642164919
 40
3.884632642164919
 40
3.884632642164919
 40
4.34727905997418
 40
4.34727905997418
 40
4.34727905997418
 40
4.811549230402693
 40
4.811549230402693
 40
4.811549230402693
 40
5.277389110995394
 40
5.277389110995394
 40
5.277389110995394
 40
5.743888158003551
 40
5.743888158003551
 40
5.743888158003551
 40
6.210518520358461
 40
6.210518520358461
 40
6.210518520358461
 40
6.680414705905974
 40
6.680414705905974
 40
6.680414705905974
 40
7.160031325766895
 40
7.160031325766895
 40
7.160031325766895
 40
7.656151814380131
 40
7.656151814380131
 40
7.656151814380131
 40
8.17712463053337
 40
8.17712463053337
 40
8.17712463053337
 40
8.684292409018305
 40
8.684292409018305
 40
8.684292409018305
 40
8.684292409018305
 10
-104.8214262545568
 20
818.5013294398907
 30
0.0
 10
-104.7993237524791
 20
818.4856043817232
 30
0.0
 10
-104.7671311960631
 20
818.4649302703087
 30
0.0
 10
-104.7258002319305
 20
818.441850922082
 30
0.0
 10
-104.6843258058948
 20
818.4186914642502
 30
0.0
 10
-104.6335335029182
 20
818.3929987797337
 30
0.0
 10
-104.5747349492656
 20
818.3663783331157
 30
0.0
 10
-104.5155594460452
 20
818.3395872264178
 30
0.0
 10
-104.4480301012675
 20
818.3117190903452
 30
0.0
 10
-104.373414593378
 20
818.2837823311786
 30
0.0
 10
-104.2984489646305
 20
818.2557144834173
 30
0.0
 10
-104.216058840221
 20
818.2274612843842
 30
0.0
 10
-104.1273637561945
 20
818.1996692805171
 30
0.0
 10
-104.0383305152769
 20
818.1717713174786
 30
0.0
 10
-103.9426972136378
 20
818.1442529844619
 30
0.0
 10
-103.841442118461
 20
818.1175453419414
 30
0.0
 10
-103.7398159719751
 20
818.090739828734
 30
0.0
 10
-103.6323196887035
 20
818.0646920975997
 30
0.0
 10
-103.5198245973842
 20
818.0397026135606
 30
0.0
 10
-103.4069368139737
 20
818.0146258975133
 30
0.0
 10
-103.2888472798698
 20
817.9905750940042
 30
0.0
 10
-103.166353737467
 20
817.9677682536803
 30
0.0
 10
-103.0436772374007
 20
817.9449273488162
 30
0.0
 10
-102.9164492186963
 20
817.9233076768114
 30
0.0
 10
-102.7854157011146
 20
817.9030715784927
 30
0.0
 10
-102.6543379134262
 20
817.8828286433412
 30
0.0
 10
-102.5193449362144
 20
817.8639528011861
 30
0.0
 10
-102.3811475821637
 20
817.8465667496037
 30
0.0
 10
-102.2419783031135
 20
817.8290584240581
 30
0.0
 10
-102.0994719675928
 20
817.8130493838629
 30
0.0
 10
-101.9543314329161
 20
817.7986344344091
 30
0.0
 10
-101.8061869534666
 20
817.783921141614
 30
0.0
 10
-101.6552223239962
 20
817.770860753287
 30
0.0
 10
-101.5021710862356
 20
817.7595278953089
 30
0.0
 10
-101.3438544761757
 20
817.7478051566782
 30
0.0
 10
-101.1832354577767
 20
817.7379254846015
 30
0.0
 10
-101.0211154526049
 20
817.7299460699526
 30
0.0
 10
-100.8508803494927
 20
817.7215672367906
 30
0.0
 10
-100.6789187876701
 20
817.7152800405668
 30
0.0
 10
-100.5061580508615
 20
817.7111235478885
 30
0.0
 10
-100.3379781354093
 20
817.7070772663078
 30
0.0
 10
-100.1689744662738
 20
817.7050485420624
 30
0.0
 10
-100.000000000322
 20
817.7050482028532
 30
0.0
  0
SPLINE
  5
12E
330
1F
100
AcDbEntity
  8
Make2D$Visible$Curves
370
    -3
100
AcDbSpline
210
0.0
220
0.0
230
1.0
 70
     8
 71
     3
 72
    47
 73
    43
 74
     0
 42
0.000000001
 43
0.0000000001
 40
0.0864348263228532
 40
0.0864348263228532
 40
0.0864348263228532
 40
0.0864348263228532
 40
0.5936026054126032
 40
0.5936026054126032
 40
0.5936026054126032
 40
1.114575421565878
 40
1.114575421565878
 40
1.114575421565878
 40
1.610695910179103
 40
1.610695910179103
 40
1.610695910179103
 40
2.090312530040012
 40
2.090312530040012
 40
2.090312530040012
 40
2.560208715587543
 40
2.560208715587543
 40
2.560208715587543
 40
3.026839077942414
 40
3.026839077942414
 40
3.026839077942414
 40
3.493338124950613
 40
3.493338124950613
 40
3.493338124950613
 40
3.959178005543296
 40
3.959178005543296
 40
3.959178005543296
 40
4.423448175971822
 40
4.423448175971822
 40
4.423448175971822
 40
4.886094593781098
 40
4.886094593781098
 40
4.886094593781098
 40
5.347080031737232
 40
5.347080031737232
 40
5.347080031737232
 40
5.806026919438909
 40
5.806026919438909
 40
5.806026919438909
 40
6.262134968928532
 40
6.262134968928532
 40
6.262134968928532
 40
6.716559208966986
 40
6.716559208966986
 40
6.716559208966986
 40
6.716559208966986
 10
-100.000000000283
 20
817.7050482028516
 30
0.0
 10
-99.83102553412783
 20
817.7050485420543
 30
0.0
 10
-99.66202186479478
 20
817.7070772663013
 30
0.0
 10
-99.49384194913904
 20
817.7111235478876
 30
0.0
 10
-99.32108121233279
 20
817.7152800405667
 30
0.0
 10
-99.14911965050493
 20
817.7215672367907
 30
0.0
 10
-98.97888454739535
 20
817.7299460699526
 30
0.0
 10
-98.81676454222332
 20
817.7379254846015
 30
0.0
 10
-98.65614552382482
 20
817.7478051566782
 30
0.0
 10
-98.49782891376475
 20
817.7595278953089
 30
0.0
 10
-98.34477767600077
 20
817.7708607532874
 30
0.0
 10
-98.19381304653706
 20
817.7839211416137
 30
0.0
 10
-98.04566856708408
 20
817.7986344344091
 30
0.0
 10
-97.9005280324065
 20
817.813049383863
 30
0.0
 10
-97.75802169688774
 20
817.829058424058
 30
0.0
 10
-97.61885241783654
 20
817.8465667496037
 30
0.0
 10
-97.4806550637831
 20
817.8639528011865
 30
0.0
 10
-97.34566208657685
 20
817.8828286433409
 30
0.0
 10
-97.21458429888565
 20
817.9030715784927
 30
0.0
 10
-97.08355078130325
 20
817.9233076768115
 30
0.0
 10
-96.95632276260022
 20
817.9449273488161
 30
0.0
 10
-96.83364626253336
 20
817.9677682536803
 30
0.0
 10
-96.7111527201335
 20
817.9905750940036
 30
0.0
 10
-96.59306318602381
 20
818.0146258975138
 30
0.0
 10
-96.480175402616
 20
818.0397026135606
 30
0.0
 10
-96.36768031129651
 20
818.0646920975997
 30
0.0
 10
-96.26018402802544
 20
818.090739828734
 30
0.0
 10
-96.15855788153937
 20
818.1175453419414
 30
0.0
 10
-96.05730278636457
 20
818.1442529844614
 30
0.0
 10
-95.96166948472131
 20
818.1717713174793
 30
0.0
 10
-95.87263624380574
 20
818.1996692805171
 30
0.0
 10
-95.78394115977977
 20
818.2274612843839
 30
0.0
 10
-95.70155103536928
 20
818.2557144834175
 30
0.0
 10
-95.62658540662238
 20
818.2837823311786
 30
0.0
 10
-95.55196989873156
 20
818.3117190903455
 30
0.0
 10
-95.48444055395606
 20
818.3395872264174
 30
0.0
 10
-95.42526505073471
 20
818.3663783331157
 30
0.0
 10
-95.36646649708285
 20
818.3929987797335
 30
0.0
 10
-95.3156741941047
 20
818.4186914642506
 30
0.0
 10
-95.27419976806976
 20
818.4418509220822
 30
0.0
 10
-95.23286880393636
 20
818.4649302703094
 30
0.0
 10
-95.20067624752181
 20
818.4856043817227
 30
0.0
 10
-95.17857374544354
 20
818.5013294398907
 30
0.0
  0
ARC
  5
12F
330
1F
100
AcDbEntity
  8
Make2D$Visible$Curves
370
    -3
100
AcDbCircle
 10
-94.70356964423529
 20
818.2078363696495
 30
0.0
 40
0.5465007649832817
100
AcDbArc
 50
147.3635602353684
 51
180.927394133347
  0
ARC
  5
130
330
1F
100
AcDbEntity
  8
Make2D$Visible$Curves
370
    -3
100
AcDbCircle
 10
86.92533186201543
 20
815.9302849245685
 30
0.0
 40
8.85446282380408
210
0.0
220
0.0
230
-1.0
100
AcDbArc
 50
19.92048576451317
 51
24.84239815798378
  0
POLYLINE
  5
131
330
1F
100
AcDbEntity
  8
Make2D$Visible$Curves
370
    -3
100
AcDb2dPolyline
 66
     1
 10
0.0
 20
0.0
 30
0.0
  0
VERTEX
  5
132
330
131
100
AcDbEntity
  8
Make2D$Visible$Curves
370
    -3
100
AcDbVertex
100
AcDb2dVertex
 10
-105.7500000000003
 20
819.9471396261661
 30
0.0
 42
-0.1989123673795876
  0
VERTEX
  5
133
330
131
100
AcDbEntity
  8
Make2D$Visible$Curves
370
    -3
100
AcDbVertex
100
AcDb2dVertex
 10
-105.0428932188136
 20
819.6542464073525
 30
0.0
  0
VERTEX
  5
134
330
131
100
AcDbEntity
  8
Make2D$Visible$Curves
370
    -3
100
AcDbVertex
100
AcDb2dVertex
 10
-104.8381551174539
 20
819.1599649063155
 30
0.0
  0
SEQEND
  5
135
330
131
100
AcDbEntity
  8
Make2D$Visible$Curves
370
    -3
  0
ARC
  5
136
330
1F
100
AcDbEntity
  8
Make2D$Visible$Curves
370
    -3
100
AcDbCircle
 10
106.5752977100262
 20
819.2246525933489
 30
0.0
 40
1.13718783180349
100
AcDbArc
 50
301.8183537243399
 51
336.4172631040936
  0
SPLINE
  5
137
330
1F
100
AcDbEntity
  8
Make2D$Visible$Curves
370
    -3
100
AcDbSpline
210
0.0
220
0.0
230
1.0
 70
     8
 71
     3
 72
    47
 73
    43
 74
     0
 42
0.000000001
 43
0.0000000001
 40
2.0541680269813
 40
2.0541680269813
 40
2.0541680269813
 40
2.0541680269813
 40
2.508592267019813
 40
2.508592267019813
 40
2.508592267019813
 40
2.964700316509443
 40
2.964700316509443
 40
2.964700316509443
 40
3.423647204211085
 40
3.423647204211085
 40
3.423647204211085
 40
3.884632642167244
 40
3.884632642167244
 40
3.884632642167244
 40
4.347279059976528
 40
4.347279059976528
 40
4.347279059976528
 40
4.811549230405053
 40
4.811549230405053
 40
4.811549230405053
 40
5.277389110997728
 40
5.277389110997728
 40
5.277389110997728
 40
5.74388815800591
 40
5.74388815800591
 40
5.74388815800591
 40
6.210518520360785
 40
6.210518520360785
 40
6.210518520360785
 40
6.68041470590834
 40
6.68041470590834
 40
6.68041470590834
 40
7.160031325769251
 40
7.160031325769251
 40
7.160031325769251
 40
7.656151814382461
 40
7.656151814382461
 40
7.656151814382461
 40
8.177124630535705
 40
8.177124630535705
 40
8.177124630535705
 40
8.684292409020685
 40
8.684292409020685
 40
8.684292409020685
 40
8.684292409020685
 10
95.17857374544332
 20
818.5013294398905
 30
0.0
 10
95.20067624752193
 20
818.4856043817224
 30
0.0
 10
95.23286880393556
 20
818.4649302703097
 30
0.0
 10
95.27419976806942
 20
818.4418509220822
 30
0.0
 10
95.31567419410482
 20
818.4186914642504
 30
0.0
 10
95.3664664970824
 20
818.3929987797336
 30
0.0
 10
95.42526505073425
 20
818.3663783331158
 30
0.0
 10
95.48444055395458
 20
818.3395872264181
 30
0.0
 10
95.55196989873258
 20
818.311719090345
 30
0.0
 10
95.62658540662216
 20
818.2837823311786
 30
0.0
 10
95.70155103536939
 20
818.2557144834173
 30
0.0
 10
95.78394115977898
 20
818.2274612843842
 30
0.0
 10
95.87263624380552
 20
818.1996692805172
 30
0.0
 10
95.9616694847229
 20
818.1717713174787
 30
0.0
 10
96.05730278636241
 20
818.1442529844619
 30
0.0
 10
96.15855788153891
 20
818.1175453419414
 30
0.0
 10
96.26018402802305
 20
818.0907398287345
 30
0.0
 10
96.36768031129822
 20
818.0646920975994
 30
0.0
 10
96.48017540261577
 20
818.0397026135606
 30
0.0
 10
96.59306318602597
 20
818.0146258975133
 30
0.0
 10
96.71115272013054
 20
817.990575094004
 30
0.0
 10
96.83364626253302
 20
817.9677682536803
 30
0.0
 10
96.95632276259852
 20
817.9449273488162
 30
0.0
 10
97.08355078130438
 20
817.9233076768113
 30
0.0
 10
97.21458429888531
 20
817.9030715784927
 30
0.0
 10
97.34566208657401
 20
817.8828286433412
 30
0.0
 10
97.48065506378549
 20
817.8639528011861
 30
0.0
 10
97.61885241783631
 20
817.8465667496037
 30
0.0
 10
97.75802169688262
 20
817.8290584240585
 30
0.0
 10
97.90052803241116
 20
817.8130493838624
 30
0.0
 10
98.04566856708385
 20
817.798634434409
 30
0.0
 10
98.19381304653467
 20
817.7839211416139
 30
0.0
 10
98.3447776760026
 20
817.7708607532871
 30
0.0
 10
98.49782891376441
 20
817.7595278953089
 30
0.0
 10
98.65614552382493
 20
817.747805156678
 30
0.0
 10
98.81676454222253
 20
817.7379254846015
 30
0.0
 10
98.97888454739501
 20
817.7299460699526
 30
0.0
 10
99.14911965050595
 20
817.7215672367907
 30
0.0
 10
99.32108121233131
 20
817.7152800405667
 30
0.0
 10
99.49384194913847
 20
817.7111235478885
 30
0.0
 10
99.66202186459105
 20
817.7070772663078
 30
0.0
 10
99.83102553372595
 20
817.7050485420623
 30
0.0
 10
99.99999999967798
 20
817.705048202853
 30
0.0
  0
SPLINE
  5
138
330
1F
100
AcDbEntity
  8
Make2D$Visible$Curves
370
    -3
100
AcDbSpline
210
0.0
220
0.0
230
1.0
 70
     8
 71
     3
 72
    47
 73
    43
 74
     0
 42
0.000000001
 43
0.0000000001
 40
0.0864348263228271
 40
0.0864348263228271
 40
0.0864348263228271
 40
0.0864348263228271
 40
0.5936026054125552
 40
0.5936026054125552
 40
0.5936026054125552
 40
1.11457542156584
 40
1.11457542156584
 40
1.11457542156584
 40
1.610695910179065
 40
1.610695910179065
 40
1.610695910179065
 40
2.090312530039975
 40
2.090312530039975
 40
2.090312530039975
 40
2.560208715587502
 40
2.560208715587502
 40
2.560208715587502
 40
3.02683907794243
 40
3.02683907794243
 40
3.02683907794243
 40
3.493338124950583
 40
3.493338124950583
 40
3.493338124950583
 40
3.959178005543263
 40
3.959178005543263
 40
3.959178005543263
 40
4.423448175971779
 40
4.423448175971779
 40
4.423448175971779
 40
4.88609459378108
 40
4.88609459378108
 40
4.88609459378108
 40
5.347080031737212
 40
5.347080031737212
 40
5.347080031737212
 40
5.806026919438866
 40
5.806026919438866
 40
5.806026919438866
 40
6.262134968928539
 40
6.262134968928539
 40
6.262134968928539
 40
6.716559208966946
 40
6.716559208966946
 40
6.716559208966946
 40
6.716559208966946
 10
99.99999999971698
 20
817.7050482028517
 30
0.0
 10
100.1689744658721
 20
817.7050485420543
 30
0.0
 10
100.3379781352052
 20
817.7070772663013
 30
0.0
 10
100.506158050861
 20
817.7111235478876
 30
0.0
 10
100.6789187876659
 20
817.7152800405667
 30
0.0
 10
100.8508803494962
 20
817.7215672367909
 30
0.0
 10
101.0211154526046
 20
817.7299460699526
 30
0.0
 10
101.1832354577769
 20
817.7379254846015
 30
0.0
 10
101.343854476175
 20
817.747805156678
 30
0.0
 10
101.5021710862353
 20
817.7595278953089
 30
0.0
 10
101.6552223239967
 20
817.7708607532871
 30
0.0
 10
101.8061869534653
 20
817.783921141614
 30
0.0
 10
101.9543314329158
 20
817.7986344344091
 30
0.0
 10
102.099471967592
 20
817.8130493838629
 30
0.0
 10
102.2419783031136
 20
817.8290584240581
 30
0.0
 10
102.3811475821635
 20
817.8465667496037
 30
0.0
 10
102.5193449362136
 20
817.8639528011861
 30
0.0
 10
102.6543379134263
 20
817.8828286433413
 30
0.0
 10
102.7854157011143
 20
817.9030715784927
 30
0.0
 10
102.9164492186964
 20
817.9233076768115
 30
0.0
 10
103.0436772374001
 20
817.9449273488161
 30
0.0
 10
103.1663537374666
 20
817.9677682536803
 30
0.0
 10
103.2888472798672
 20
817.9905750940038
 30
0.0
 10
103.4069368139756
 20
818.0146258975137
 30
0.0
 10
103.519824597384
 20
818.0397026135606
 30
0.0
 10
103.6323196887024
 20
818.0646920975995
 30
0.0
 10
103.7398159719758
 20
818.0907398287342
 30
0.0
 10
103.8414421184606
 20
818.1175453419414
 30
0.0
 10
103.9426972136387
 20
818.1442529844622
 30
0.0
 10
104.0383305152754
 20
818.1717713174783
 30
0.0
 10
104.1273637561941
 20
818.1996692805171
 30
0.0
 10
104.2160588402195
 20
818.2274612843838
 30
0.0
 10
104.2984489646313
 20
818.2557144834176
 30
0.0
 10
104.3734145933775
 20
818.2837823311785
 30
0.0
 10
104.4480301012664
 20
818.3117190903447
 30
0.0
 10
104.5155594460456
 20
818.3395872264182
 30
0.0
 10
104.5747349492654
 20
818.3663783331157
 30
0.0
 10
104.6335335029178
 20
818.3929987797338
 30
0.0
 10
104.6843258058946
 20
818.4186914642503
 30
0.0
 10
104.7258002319301
 20
818.441850922082
 30
0.0
 10
104.7671311960634
 20
818.4649302703092
 30
0.0
 10
104.7993237524783
 20
818.4856043817229
 30
0.0
 10
104.8214262545565
 20
818.5013294398907
 30
0.0
  0
POLYLINE
  5
139
330
1F
100
AcDbEntity
  8
Make2D$Visible$Curves
370
    -3
100
AcDb2dPolyline
 66
     1
 10
0.0
 20
0.0
 30
0.0
  0
VERTEX
  5
13A
330
139
100
AcDbEntity
  8
Make2D$Visible$Curves
370
    -3
100
AcDbVertex
100
AcDb2dVertex
 10
104.8553550603494
 20
819.2014892417263
 30
0.0
  0
VERTEX
  5
13B
330
139
100
AcDbEntity
  8
Make2D$Visible$Curves
370
    -3
100
AcDbVertex
100
AcDb2dVertex
 10
105.0428932188133
 20
819.6542464073525
 30
0.0
 42
-0.1989123673790487
  0
VERTEX
  5
13C
330
139
100
AcDbEntity
  8
Make2D$Visible$Curves
370
    -3
100
AcDbVertex
100
AcDb2dVertex
 10
105.7499999999999
 20
819.947139626166
 30
0.0
  0
SEQEND
  5
13D
330
139
100
AcDbEntity
  8
Make2D$Visible$Curves
370
    -3
  0
LINE
  5
13E
330
1F
100
AcDbEntity
  8
Make2D$Visible$Curves
370
    -3
100
AcDbLine
 10
104.749999964534
 20
818.9471396258308
 30
0.0
 11
104.7499999999998
 21
818.4360270205046
 31
0.0
  0
SPLINE
  5
13F
330
1F
100
AcDbEntity
  8
Make2D$Visible$Curves
370
    -3
100
AcDbSpline
210
0.0
220
0.0
230
1.0
 70
    12
 71
     3
 72
    11
 73
     7
 74
     0
 42
0.000000001
 43
0.0000000001
 40
0.0
 40
0.0
 40
0.0
 40
0.0
 40
0.8057439729272758
 40
0.8057439729272758
 40
0.8057439729272758
 40
1.259264452967555
 40
1.259264452967555
 40
1.259264452967555
 40
1.259264452967555
 10
94.24999999999984
 20
819.9471396261658
 30
0.0
 41
0.9899631356786452
 10
94.51120387496358
 20
819.9471396261656
 30
0.0
 41
0.893311972573453
 10
94.76184463531084
 20
819.8495085532281
 30
0.0
 41
0.8449863910208567
 10
94.9571067811864
 20
819.6542464073524
 30
0.0
 41
0.8449863910208568
 10
94.98326608607887
 20
819.62808710246
 30
0.0
 41
0.8449863910208568
 10
95.0796638884268
 20
819.3889278309348
 30
0.0
 41
0.8449863910208568
 10
95.15481030281244
 20
819.1958817643973
 30
0.0
 41
0.8449863910208568
  0
ENDSEC
  0
SECTION
  2
OBJECTS
  0
DICTIONARY
  5
C
330
0
100
AcDbDictionary
281
     1
  3
ACAD_DETAILVIEWSTYLE
350
185
  3
ACAD_GROUP
350
D
  3
ACAD_LAYOUT
350
1A
  3
ACAD_MATERIAL
350
43
  3
ACAD_MLEADERSTYLE
350
6B
  3
ACAD_MLINESTYLE
350
17
  3
ACAD_PLOTSETTINGS
350
19
  3
ACAD_PLOTSTYLENAME
350
E
  3
ACAD_SCALELIST
350
47
  3
ACAD_SECTIONVIEWSTYLE
350
186
  3
ACAD_TABLESTYLE
350
69
  3
ACAD_VISUALSTYLE
350
2A
  3
ACDB_RECOMPOSE_DATA
350
182
  3
AcDbVariableDictionary
350
142
  0
DICTIONARY
  5
140
330
8
100
AcDbDictionary
280
     1
281
     1
  3
ACAD_XREC_ROUNDTRIP
360
141
  0
DICTIONARY
  5
185
102
{ACAD_REACTORS
330
C
102
}
330
C
100
AcDbDictionary
281
     1
  0
DICTIONARY
  5
D
102
{ACAD_REACTORS
330
C
102
}
330
C
100
AcDbDictionary
281
     1
  0
DICTIONARY
  5
1A
102
{ACAD_REACTORS
330
C
102
}
330
C
100
AcDbDictionary
281
     1
  3
Layout1
350
1E
  3
Layout2
350
26
  3
Model
350
22
  0
DICTIONARY
  5
43
102
{ACAD_REACTORS
330
C
102
}
330
C
100
AcDbDictionary
281
     1
  3
ByBlock
350
45
  3
ByLayer
350
44
  3
Global
350
46
  0
DICTIONARY
  5
6B
102
{ACAD_REACTORS
330
C
102
}
330
C
100
AcDbDictionary
281
     1
  3
Standard
350
6C
  0
DICTIONARY
  5
17
102
{ACAD_REACTORS
330
C
102
}
330
C
100
AcDbDictionary
281
     1
  3
Standard
350
18
  0
DICTIONARY
  5
19
102
{ACAD_REACTORS
330
C
102
}
330
C
100
AcDbDictionary
281
     1
  0
ACDBDICTIONARYWDFLT
  5
E
102
{ACAD_REACTORS
330
C
102
}
330
C
100
AcDbDictionary
281
     1
  3
Normal
350
F
100
AcDbDictionaryWithDefault
340
F
  0
DICTIONARY
  5
47
102
{ACAD_REACTORS
330
C
102
}
330
C
100
AcDbDictionary
281
     1
  3
A0
350
48
  3
A1
350
49
  3
A2
350
4A
  3
A3
350
4B
  3
A4
350
4C
  3
A5
350
4D
  3
A6
350
4E
  3
A7
350
4F
  3
A8
350
50
  3
A9
350
51
  3
B0
350
52
  3
B1
350
53
  3
B2
350
54
  3
B3
350
55
  3
B4
350
56
  3
B5
350
57
  3
B6
350
58
  3
B7
350
59
  3
B8
350
5A
  3
B9
350
5B
  3
C0
350
5C
  3
C1
350
5D
  3
C2
350
5E
  3
C3
350
5F
  3
C4
350
60
  3
C5
350
61
  3
C6
350
62
  3
C7
350
63
  3
C8
350
64
  3
C9
350
65
  3
D0
350
66
  3
D1
350
67
  3
D2
350
68
  0
DICTIONARY
  5
186
102
{ACAD_REACTORS
330
C
102
}
330
C
100
AcDbDictionary
281
     1
  0
DICTIONARY
  5
69
102
{ACAD_REACTORS
330
C
102
}
330
C
100
AcDbDictionary
281
     1
  3
Standard
350
6A
  0
DICTIONARY
  5
2A
102
{ACAD_REACTORS
330
C
102
}
330
C
100
AcDbDictionary
281
     1
  3
2dWireframe
350
2F
  3
Basic
350
32
  3
Brighten
350
36
  3
ColorChange
350
3A
  3
Conceptual
350
34
  3
Dim
350
35
  3
EdgeColorOff
350
3D
  3
Facepattern
350
39
  3
Flat
350
2B
  3
FlatWithEdges
350
2C
  3
Gouraud
350
2D
  3
GouraudWithEdges
350
2E
  3
Hidden
350
31
  3
JitterOff
350
3B
  3
Linepattern
350
38
  3
OverhangOff
350
3C
  3
Realistic
350
33
  3
Shaded
350
42
  3
Shaded with edges
350
41
  3
Shades of Gray
350
3E
  3
Sketchy
350
3F
  3
Thicken
350
37
  3
Wireframe
350
30
  3
X-Ray
350
40
  0
XRECORD
  5
182
102
{ACAD_REACTORS
330
C
102
}
330
C
100
AcDbXrecord
280
     1
 90
        1
330
6A
  0
DICTIONARY
  5
142
102
{ACAD_REACTORS
330
C
102
}
330
C
100
AcDbDictionary
281
     1
  3
CANNOSCALE
350
143
  3
CMLEADERSTYLE
350
184
  3
CTABLESTYLE
350
183
  3
MSLTSCALE
350
144
  3
XCLIPFRAME
350
145
  0
XRECORD
  5
141
102
{ACAD_REACTORS
330
140
102
}
330
140
100
AcDbXrecord
280
     1
102
VTR_0.000_0.000_1.000_1.000_VISUALSTYLE
340
2F
102
VTR_0.000_0.000_1.000_1.000_GRIDDISPLAY
 70
     3
102
VTR_0.000_0.000_1.000_1.000_GRIDMAJOR
 70
     5
102
VTR_0.000_0.000_1.000_1.000_DEFAULTLIGHTING
280
     1
102
VTR_0.000_0.000_1.000_1.000_DEFAULTLIGHTINGTYPE
 70
     1
102
VTR_0.000_0.000_1.000_1.000_BRIGHTNESS
141
0.0
102
VTR_0.000_0.000_1.000_1.000_CONTRAST
142
0.0
  0
LAYOUT
  5
1E
102
{ACAD_REACTORS
330
1A
102
}
330
1A
100
AcDbPlotSettings
  1

  2
none_device
  4

  6

 40
0.0
 41
0.0
 42
0.0
 43
0.0
 44
0.0
 45
0.0
 46
0.0
 47
0.0
 48
0.0
 49
0.0
140
0.0
141
0.0
142
1.0
143
1.0
 70
   688
 72
     0
 73
     0
 74
     5
  7

 75
    16
 76
     0
 77
     2
 78
   300
147
1.0
148
0.0
149
0.0
100
AcDbLayout
  1
Layout1
 70
     1
 71
     1
 10
0.0
 20
0.0
 11
12.0
 21
9.0
 12
0.0
 22
0.0
 32
0.0
 14
1.000000000000000E+20
 24
1.000000000000000E+20
 34
1.000000000000000E+20
 15
-1.000000000000000E+20
 25
-1.000000000000000E+20
 35
-1.000000000000000E+20
146
0.0
 13
0.0
 23
0.0
 33
0.0
 16
1.0
 26
0.0
 36
0.0
 17
0.0
 27
1.0
 37
0.0
 76
     0
330
1B
  0
LAYOUT
  5
26
102
{ACAD_REACTORS
330
1A
102
}
330
1A
100
AcDbPlotSettings
  1

  2
none_device
  4

  6

 40
0.0
 41
0.0
 42
0.0
 43
0.0
 44
0.0
 45
0.0
 46
0.0
 47
0.0
 48
0.0
 49
0.0
140
0.0
141
0.0
142
1.0
143
1.0
 70
   688
 72
     0
 73
     0
 74
     5
  7

 75
    16
 76
     0
 77
     2
 78
   300
147
1.0
148
0.0
149
0.0
100
AcDbLayout
  1
Layout2
 70
     1
 71
     2
 10
0.0
 20
0.0
 11
0.0
 21
0.0
 12
0.0
 22
0.0
 32
0.0
 14
0.0
 24
0.0
 34
0.0
 15
0.0
 25
0.0
 35
0.0
146
0.0
 13
0.0
 23
0.0
 33
0.0
 16
1.0
 26
0.0
 36
0.0
 17
0.0
 27
1.0
 37
0.0
 76
     0
330
23
  0
LAYOUT
  5
22
102
{ACAD_REACTORS
330
1A
102
}
330
1A
100
AcDbPlotSettings
  1

  2
none_device
  4
Letter_(8.50_x_11.00_Inches)
  6

 40
6.35
 41
6.35
 42
6.35000508
 43
6.35000508
 44
215.9
 45
279.4
 46
0.0
 47
0.0
 48
0.0
 49
0.0
140
0.0
141
0.0
142
1.0
143
1.0
 70
  1712
 72
     0
 73
     0
 74
     0
  7

 75
     0
 76
     0
 77
     2
 78
   300
147
1.0
148
0.0
149
0.0
100
AcDbLayout
  1
Model
 70
     1
 71
     0
 10
0.0
 20
0.0
 11
12.0
 21
9.0
 12
0.0
 22
0.0
 32
0.0
 14
1.000000000000000E+20
 24
1.000000000000000E+20
 34
1.000000000000000E+20
 15
-1.000000000000000E+20
 25
-1.000000000000000E+20
 35
-1.000000000000000E+20
146
0.0
 13
0.0
 23
0.0
 33
0.0
 16
1.0
 26
0.0
 36
0.0
 17
0.0
 27
1.0
 37
0.0
 76
     0
330
1F
331
29
  0
MATERIAL
  5
45
102
{ACAD_REACTORS
330
43
102
}
102
{ACAD_XDICTIONARY
360
178
102
}
330
43
100
AcDbMaterial
  1
ByBlock
  0
MATERIAL
  5
44
102
{ACAD_REACTORS
330
43
102
}
102
{ACAD_XDICTIONARY
360
176
102
}
330
43
100
AcDbMaterial
  1
ByLayer
  0
MATERIAL
  5
46
102
{ACAD_REACTORS
330
43
102
}
102
{ACAD_XDICTIONARY
360
17A
102
}
330
43
100
AcDbMaterial
  1
Global
  0
MLEADERSTYLE
  5
6C
102
{ACAD_REACTORS
330
6B
102
}
102
{ACAD_XDICTIONARY
360
180
102
}
330
6B
100
AcDbMLeaderStyle
170
     2
171
     1
172
     0
 90
        2
 40
0.0
 41
0.0
173
     1
 91
-1056964608
340
14
 92
       -2
290
     1
 42
0.09
291
     1
 43
0.36
  3
Standard
341
0
 44
0.18
300

342
11
174
     1
178
     6
175
     1
176
     0
 93
-1056964608
 45
0.18
292
     0
297
     0
 46
0.18
343
0
 94
-1056964608
 47
1.0
 49
1.0
140
1.0
293
     1
141
0.0
294
     1
177
     0
142
1.0
295
     0
296
     0
143
0.125
1001
ACAD_MLEADERVER
1070
     2
  0
MLINESTYLE
  5
18
102
{ACAD_REACTORS
330
17
102
}
330
17
100
AcDbMlineStyle
  2
Standard
 70
     0
  3

 62
   256
 51
90.0
 52
90.0
 71
     2
 49
0.5
 62
   256
  6
BYLAYER
 49
-0.5
 62
   256
  6
BYLAYER
  0
ACDBPLACEHOLDER
  5
F
102
{ACAD_REACTORS
330
E
102
}
330
E
  0
SCALE
  5
48
102
{ACAD_REACTORS
330
47
102
}
330
47
100
AcDbScale
 70
     0
300
1:1
140
1.0
141
1.0
290
     1
  0
SCALE
  5
49
102
{ACAD_REACTORS
330
47
102
}
330
47
100
AcDbScale
 70
     0
300
1:2
140
1.0
141
2.0
290
     0
  0
SCALE
  5
4A
102
{ACAD_REACTORS
330
47
102
}
330
47
100
AcDbScale
 70
     0
300
1:4
140
1.0
141
4.0
290
     0
  0
SCALE
  5
4B
102
{ACAD_REACTORS
330
47
102
}
330
47
100
AcDbScale
 70
     0
300
1:5
140
1.0
141
5.0
290
     0
  0
SCALE
  5
4C
102
{ACAD_REACTORS
330
47
102
}
330
47
100
AcDbScale
 70
     0
300
1:8
140
1.0
141
8.0
290
     0
  0
SCALE
  5
4D
102
{ACAD_REACTORS
330
47
102
}
330
47
100
AcDbScale
 70
     0
300
1:10
140
1.0
141
10.0
290
     0
  0
SCALE
  5
4E
102
{ACAD_REACTORS
330
47
102
}
330
47
100
AcDbScale
 70
     0
300
1:16
140
1.0
141
16.0
290
     0
  0
SCALE
  5
4F
102
{ACAD_REACTORS
330
47
102
}
330
47
100
AcDbScale
 70
     0
300
1:20
140
1.0
141
20.0
290
     0
  0
SCALE
  5
50
102
{ACAD_REACTORS
330
47
102
}
330
47
100
AcDbScale
 70
     0
300
1:30
140
1.0
141
30.0
290
     0
  0
SCALE
  5
51
102
{ACAD_REACTORS
330
47
102
}
330
47
100
AcDbScale
 70
     0
300
1:40
140
1.0
141
40.0
290
     0
  0
SCALE
  5
52
102
{ACAD_REACTORS
330
47
102
}
330
47
100
AcDbScale
 70
     0
300
1:50
140
1.0
141
50.0
290
     0
  0
SCALE
  5
53
102
{ACAD_REACTORS
330
47
102
}
330
47
100
AcDbScale
 70
     0
300
1:100
140
1.0
141
100.0
290
     0
  0
SCALE
  5
54
102
{ACAD_REACTORS
330
47
102
}
330
47
100
AcDbScale
 70
     0
300
2:1
140
2.0
141
1.0
290
     0
  0
SCALE
  5
55
102
{ACAD_REACTORS
330
47
102
}
330
47
100
AcDbScale
 70
     0
300
4:1
140
4.0
141
1.0
290
     0
  0
SCALE
  5
56
102
{ACAD_REACTORS
330
47
102
}
330
47
100
AcDbScale
 70
     0
300
8:1
140
8.0
141
1.0
290
     0
  0
SCALE
  5
57
102
{ACAD_REACTORS
330
47
102
}
330
47
100
AcDbScale
 70
     0
300
10:1
140
10.0
141
1.0
290
     0
  0
SCALE
  5
58
102
{ACAD_REACTORS
330
47
102
}
330
47
100
AcDbScale
 70
     0
300
100:1
140
100.0
141
1.0
290
     0
  0
SCALE
  5
59
102
{ACAD_REACTORS
330
47
102
}
330
47
100
AcDbScale
 70
     0
300
1/128" = 1'-0"
140
0.0078125
141
12.0
290
     0
  0
SCALE
  5
5A
102
{ACAD_REACTORS
330
47
102
}
330
47
100
AcDbScale
 70
     0
300
1/64" = 1'-0"
140
0.015625
141
12.0
290
     0
  0
SCALE
  5
5B
102
{ACAD_REACTORS
330
47
102
}
330
47
100
AcDbScale
 70
     0
300
1/32" = 1'-0"
140
0.03125
141
12.0
290
     0
  0
SCALE
  5
5C
102
{ACAD_REACTORS
330
47
102
}
330
47
100
AcDbScale
 70
     0
300
1/16" = 1'-0"
140
0.0625
141
12.0
290
     0
  0
SCALE
  5
5D
102
{ACAD_REACTORS
330
47
102
}
330
47
100
AcDbScale
 70
     0
300
3/32" = 1'-0"
140
0.09375
141
12.0
290
     0
  0
SCALE
  5
5E
102
{ACAD_REACTORS
330
47
102
}
330
47
100
AcDbScale
 70
     0
300
1/8" = 1'-0"
140
0.125
141
12.0
290
     0
  0
SCALE
  5
5F
102
{ACAD_REACTORS
330
47
102
}
330
47
100
AcDbScale
 70
     0
300
3/16" = 1'-0"
140
0.1875
141
12.0
290
     0
  0
SCALE
  5
60
102
{ACAD_REACTORS
330
47
102
}
330
47
100
AcDbScale
 70
     0
300
1/4" = 1'-0"
140
0.25
141
12.0
290
     0
  0
SCALE
  5
61
102
{ACAD_REACTORS
330
47
102
}
330
47
100
AcDbScale
 70
     0
300
3/8" = 1'-0"
140
0.375
141
12.0
290
     0
  0
SCALE
  5
62
102
{ACAD_REACTORS
330
47
102
}
330
47
100
AcDbScale
 70
     0
300
1/2" = 1'-0"
140
0.5
141
12.0
290
     0
  0
SCALE
  5
63
102
{ACAD_REACTORS
330
47
102
}
330
47
100
AcDbScale
 70
     0
300
3/4" = 1'-0"
140
0.75
141
12.0
290
     0
  0
SCALE
  5
64
102
{ACAD_REACTORS
330
47
102
}
330
47
100
AcDbScale
 70
     0
300
1" = 1'-0"
140
1.0
141
12.0
290
     0
  0
SCALE
  5
65
102
{ACAD_REACTORS
330
47
102
}
330
47
100
AcDbScale
 70
     0
300
1-1/2" = 1'-0"
140
1.5
141
12.0
290
     0
  0
SCALE
  5
66
102
{ACAD_REACTORS
330
47
102
}
330
47
100
AcDbScale
 70
     0
300
3" = 1'-0"
140
3.0
141
12.0
290
     0
  0
SCALE
  5
67
102
{ACAD_REACTORS
330
47
102
}
330
47
100
AcDbScale
 70
     0
300
6" = 1'-0"
140
6.0
141
12.0
290
     0
  0
SCALE
  5
68
102
{ACAD_REACTORS
330
47
102
}
330
47
100
AcDbScale
 70
     0
300
1'-0" = 1'-0"
140
12.0
141
12.0
290
     0
  0
TABLESTYLE
  5
6A
102
{ACAD_REACTORS
330
69
102
}
102
{ACAD_XDICTIONARY
360
17C
102
}
330
69
100
AcDbTableStyle
  3
Standard
 70
     0
 71
     0
 40
0.06
 41
0.06
280
     0
281
     0
  7
Standard
140
0.18
170
     2
 62
     0
 63
   257
283
     0
274
    -2
284
     1
 64
     0
275
    -2
285
     1
 65
     0
276
    -2
286
     1
 66
     0
277
    -2
287
     1
 67
     0
278
    -2
288
     1
 68
     0
279
    -2
289
     1
 69
     0
  7
Standard
140
0.25
170
     5
 62
     0
 63
   257
283
     0
274
    -2
284
     1
 64
     0
275
    -2
285
     1
 65
     0
276
    -2
286
     1
 66
     0
277
    -2
287
     1
 67
     0
278
    -2
288
     1
 68
     0
279
    -2
289
     1
 69
     0
  7
Standard
140
0.18
170
     5
 62
     0
 63
   257
283
     0
274
    -2
284
     1
 64
     0
275
    -2
285
     1
 65
     0
276
    -2
286
     1
 66
     0
277
    -2
287
     1
 67
     0
278
    -2
288
     1
 68
     0
279
    -2
289
     1
 69
     0
  0
VISUALSTYLE
  5
2F
102
{ACAD_REACTORS
330
2A
102
}
102
{ACAD_XDICTIONARY
360
14E
102
}
330
2A
100
AcDbVisualStyle
  2
2dWireframe
 70
     4
 71
     0
 72
     2
 73
     0
 90
        0
 40
0.6
 41
30.0
 62
     5
 63
     7
421
 16777215
 74
     1
 91
        4
 64
     7
 65
   257
 75
     1
175
     1
 42
1.0
 92
        0
 66
   257
 43
1.0
 76
     1
 77
     6
 78
     2
 67
     7
 79
     5
170
     0
171
     0
290
     0
174
     0
 93
        1
 44
0.0
173
     0
291
     0
 45
0.0
1001
ACAD
1000
AcDbSavedByObjectVersion
1070
     0
  0
VISUALSTYLE
  5
32
102
{ACAD_REACTORS
330
2A
102
}
102
{ACAD_XDICTIONARY
360
154
102
}
330
2A
100
AcDbVisualStyle
  2
Basic
 70
     7
 71
     1
 72
     0
 73
     1
 90
        0
 40
0.6
 41
30.0
 62
     5
 63
     7
421
 16777215
 74
     0
 91
        4
 64
     7
 65
   257
 75
     1
175
     1
 42
1.0
 92
        8
 66
     7
 43
1.0
 76
     1
 77
     6
 78
     2
 67
     7
 79
     5
170
     0
171
     0
290
     0
174
     0
 93
        1
 44
0.0
173
     0
291
     1
 45
0.0
1001
ACAD
1000
AcDbSavedByObjectVersion
1070
     0
  0
VISUALSTYLE
  5
36
102
{ACAD_REACTORS
330
2A
102
}
102
{ACAD_XDICTIONARY
360
15C
102
}
330
2A
100
AcDbVisualStyle
  2
Brighten
 70
    12
 71
     2
 72
     2
 73
     0
 90
        0
 40
0.6
 41
30.0
 62
     5
 63
     7
421
 16777215
 74
     1
 91
        4
 64
     7
 65
   257
 75
     1
175
     1
 42
1.0
 92
        8
 66
     7
 43
1.0
 76
     1
 77
     6
 78
     2
 67
     7
 79
     5
170
     0
171
     0
290
     0
174
     0
 93
        1
 44
50.0
173
     0
291
     1
 45
0.0
1001
ACAD
1000
AcDbSavedByObjectVersion
1070
     0
  0
VISUALSTYLE
  5
3A
102
{ACAD_REACTORS
330
2A
102
}
102
{ACAD_XDICTIONARY
360
164
102
}
330
2A
100
AcDbVisualStyle
  2
ColorChange
 70
    16
 71
     2
 72
     2
 73
     3
 90
        0
 40
0.6
 41
30.0
 62
     5
 63
     8
421
  8421504
 74
     1
 91
        4
 64
     7
 65
   257
 75
     1
175
     1
 42
1.0
 92
        8
 66
     8
424
  8421504
 43
1.0
 76
     1
 77
     6
 78
     2
 67
     7
 79
     5
170
     0
171
     0
290
     0
174
     0
 93
        1
 44
0.0
173
     0
291
     1
 45
0.0
1001
ACAD
1000
AcDbSavedByObjectVersion
1070
     0
  0
VISUALSTYLE
  5
34
102
{ACAD_REACTORS
330
2A
102
}
102
{ACAD_XDICTIONARY
360
158
102
}
330
2A
100
AcDbVisualStyle
  2
Conceptual
 70
     9
 71
     3
 72
     2
 73
     0
 90
        0
 40
0.6
 41
30.0
 62
     5
 63
     7
421
 16777215
 74
     2
 91
        2
 64
     7
 65
   257
 75
     1
175
     1
 42
179.0
 92
        8
 66
     7
 43
1.0
 76
     1
 77
     6
 78
     2
 67
     7
 79
     3
170
     0
171
     0
290
     0
174
     0
 93
        1
 44
0.0
173
     0
291
     0
 45
0.0
1001
ACAD
1000
AcDbSavedByObjectVersion
1070
     0
  0
VISUALSTYLE
  5
35
102
{ACAD_REACTORS
330
2A
102
}
102
{ACAD_XDICTIONARY
360
15A
102
}
330
2A
100
AcDbVisualStyle
  2
Dim
 70
    11
 71
     2
 72
     2
 73
     0
 90
        0
 40
0.6
 41
30.0
 62
     5
 63
     7
421
 16777215
 74
     1
 91
        4
 64
     7
 65
   257
 75
     1
175
     1
 42
1.0
 92
        8
 66
     7
 43
1.0
 76
     1
 77
     6
 78
     2
 67
     7
 79
     5
170
     0
171
     0
290
     0
174
     0
 93
        1
 44
-50.0
173
     0
291
     1
 45
0.0
1001
ACAD
1000
AcDbSavedByObjectVersion
1070
     0
  0
VISUALSTYLE
  5
3D
102
{ACAD_REACTORS
330
2A
102
}
102
{ACAD_XDICTIONARY
360
16A
102
}
330
2A
100
AcDbVisualStyle
  2
EdgeColorOff
 70
    22
 71
     2
 72
     2
 73
     0
 90
        0
 40
0.6
 41
30.0
 62
     5
 63
     7
421
 16777215
 74
     1
 91
        4
 64
     7
 65
   257
 75
     1
175
     1
 42
1.0
 92
        8
 66
     7
 43
1.0
 76
     1
 77
     6
 78
     2
 67
     7
 79
     5
170
     0
171
     0
290
     0
174
     0
 93
        1
 44
0.0
173
     0
291
     1
 45
0.0
1001
ACAD
1000
AcDbSavedByObjectVersion
1070
     0
  0
VISUALSTYLE
  5
39
102
{ACAD_REACTORS
330
2A
102
}
102
{ACAD_XDICTIONARY
360
162
102
}
330
2A
100
AcDbVisualStyle
  2
Facepattern
 70
    15
 71
     2
 72
     2
 73
     0
 90
        0
 40
0.6
 41
30.0
 62
     5
 63
     7
421
 16777215
 74
     1
 91
        4
 64
     7
 65
   257
 75
     1
175
     1
 42
1.0
 92
        8
 66
     7
 43
1.0
 76
     1
 77
     6
 78
     2
 67
     7
 79
     5
170
     0
171
     0
290
     0
174
     0
 93
        1
 44
0.0
173
     0
291
     1
 45
0.0
1001
ACAD
1000
AcDbSavedByObjectVersion
1070
     0
  0
VISUALSTYLE
  5
2B
102
{ACAD_REACTORS
330
2A
102
}
102
{ACAD_XDICTIONARY
360
146
102
}
330
2A
100
AcDbVisualStyle
  2
Flat
 70
     0
 71
     2
 72
     1
 73
     1
 90
        2
 40
0.6
 41
30.0
 62
     5
 63
     7
421
 16777215
 74
     0
 91
        0
 64
     7
 65
   257
 75
     1
175
     1
 42
1.0
 92
        8
 66
     7
 43
1.0
 76
     1
 77
     6
 78
     2
 67
     7
 79
     5
170
     0
171
     0
290
     0
174
     0
 93
       13
 44
0.0
173
     0
291
     1
 45
0.0
1001
ACAD
1000
AcDbSavedByObjectVersion
1070
     0
  0
VISUALSTYLE
  5
2C
102
{ACAD_REACTORS
330
2A
102
}
102
{ACAD_XDICTIONARY
360
148
102
}
330
2A
100
AcDbVisualStyle
  2
FlatWithEdges
 70
     1
 71
     2
 72
     1
 73
     1
 90
        2
 40
0.6
 41
30.0
 62
     5
 63
     7
421
 16777215
 74
     1
 91
        0
 64
     7
 65
   257
 75
     1
175
     1
 42
1.0
 92
        0
 66
   257
 43
1.0
 76
     1
 77
     6
 78
     2
 67
     7
 79
     5
170
     0
171
     0
290
     0
174
     0
 93
       13
 44
0.0
173
     0
291
     1
 45
0.0
1001
ACAD
1000
AcDbSavedByObjectVersion
1070
     0
  0
VISUALSTYLE
  5
2D
102
{ACAD_REACTORS
330
2A
102
}
102
{ACAD_XDICTIONARY
360
14A
102
}
330
2A
100
AcDbVisualStyle
  2
Gouraud
 70
     2
 71
     2
 72
     2
 73
     1
 90
        2
 40
0.6
 41
30.0
 62
     5
 63
     7
421
 16777215
 74
     0
 91
        0
 64
     7
 65
   257
 75
     1
175
     1
 42
1.0
 92
        0
 66
     7
 43
1.0
 76
     1
 77
     6
 78
     2
 67
     7
 79
     5
170
     0
171
     0
290
     0
174
     0
 93
       13
 44
0.0
173
     0
291
     1
 45
0.0
1001
ACAD
1000
AcDbSavedByObjectVersion
1070
     0
  0
VISUALSTYLE
  5
2E
102
{ACAD_REACTORS
330
2A
102
}
102
{ACAD_XDICTIONARY
360
14C
102
}
330
2A
100
AcDbVisualStyle
  2
GouraudWithEdges
 70
     3
 71
     2
 72
     2
 73
     1
 90
        2
 40
0.6
 41
30.0
 62
     5
 63
     7
421
 16777215
 74
     1
 91
        0
 64
     7
 65
   257
 75
     1
175
     1
 42
1.0
 92
        0
 66
   257
 43
1.0
 76
     1
 77
     6
 78
     2
 67
     7
 79
     5
170
     0
171
     0
290
     0
174
     0
 93
       13
 44
0.0
173
     0
291
     1
 45
0.0
1001
ACAD
1000
AcDbSavedByObjectVersion
1070
     0
  0
VISUALSTYLE
  5
31
102
{ACAD_REACTORS
330
2A
102
}
102
{ACAD_XDICTIONARY
360
152
102
}
330
2A
100
AcDbVisualStyle
  2
Hidden
 70
     6
 71
     1
 72
     2
 73
     2
 90
        0
 40
0.6
 41
30.0
 62
     5
 63
     7
421
 16777215
 74
     2
 91
        2
 64
     7
 65
   257
 75
     2
175
     1
 42
40.0
 92
        0
 66
   257
 43
1.0
 76
     1
 77
     6
 78
     2
 67
     7
 79
     3
170
     0
171
     0
290
     0
174
     0
 93
        1
 44
0.0
173
     0
291
     0
 45
0.0
1001
ACAD
1000
AcDbSavedByObjectVersion
1070
     0
  0
VISUALSTYLE
  5
3B
102
{ACAD_REACTORS
330
2A
102
}
102
{ACAD_XDICTIONARY
360
166
102
}
330
2A
100
AcDbVisualStyle
  2
JitterOff
 70
    20
 71
     2
 72
     2
 73
     0
 90
        0
 40
0.6
 41
30.0
 62
     5
 63
     7
421
 16777215
 74
     1
 91
        4
 64
     7
 65
   257
 75
     1
175
     1
 42
1.0
 92
       10
 66
     7
 43
1.0
 76
     1
 77
     6
 78
     2
 67
     7
 79
     5
170
     0
171
     0
290
     0
174
     0
 93
        1
 44
0.0
173
     0
291
     1
 45
0.0
1001
ACAD
1000
AcDbSavedByObjectVersion
1070
     0
  0
VISUALSTYLE
  5
38
102
{ACAD_REACTORS
330
2A
102
}
102
{ACAD_XDICTIONARY
360
160
102
}
330
2A
100
AcDbVisualStyle
  2
Linepattern
 70
    14
 71
     2
 72
     2
 73
     0
 90
        0
 40
0.6
 41
30.0
 62
     5
 63
     7
421
 16777215
 74
     1
 91
        4
 64
     7
 65
   257
 75
     7
175
     7
 42
1.0
 92
        8
 66
     7
 43
1.0
 76
     1
 77
     6
 78
     2
 67
     7
 79
     5
170
     0
171
     0
290
     0
174
     0
 93
        1
 44
0.0
173
     0
291
     1
 45
0.0
1001
ACAD
1000
AcDbSavedByObjectVersion
1070
     0
  0
VISUALSTYLE
  5
3C
102
{ACAD_REACTORS
330
2A
102
}
102
{ACAD_XDICTIONARY
360
168
102
}
330
2A
100
AcDbVisualStyle
  2
OverhangOff
 70
    21
 71
     2
 72
     2
 73
     0
 90
        0
 40
0.6
 41
30.0
 62
     5
 63
     7
421
 16777215
 74
     1
 91
        4
 64
     7
 65
   257
 75
     1
175
     1
 42
1.0
 92
        9
 66
     7
 43
1.0
 76
     1
 77
     6
 78
     2
 67
     7
 79
     5
170
     0
171
     0
290
     0
174
     0
 93
        1
 44
0.0
173
     0
291
     1
 45
0.0
1001
ACAD
1000
AcDbSavedByObjectVersion
1070
     0
  0
VISUALSTYLE
  5
33
102
{ACAD_REACTORS
330
2A
102
}
102
{ACAD_XDICTIONARY
360
156
102
}
330
2A
100
AcDbVisualStyle
  2
Realistic
 70
     8
 71
     2
 72
     3
 73
     0
 90
        2
 40
0.6
 41
30.0
 62
     5
 63
     7
421
 16777215
 74
     0
 91
        0
 64
     7
 65
   257
 75
     1
175
     1
 42
1.0
 92
        8
 66
   257
 43
1.0
 76
     1
 77
     6
 78
     2
 67
     7
 79
     3
170
     0
171
     0
290
     0
174
     0
 93
       13
 44
0.0
173
     0
291
     0
 45
0.0
1001
ACAD
1000
AcDbSavedByObjectVersion
1070
     0
  0
VISUALSTYLE
  5
42
102
{ACAD_REACTORS
330
2A
102
}
102
{ACAD_XDICTIONARY
360
174
102
}
330
2A
100
AcDbVisualStyle
  2
Shaded
 70
    27
 71
     2
 72
     2
 73
     1
 90
        2
 40
0.6
 41
30.0
 62
     5
 63
     7
421
 16777215
 74
     0
 91
        4
 64
     7
 65
   257
 75
     1
175
     1
 42
1.0
 92
        8
 66
   257
 43
1.0
 76
     1
 77
     6
 78
     2
 67
     8
425
  7895160
 79
     3
170
     0
171
     0
290
     0
174
     0
 93
        5
 44
0.0
173
     0
291
     0
 45
0.0
1001
ACAD
1000
AcDbSavedByObjectVersion
1070
     0
  0
VISUALSTYLE
  5
41
102
{ACAD_REACTORS
330
2A
102
}
102
{ACAD_XDICTIONARY
360
172
102
}
330
2A
100
AcDbVisualStyle
  2
Shaded with edges
 70
    26
 71
     2
 72
     2
 73
     1
 90
        2
 40
0.6
 41
30.0
 62
     5
 63
     7
421
 16777215
 74
     1
 91
       10
 64
     7
 65
   257
 75
     2
175
     1
 42
1.0
 92
        8
 66
   257
 43
1.0
 76
     1
 77
     6
 78
     2
 67
     7
 79
     3
170
     0
171
     0
290
     0
174
     0
 93
        5
 44
0.0
173
     0
291
     0
 45
0.0
1001
ACAD
1000
AcDbSavedByObjectVersion
1070
     0
  0
VISUALSTYLE
  5
3E
102
{ACAD_REACTORS
330
2A
102
}
102
{ACAD_XDICTIONARY
360
16C
102
}
330
2A
100
AcDbVisualStyle
  2
Shades of Gray
 70
    23
 71
     2
 72
     2
 73
     3
 90
        0
 40
0.6
 41
30.0
 62
     5
 63
     7
421
 16777215
 74
     2
 91
        2
 64
     7
 65
     7
 75
     1
175
     1
 42
40.0
 92
        8
 66
     7
 43
1.0
 76
     1
 77
     6
 78
     2
 67
     7
 79
     3
170
     0
171
     0
290
     0
174
     0
 93
        1
 44
0.0
173
     0
291
     0
 45
0.0
1001
ACAD
1000
AcDbSavedByObjectVersion
1070
     0
  0
VISUALSTYLE
  5
3F
102
{ACAD_REACTORS
330
2A
102
}
102
{ACAD_XDICTIONARY
360
16E
102
}
330
2A
100
AcDbVisualStyle
  2
Sketchy
 70
    24
 71
     1
 72
     2
 73
     2
 90
        0
 40
0.6
 41
30.0
 62
     5
 63
     7
421
 16777215
 74
     2
 91
        2
 64
     7
 65
     7
 75
     1
175
     1
 42
40.0
 92
       11
 66
     7
 43
1.0
 76
     1
 77
     6
 78
     2
 67
     7
 79
     6
170
     0
171
     0
290
     0
174
     0
 93
        1
 44
0.0
173
     0
291
     0
 45
0.0
1001
ACAD
1000
AcDbSavedByObjectVersion
1070
     0
  0
VISUALSTYLE
  5
37
102
{ACAD_REACTORS
330
2A
102
}
102
{ACAD_XDICTIONARY
360
15E
102
}
330
2A
100
AcDbVisualStyle
  2
Thicken
 70
    13
 71
     2
 72
     2
 73
     0
 90
        0
 40
0.6
 41
30.0
 62
     5
 63
     7
421
 16777215
 74
     1
 91
        4
 64
     7
 65
   257
 75
     1
175
     1
 42
1.0
 92
       12
 66
     7
 43
1.0
 76
     1
 77
     6
 78
     2
 67
     7
 79
     5
170
     0
171
     0
290
     0
174
     0
 93
        1
 44
0.0
173
     0
291
     1
 45
0.0
1001
ACAD
1000
AcDbSavedByObjectVersion
1070
     0
  0
VISUALSTYLE
  5
30
102
{ACAD_REACTORS
330
2A
102
}
102
{ACAD_XDICTIONARY
360
150
102
}
330
2A
100
AcDbVisualStyle
  2
Wireframe
 70
     5
 71
     0
 72
     2
 73
     0
 90
        0
 40
0.6
 41
30.0
 62
     5
 63
     7
421
 16777215
 74
     1
 91
        4
 64
     7
 65
   257
 75
     1
175
     1
 42
1.0
 92
        0
 66
   257
 43
1.0
 76
     1
 77
     6
 78
     2
 67
     7
 79
     3
170
     0
171
     0
290
     0
174
     0
 93
        1
 44
0.0
173
     0
291
     0
 45
0.0
1001
ACAD
1000
AcDbSavedByObjectVersion
1070
     0
  0
VISUALSTYLE
  5
40
102
{ACAD_REACTORS
330
2A
102
}
102
{ACAD_XDICTIONARY
360
170
102
}
330
2A
100
AcDbVisualStyle
  2
X-Ray
 70
    25
 71
     2
 72
     2
 73
     1
 90
        1
 40
0.5
 41
30.0
 62
     5
 63
     7
421
 16777215
 74
     1
 91
        0
 64
     7
 65
   257
 75
     1
175
     1
 42
1.0
 92
        8
 66
     7
 43
1.0
 76
     1
 77
     6
 78
     2
 67
     7
 79
     3
170
     0
171
     0
290
     0
174
     0
 93
       13
 44
0.0
173
     0
291
     0
 45
0.0
1001
ACAD
1000
AcDbSavedByObjectVersion
1070
     0
  0
DICTIONARYVAR
  5
143
102
{ACAD_REACTORS
330
142
102
}
330
142
100
DictionaryVariables
280
     0
  1
1:1
  0
DICTIONARYVAR
  5
184
102
{ACAD_REACTORS
330
142
102
}
330
142
100
DictionaryVariables
280
     0
  1
Standard
  0
DICTIONARYVAR
  5
183
102
{ACAD_REACTORS
330
142
102
}
330
142
100
DictionaryVariables
280
     0
  1
Standard
  0
DICTIONARYVAR
  5
144
102
{ACAD_REACTORS
330
142
102
}
330
142
100
DictionaryVariables
280
     0
  1
1
  0
DICTIONARYVAR
  5
145
102
{ACAD_REACTORS
330
142
102
}
330
142
100
DictionaryVariables
280
     0
  1
2
  0
DICTIONARY
  5
178
330
45
100
AcDbDictionary
280
     1
281
     1
  3
ACAD_XREC_ROUNDTRIP
360
179
  0
DICTIONARY
  5
176
330
44
100
AcDbDictionary
280
     1
281
     1
  3
ACAD_XREC_ROUNDTRIP
360
177
  0
DICTIONARY
  5
17A
330
46
100
AcDbDictionary
280
     1
281
     1
  3
ACAD_XREC_ROUNDTRIP
360
17B
  0
DICTIONARY
  5
180
330
6C
100
AcDbDictionary
280
     1
281
     1
  3
ACAD_XREC_ROUNDTRIP
360
181
  0
DICTIONARY
  5
17C
330
6A
100
AcDbDictionary
280
     1
281
     1
  3
ACAD_ROUNDTRIP_2008_TABLESTYLE_CELLSTYLEMAP
360
17E
  3
ACAD_XREC_ROUNDTRIP
360
17D
  0
DICTIONARY
  5
14E
330
2F
100
AcDbDictionary
280
     1
281
     1
  3
ACAD_XREC_ROUNDTRIP
360
14F
  0
DICTIONARY
  5
154
330
32
100
AcDbDictionary
280
     1
281
     1
  3
ACAD_XREC_ROUNDTRIP
360
155
  0
DICTIONARY
  5
15C
330
36
100
AcDbDictionary
280
     1
281
     1
  3
ACAD_XREC_ROUNDTRIP
360
15D
  0
DICTIONARY
  5
164
330
3A
100
AcDbDictionary
280
     1
281
     1
  3
ACAD_XREC_ROUNDTRIP
360
165
  0
DICTIONARY
  5
158
330
34
100
AcDbDictionary
280
     1
281
     1
  3
ACAD_XREC_ROUNDTRIP
360
159
  0
DICTIONARY
  5
15A
330
35
100
AcDbDictionary
280
     1
281
     1
  3
ACAD_XREC_ROUNDTRIP
360
15B
  0
DICTIONARY
  5
16A
330
3D
100
AcDbDictionary
280
     1
281
     1
  3
ACAD_XREC_ROUNDTRIP
360
16B
  0
DICTIONARY
  5
162
330
39
100
AcDbDictionary
280
     1
281
     1
  3
ACAD_XREC_ROUNDTRIP
360
163
  0
DICTIONARY
  5
146
330
2B
100
AcDbDictionary
280
     1
281
     1
  3
ACAD_XREC_ROUNDTRIP
360
147
  0
DICTIONARY
  5
148
330
2C
100
AcDbDictionary
280
     1
281
     1
  3
ACAD_XREC_ROUNDTRIP
360
149
  0
DICTIONARY
  5
14A
330
2D
100
AcDbDictionary
280
     1
281
     1
  3
ACAD_XREC_ROUNDTRIP
360
14B
  0
DICTIONARY
  5
14C
330
2E
100
AcDbDictionary
280
     1
281
     1
  3
ACAD_XREC_ROUNDTRIP
360
14D
  0
DICTIONARY
  5
152
330
31
100
AcDbDictionary
280
     1
281
     1
  3
ACAD_XREC_ROUNDTRIP
360
153
  0
DICTIONARY
  5
166
330
3B
100
AcDbDictionary
280
     1
281
     1
  3
ACAD_XREC_ROUNDTRIP
360
167
  0
DICTIONARY
  5
160
330
38
100
AcDbDictionary
280
     1
281
     1
  3
ACAD_XREC_ROUNDTRIP
360
161
  0
DICTIONARY
  5
168
330
3C
100
AcDbDictionary
280
     1
281
     1
  3
ACAD_XREC_ROUNDTRIP
360
169
  0
DICTIONARY
  5
156
330
33
100
AcDbDictionary
280
     1
281
     1
  3
ACAD_XREC_ROUNDTRIP
360
157
  0
DICTIONARY
  5
174
330
42
100
AcDbDictionary
280
     1
281
     1
  3
ACAD_XREC_ROUNDTRIP
360
175
  0
DICTIONARY
  5
172
330
41
100
AcDbDictionary
280
     1
281
     1
  3
ACAD_XREC_ROUNDTRIP
360
173
  0
DICTIONARY
  5
16C
330
3E
100
AcDbDictionary
280
     1
281
     1
  3
ACAD_XREC_ROUNDTRIP
360
16D
  0
DICTIONARY
  5
16E
330
3F
100
AcDbDictionary
280
     1
281
     1
  3
ACAD_XREC_ROUNDTRIP
360
16F
  0
DICTIONARY
  5
15E
330
37
100
AcDbDictionary
280
     1
281
     1
  3
ACAD_XREC_ROUNDTRIP
360
15F
  0
DICTIONARY
  5
150
330
30
100
AcDbDictionary
280
     1
281
     1
  3
ACAD_XREC_ROUNDTRIP
360
151
  0
DICTIONARY
  5
170
330
40
100
AcDbDictionary
280
     1
281
     1
  3
ACAD_XREC_ROUNDTRIP
360
171
  0
XRECORD
  5
179
102
{ACAD_REACTORS
330
178
102
}
330
178
100
AcDbXrecord
280
     1
102
MATERIAL
148
0.0
149
0.0
149
0.0
 93
        0
 94
      127
282
     0
 72
     1
 77
     1
171
     1
175
     1
179
     1
273
     0
  0
XRECORD
  5
177
102
{ACAD_REACTORS
330
176
102
}
330
176
100
AcDbXrecord
280
     1
102
MATERIAL
148
0.0
149
0.0
149
0.0
 93
        0
 94
      127
282
     0
 72
     1
 77
     1
171
     1
175
     1
179
     1
273
     0
  0
XRECORD
  5
17B
102
{ACAD_REACTORS
330
17A
102
}
330
17A
100
AcDbXrecord
280
     1
102
MATERIAL
148
0.0
149
0.0
149
0.0
 93
        0
 94
      127
282
     0
 72
     1
 77
     1
171
     1
175
     1
179
     1
273
     0
  0
XRECORD
  5
181
102
{ACAD_REACTORS
330
180
102
}
330
180
100
AcDbXrecord
280
     1
102
ACAD_ROUNDTRIP_2010_MLEADER_STYLE
  0
CELLSTYLEMAP
  5
17E
102
{ACAD_REACTORS
330
17C
102
}
330
17C
100
AcDbCellStyleMap
 90
        3
300
CELLSTYLE
  1
TABLEFORMAT_BEGIN
 90
        5
170
     1
 91
        0
 92
    32768
 62
   257
 93
        1
300
CONTENTFORMAT
  1
CONTENTFORMAT_BEGIN
 90
        0
 91
        0
 92
        4
 93
        0
300

 40
0.0
140
1.0
 94
        5
 62
     0
340
11
144
0.25
309
CONTENTFORMAT_END
171
     1
301
MARGIN
  1
CELLMARGIN_BEGIN
 40
0.06
 40
0.06
 40
0.06
 40
0.06
 40
0.06
 40
0.06
309
CELLMARGIN_END
 94
        6
 95
        1
302
GRIDFORMAT
  1
GRIDFORMAT_BEGIN
 90
        0
 91
        1
 62
     0
 92
       -2
340
14
 93
        0
 40
0.045
309
GRIDFORMAT_END
 95
        2
302
GRIDFORMAT
  1
GRIDFORMAT_BEGIN
 90
        0
 91
        1
 62
     0
 92
       -2
340
14
 93
        0
 40
0.045
309
GRIDFORMAT_END
 95
        4
302
GRIDFORMAT
  1
GRIDFORMAT_BEGIN
 90
        0
 91
        1
 62
     0
 92
       -2
340
14
 93
        0
 40
0.045
309
GRIDFORMAT_END
 95
        8
302
GRIDFORMAT
  1
GRIDFORMAT_BEGIN
 90
        0
 91
        1
 62
     0
 92
       -2
340
14
 93
        0
 40
0.045
309
GRIDFORMAT_END
 95
       16
302
GRIDFORMAT
  1
GRIDFORMAT_BEGIN
 90
        0
 91
        1
 62
     0
 92
       -2
340
14
 93
        0
 40
0.045
309
GRIDFORMAT_END
 95
       32
302
GRIDFORMAT
  1
GRIDFORMAT_BEGIN
 90
        0
 91
        1
 62
     0
 92
       -2
340
14
 93
        0
 40
0.045
309
GRIDFORMAT_END
309
TABLEFORMAT_END
  1
CELLSTYLE_BEGIN
 90
        1
 91
        1
300
_TITLE
309
CELLSTYLE_END
300
CELLSTYLE
  1
TABLEFORMAT_BEGIN
 90
        5
170
     1
 91
        0
 92
        0
 62
   257
 93
        1
300
CONTENTFORMAT
  1
CONTENTFORMAT_BEGIN
 90
        0
 91
        0
 92
        4
 93
        0
300

 40
0.0
140
1.0
 94
        5
 62
     0
340
11
144
0.18
309
CONTENTFORMAT_END
171
     1
301
MARGIN
  1
CELLMARGIN_BEGIN
 40
0.06
 40
0.06
 40
0.06
 40
0.06
 40
0.06
 40
0.06
309
CELLMARGIN_END
 94
        6
 95
        1
302
GRIDFORMAT
  1
GRIDFORMAT_BEGIN
 90
        0
 91
        1
 62
     0
 92
       -2
340
14
 93
        0
 40
0.045
309
GRIDFORMAT_END
 95
        2
302
GRIDFORMAT
  1
GRIDFORMAT_BEGIN
 90
        0
 91
        1
 62
     0
 92
       -2
340
14
 93
        0
 40
0.045
309
GRIDFORMAT_END
 95
        4
302
GRIDFORMAT
  1
GRIDFORMAT_BEGIN
 90
        0
 91
        1
 62
     0
 92
       -2
340
14
 93
        0
 40
0.045
309
GRIDFORMAT_END
 95
        8
302
GRIDFORMAT
  1
GRIDFORMAT_BEGIN
 90
        0
 91
        1
 62
     0
 92
       -2
340
14
 93
        0
 40
0.045
309
GRIDFORMAT_END
 95
       16
302
GRIDFORMAT
  1
GRIDFORMAT_BEGIN
 90
        0
 91
        1
 62
     0
 92
       -2
340
14
 93
        0
 40
0.045
309
GRIDFORMAT_END
 95
       32
302
GRIDFORMAT
  1
GRIDFORMAT_BEGIN
 90
        0
 91
        1
 62
     0
 92
       -2
340
14
 93
        0
 40
0.045
309
GRIDFORMAT_END
309
TABLEFORMAT_END
  1
CELLSTYLE_BEGIN
 90
        2
 91
        1
300
_HEADER
309
CELLSTYLE_END
300
CELLSTYLE
  1
TABLEFORMAT_BEGIN
 90
        5
170
     1
 91
        0
 92
        0
 62
   257
 93
        1
300
CONTENTFORMAT
  1
CONTENTFORMAT_BEGIN
 90
        0
 91
        0
 92
        4
 93
        0
300

 40
0.0
140
1.0
 94
        2
 62
     0
340
11
144
0.18
309
CONTENTFORMAT_END
171
     1
301
MARGIN
  1
CELLMARGIN_BEGIN
 40
0.06
 40
0.06
 40
0.06
 40
0.06
 40
0.06
 40
0.06
309
CELLMARGIN_END
 94
        6
 95
        1
302
GRIDFORMAT
  1
GRIDFORMAT_BEGIN
 90
        0
 91
        1
 62
     0
 92
       -2
340
14
 93
        0
 40
0.045
309
GRIDFORMAT_END
 95
        2
302
GRIDFORMAT
  1
GRIDFORMAT_BEGIN
 90
        0
 91
        1
 62
     0
 92
       -2
340
14
 93
        0
 40
0.045
309
GRIDFORMAT_END
 95
        4
302
GRIDFORMAT
  1
GRIDFORMAT_BEGIN
 90
        0
 91
        1
 62
     0
 92
       -2
340
14
 93
        0
 40
0.045
309
GRIDFORMAT_END
 95
        8
302
GRIDFORMAT
  1
GRIDFORMAT_BEGIN
 90
        0
 91
        1
 62
     0
 92
       -2
340
14
 93
        0
 40
0.045
309
GRIDFORMAT_END
 95
       16
302
GRIDFORMAT
  1
GRIDFORMAT_BEGIN
 90
        0
 91
        1
 62
     0
 92
       -2
340
14
 93
        0
 40
0.045
309
GRIDFORMAT_END
 95
       32
302
GRIDFORMAT
  1
GRIDFORMAT_BEGIN
 90
        0
 91
        1
 62
     0
 92
       -2
340
14
 93
        0
 40
0.045
309
GRIDFORMAT_END
309
TABLEFORMAT_END
  1
CELLSTYLE_BEGIN
 90
        3
 91
        2
300
_DATA
309
CELLSTYLE_END
  0
XRECORD
  5
17D
102
{ACAD_REACTORS
330
17C
102
}
330
17C
100
AcDbXrecord
280
     1
102
ACAD_ROUNDTRIP_PRE2007_TABLESTYLE
 90
        4
 91
        0
  1

 92
        4
 93
        0
  2

 94
        4
 95
        0
  3

  0
XRECORD
  5
14F
102
{ACAD_REACTORS
330
14E
102
}
330
14E
100
AcDbXrecord
280
     1
102
RTVSPropertyOp0
 70
     1
102
RTVSPropertyOp1
 70
     1
102
RTVSPropertyOp2
 70
     1
102
RTVSPropertyOp3
 70
     1
102
RTVSPropertyOp4
 70
     1
102
RTVSPropertyOp5
 70
     1
102
RTVSPropertyOp6
 70
     1
102
RTVSPropertyOp7
 70
     1
102
RTVSPropertyOp8
 70
     1
102
RTVSPropertyOp9
 70
     1
102
RTVSPropertyOp10
 70
     1
102
RTVSPropertyOp11
 70
     1
102
RTVSPropertyOp12
 70
     1
102
RTVSPropertyOp13
 70
     1
102
RTVSPropertyOp14
 70
     1
102
RTVSPropertyOp15
 70
     1
102
RTVSPropertyOp16
 70
     1
102
RTVSPropertyOp17
 70
     1
102
RTVSPropertyOp18
 70
     1
102
RTVSPropertyOp19
 70
     1
102
RTVSPropertyOp20
 70
     1
102
RTVSPropertyOp21
 70
     1
102
RTVSPropertyOp22
 70
     1
102
RTVSPropertyOp23
 70
     1
102
RTVSPropertyOp24
 70
     1
102
RTVSPropertyOp25
 70
     1
102
RTVSPropertyOp26
 70
     1
102
RTVSPropertyOp27
 70
     1
102
RTVSPropertyOp28
 70
     1
102
RTVSPropertyOp29
 70
     1
102
RTVSPropertyOp30
 70
     1
102
RTVSPropertyOp31
 70
     1
102
RTVSPropertyOp32
 70
     1
102
RTVSPropertyOp33
 70
     1
102
RTVSPropertyOp34
 70
     1
102
RTVSPropertyOp35
 70
     1
102
RTVSPropertyOp36
 70
     1
102
RTVSPropertyOp37
 70
     1
102
RTVSPropertyOp38
 70
     1
102
RTVSPropertyOp39
 70
     1
102
RTVSPropertyOp40
 70
     1
102
RTVSPropertyOp41
 70
     1
102
RTVSPropertyOp42
 70
     1
102
RTVSPropertyOp43
 70
     1
102
RTVSPropertyOp44
 70
     1
102
RTVSPropertyOp45
 70
     1
102
RTVSPropertyOp46
 70
     1
102
RTVSPropertyOp47
 70
     1
102
RTVSPropertyOp48
 70
     1
102
RTVSPropertyOp49
 70
     1
102
RTVSPropertyOp50
 70
     1
102
RTVSPropertyOp51
 70
     0
102
RTVSPropertyOp52
 70
     0
102
RTVSPropertyOp53
 70
     1
102
RTVSPropertyOp54
 70
     1
102
RTVSPropertyOp55
 70
     1
102
RTVSPropertyOp56
 70
     1
102
RTVSPropertyOp57
 70
     1
102
RTVSPost2010Prop28
280
     1
102
RTVSPost2010PropOp28
 70
     1
102
RTVSPost2010Prop29
280
     1
102
RTVSPost2010PropOp29
 70
     1
102
RTVSPost2010Prop30
280
     0
102
RTVSPost2010PropOp30
 70
     1
102
RTVSPost2010Prop31
280
     0
102
RTVSPost2010PropOp31
 70
     1
102
RTVSPost2010Prop32
280
     0
102
RTVSPost2010PropOp32
 70
     1
102
RTVSPost2010Prop33
280
     0
102
RTVSPost2010PropOp33
 70
     1
102
RTVSPost2010Prop34
280
     0
102
RTVSPost2010PropOp34
 70
     1
102
RTVSPost2010Prop35
280
     0
102
RTVSPost2010PropOp35
 70
     1
102
RTVSPost2010Prop36
280
     0
102
RTVSPost2010PropOp36
 70
     1
102
RTVSPost2010Prop37
 90
       50
102
RTVSPost2010PropOp37
 70
     1
102
RTVSPost2010Prop38
140
0.0
102
RTVSPost2010PropOp38
 70
     1
102
RTVSPost2010Prop39
140
1.0
102
RTVSPost2010PropOp39
 70
     1
102
RTVSPost2010Prop40
 90
        0
102
RTVSPost2010PropOp40
 70
     1
102
RTVSPost2010Prop41ColorIndex
 90
       18
102
RTVSPost2010Prop41ColorRGB
 90
        0
102
RTVSPost2010PropOp41
 70
     1
102
RTVSPost2010Prop42
 90
       50
102
RTVSPost2010PropOp42
 70
     1
102
RTVSPost2010Prop43
 90
        3
102
RTVSPost2010PropOp43
 70
     1
102
RTVSPost2010Prop44ColorIndex
 90
        5
102
RTVSPost2010Prop44ColorRGB
 90
      255
102
RTVSPost2010PropOp44
 70
     1
102
RTVSPost2010Prop45
280
     0
102
RTVSPost2010PropOp45
 70
     1
102
RTVSPost2010Prop46
 90
       50
102
RTVSPost2010PropOp46
 70
     1
102
RTVSPost2010Prop47
 90
       50
102
RTVSPost2010PropOp47
 70
     1
102
RTVSPost2010Prop48
 90
       50
102
RTVSPost2010PropOp48
 70
     1
102
RTVSPost2010Prop49
280
     0
102
RTVSPost2010PropOp49
 70
     1
102
RTVSPost2010Prop50
 90
       50
102
RTVSPost2010PropOp50
 70
     1
102
RTVSPost2010Prop51ColorIndex
 90
      256
102
RTVSPost2010Prop51ColorRGB
 90
-16777216
102
RTVSPost2010PropOp51
 70
     0
102
RTVSPost2010Prop52
140
1.0
102
RTVSPost2010PropOp52
 70
     0
102
RTVSPost2010Prop53
 90
        2
102
RTVSPost2010PropOp53
 70
     1
102
RTVSPost2010Prop54
  1
strokes_ogs.tif
102
RTVSPost2010PropOp54
 70
     1
102
RTVSPost2010Prop55
280
     0
102
RTVSPost2010PropOp55
 70
     1
102
RTVSPost2010Prop56
140
1.0
102
RTVSPost2010PropOp56
 70
     1
102
RTVSPost2010Prop57
140
1.0
102
RTVSPost2010PropOp57
 70
     1
  0
XRECORD
  5
155
102
{ACAD_REACTORS
330
154
102
}
330
154
100
AcDbXrecord
280
     1
102
RTVSPropertyOp0
 70
     1
102
RTVSPropertyOp1
 70
     1
102
RTVSPropertyOp2
 70
     1
102
RTVSPropertyOp3
 70
     1
102
RTVSPropertyOp4
 70
     1
102
RTVSPropertyOp5
 70
     1
102
RTVSPropertyOp6
 70
     1
102
RTVSPropertyOp7
 70
     1
102
RTVSPropertyOp8
 70
     1
102
RTVSPropertyOp9
 70
     1
102
RTVSPropertyOp10
 70
     1
102
RTVSPropertyOp11
 70
     1
102
RTVSPropertyOp12
 70
     1
102
RTVSPropertyOp13
 70
     1
102
RTVSPropertyOp14
 70
     1
102
RTVSPropertyOp15
 70
     1
102
RTVSPropertyOp16
 70
     1
102
RTVSPropertyOp17
 70
     1
102
RTVSPropertyOp18
 70
     1
102
RTVSPropertyOp19
 70
     1
102
RTVSPropertyOp20
 70
     1
102
RTVSPropertyOp21
 70
     1
102
RTVSPropertyOp22
 70
     1
102
RTVSPropertyOp23
 70
     1
102
RTVSPropertyOp24
 70
     1
102
RTVSPropertyOp25
 70
     1
102
RTVSPropertyOp26
 70
     1
102
RTVSPropertyOp27
 70
     1
102
RTVSPropertyOp28
 70
     1
102
RTVSPropertyOp29
 70
     1
102
RTVSPropertyOp30
 70
     1
102
RTVSPropertyOp31
 70
     1
102
RTVSPropertyOp32
 70
     1
102
RTVSPropertyOp33
 70
     1
102
RTVSPropertyOp34
 70
     1
102
RTVSPropertyOp35
 70
     1
102
RTVSPropertyOp36
 70
     1
102
RTVSPropertyOp37
 70
     1
102
RTVSPropertyOp38
 70
     1
102
RTVSPropertyOp39
 70
     1
102
RTVSPropertyOp40
 70
     1
102
RTVSPropertyOp41
 70
     1
102
RTVSPropertyOp42
 70
     1
102
RTVSPropertyOp43
 70
     1
102
RTVSPropertyOp44
 70
     1
102
RTVSPropertyOp45
 70
     1
102
RTVSPropertyOp46
 70
     1
102
RTVSPropertyOp47
 70
     1
102
RTVSPropertyOp48
 70
     1
102
RTVSPropertyOp49
 70
     1
102
RTVSPropertyOp50
 70
     1
102
RTVSPropertyOp51
 70
     0
102
RTVSPropertyOp52
 70
     0
102
RTVSPropertyOp53
 70
     1
102
RTVSPropertyOp54
 70
     1
102
RTVSPropertyOp55
 70
     1
102
RTVSPropertyOp56
 70
     1
102
RTVSPropertyOp57
 70
     1
102
RTVSPost2010Prop28
280
     0
102
RTVSPost2010PropOp28
 70
     1
102
RTVSPost2010Prop29
280
     1
102
RTVSPost2010PropOp29
 70
     1
102
RTVSPost2010Prop30
280
     1
102
RTVSPost2010PropOp30
 70
     1
102
RTVSPost2010Prop31
280
     0
102
RTVSPost2010PropOp31
 70
     1
102
RTVSPost2010Prop32
280
     0
102
RTVSPost2010PropOp32
 70
     1
102
RTVSPost2010Prop33
280
     0
102
RTVSPost2010PropOp33
 70
     1
102
RTVSPost2010Prop34
280
     0
102
RTVSPost2010PropOp34
 70
     1
102
RTVSPost2010Prop35
280
     0
102
RTVSPost2010PropOp35
 70
     1
102
RTVSPost2010Prop36
280
     0
102
RTVSPost2010PropOp36
 70
     1
102
RTVSPost2010Prop37
 90
       50
102
RTVSPost2010PropOp37
 70
     1
102
RTVSPost2010Prop38
140
0.0
102
RTVSPost2010PropOp38
 70
     1
102
RTVSPost2010Prop39
140
1.0
102
RTVSPost2010PropOp39
 70
     1
102
RTVSPost2010Prop40
 90
        0
102
RTVSPost2010PropOp40
 70
     1
102
RTVSPost2010Prop41ColorIndex
 90
       18
102
RTVSPost2010Prop41ColorRGB
 90
        0
102
RTVSPost2010PropOp41
 70
     1
102
RTVSPost2010Prop42
 90
       50
102
RTVSPost2010PropOp42
 70
     1
102
RTVSPost2010Prop43
 90
        3
102
RTVSPost2010PropOp43
 70
     1
102
RTVSPost2010Prop44ColorIndex
 90
        5
102
RTVSPost2010Prop44ColorRGB
 90
      255
102
RTVSPost2010PropOp44
 70
     1
102
RTVSPost2010Prop45
280
     0
102
RTVSPost2010PropOp45
 70
     1
102
RTVSPost2010Prop46
 90
       50
102
RTVSPost2010PropOp46
 70
     1
102
RTVSPost2010Prop47
 90
       50
102
RTVSPost2010PropOp47
 70
     1
102
RTVSPost2010Prop48
 90
       50
102
RTVSPost2010PropOp48
 70
     1
102
RTVSPost2010Prop49
280
     0
102
RTVSPost2010PropOp49
 70
     1
102
RTVSPost2010Prop50
 90
       50
102
RTVSPost2010PropOp50
 70
     1
102
RTVSPost2010Prop51ColorIndex
 90
      256
102
RTVSPost2010Prop51ColorRGB
 90
-16777216
102
RTVSPost2010PropOp51
 70
     0
102
RTVSPost2010Prop52
140
1.0
102
RTVSPost2010PropOp52
 70
     0
102
RTVSPost2010Prop53
 90
        2
102
RTVSPost2010PropOp53
 70
     1
102
RTVSPost2010Prop54
  1
strokes_ogs.tif
102
RTVSPost2010PropOp54
 70
     1
102
RTVSPost2010Prop55
280
     0
102
RTVSPost2010PropOp55
 70
     1
102
RTVSPost2010Prop56
140
1.0
102
RTVSPost2010PropOp56
 70
     1
102
RTVSPost2010Prop57
140
1.0
102
RTVSPost2010PropOp57
 70
     1
  0
XRECORD
  5
15D
102
{ACAD_REACTORS
330
15C
102
}
330
15C
100
AcDbXrecord
280
     1
102
RTVSPropertyOp0
 70
     1
102
RTVSPropertyOp1
 70
     1
102
RTVSPropertyOp2
 70
     1
102
RTVSPropertyOp3
 70
     1
102
RTVSPropertyOp4
 70
     1
102
RTVSPropertyOp5
 70
     1
102
RTVSPropertyOp6
 70
     1
102
RTVSPropertyOp7
 70
     1
102
RTVSPropertyOp8
 70
     1
102
RTVSPropertyOp9
 70
     1
102
RTVSPropertyOp10
 70
     1
102
RTVSPropertyOp11
 70
     1
102
RTVSPropertyOp12
 70
     1
102
RTVSPropertyOp13
 70
     1
102
RTVSPropertyOp14
 70
     1
102
RTVSPropertyOp15
 70
     1
102
RTVSPropertyOp16
 70
     1
102
RTVSPropertyOp17
 70
     1
102
RTVSPropertyOp18
 70
     1
102
RTVSPropertyOp19
 70
     1
102
RTVSPropertyOp20
 70
     1
102
RTVSPropertyOp21
 70
     1
102
RTVSPropertyOp22
 70
     1
102
RTVSPropertyOp23
 70
     1
102
RTVSPropertyOp24
 70
     1
102
RTVSPropertyOp25
 70
     1
102
RTVSPropertyOp26
 70
     1
102
RTVSPropertyOp27
 70
     1
102
RTVSPropertyOp28
 70
     1
102
RTVSPropertyOp29
 70
     1
102
RTVSPropertyOp30
 70
     1
102
RTVSPropertyOp31
 70
     1
102
RTVSPropertyOp32
 70
     1
102
RTVSPropertyOp33
 70
     1
102
RTVSPropertyOp34
 70
     1
102
RTVSPropertyOp35
 70
     1
102
RTVSPropertyOp36
 70
     1
102
RTVSPropertyOp37
 70
     1
102
RTVSPropertyOp38
 70
     1
102
RTVSPropertyOp39
 70
     1
102
RTVSPropertyOp40
 70
     1
102
RTVSPropertyOp41
 70
     1
102
RTVSPropertyOp42
 70
     1
102
RTVSPropertyOp43
 70
     1
102
RTVSPropertyOp44
 70
     1
102
RTVSPropertyOp45
 70
     1
102
RTVSPropertyOp46
 70
     1
102
RTVSPropertyOp47
 70
     1
102
RTVSPropertyOp48
 70
     1
102
RTVSPropertyOp49
 70
     1
102
RTVSPropertyOp50
 70
     1
102
RTVSPropertyOp51
 70
     0
102
RTVSPropertyOp52
 70
     0
102
RTVSPropertyOp53
 70
     1
102
RTVSPropertyOp54
 70
     1
102
RTVSPropertyOp55
 70
     1
102
RTVSPropertyOp56
 70
     1
102
RTVSPropertyOp57
 70
     1
102
RTVSPost2010Prop28
280
     0
102
RTVSPost2010PropOp28
 70
     1
102
RTVSPost2010Prop29
280
     1
102
RTVSPost2010PropOp29
 70
     1
102
RTVSPost2010Prop30
280
     1
102
RTVSPost2010PropOp30
 70
     1
102
RTVSPost2010Prop31
280
     0
102
RTVSPost2010PropOp31
 70
     1
102
RTVSPost2010Prop32
280
     0
102
RTVSPost2010PropOp32
 70
     1
102
RTVSPost2010Prop33
280
     0
102
RTVSPost2010PropOp33
 70
     1
102
RTVSPost2010Prop34
280
     0
102
RTVSPost2010PropOp34
 70
     1
102
RTVSPost2010Prop35
280
     0
102
RTVSPost2010PropOp35
 70
     1
102
RTVSPost2010Prop36
280
     0
102
RTVSPost2010PropOp36
 70
     1
102
RTVSPost2010Prop37
 90
       50
102
RTVSPost2010PropOp37
 70
     1
102
RTVSPost2010Prop38
140
0.0
102
RTVSPost2010PropOp38
 70
     1
102
RTVSPost2010Prop39
140
1.0
102
RTVSPost2010PropOp39
 70
     1
102
RTVSPost2010Prop40
 90
        0
102
RTVSPost2010PropOp40
 70
     1
102
RTVSPost2010Prop41ColorIndex
 90
       18
102
RTVSPost2010Prop41ColorRGB
 90
        0
102
RTVSPost2010PropOp41
 70
     1
102
RTVSPost2010Prop42
 90
       50
102
RTVSPost2010PropOp42
 70
     1
102
RTVSPost2010Prop43
 90
        3
102
RTVSPost2010PropOp43
 70
     1
102
RTVSPost2010Prop44ColorIndex
 90
        5
102
RTVSPost2010Prop44ColorRGB
 90
      255
102
RTVSPost2010PropOp44
 70
     1
102
RTVSPost2010Prop45
280
     0
102
RTVSPost2010PropOp45
 70
     1
102
RTVSPost2010Prop46
 90
       50
102
RTVSPost2010PropOp46
 70
     1
102
RTVSPost2010Prop47
 90
       50
102
RTVSPost2010PropOp47
 70
     1
102
RTVSPost2010Prop48
 90
       50
102
RTVSPost2010PropOp48
 70
     1
102
RTVSPost2010Prop49
280
     0
102
RTVSPost2010PropOp49
 70
     1
102
RTVSPost2010Prop50
 90
       50
102
RTVSPost2010PropOp50
 70
     1
102
RTVSPost2010Prop51ColorIndex
 90
      256
102
RTVSPost2010Prop51ColorRGB
 90
-16777216
102
RTVSPost2010PropOp51
 70
     0
102
RTVSPost2010Prop52
140
1.0
102
RTVSPost2010PropOp52
 70
     0
102
RTVSPost2010Prop53
 90
        2
102
RTVSPost2010PropOp53
 70
     1
102
RTVSPost2010Prop54
  1
strokes_ogs.tif
102
RTVSPost2010PropOp54
 70
     1
102
RTVSPost2010Prop55
280
     0
102
RTVSPost2010PropOp55
 70
     1
102
RTVSPost2010Prop56
140
1.0
102
RTVSPost2010PropOp56
 70
     1
102
RTVSPost2010Prop57
140
1.0
102
RTVSPost2010PropOp57
 70
     1
  0
XRECORD
  5
165
102
{ACAD_REACTORS
330
164
102
}
330
164
100
AcDbXrecord
280
     1
102
RTVSPropertyOp0
 70
     1
102
RTVSPropertyOp1
 70
     1
102
RTVSPropertyOp2
 70
     1
102
RTVSPropertyOp3
 70
     1
102
RTVSPropertyOp4
 70
     1
102
RTVSPropertyOp5
 70
     1
102
RTVSPropertyOp6
 70
     1
102
RTVSPropertyOp7
 70
     1
102
RTVSPropertyOp8
 70
     1
102
RTVSPropertyOp9
 70
     1
102
RTVSPropertyOp10
 70
     1
102
RTVSPropertyOp11
 70
     1
102
RTVSPropertyOp12
 70
     1
102
RTVSPropertyOp13
 70
     1
102
RTVSPropertyOp14
 70
     1
102
RTVSPropertyOp15
 70
     1
102
RTVSPropertyOp16
 70
     1
102
RTVSPropertyOp17
 70
     1
102
RTVSPropertyOp18
 70
     1
102
RTVSPropertyOp19
 70
     1
102
RTVSPropertyOp20
 70
     1
102
RTVSPropertyOp21
 70
     1
102
RTVSPropertyOp22
 70
     1
102
RTVSPropertyOp23
 70
     1
102
RTVSPropertyOp24
 70
     1
102
RTVSPropertyOp25
 70
     1
102
RTVSPropertyOp26
 70
     1
102
RTVSPropertyOp27
 70
     1
102
RTVSPropertyOp28
 70
     1
102
RTVSPropertyOp29
 70
     1
102
RTVSPropertyOp30
 70
     1
102
RTVSPropertyOp31
 70
     1
102
RTVSPropertyOp32
 70
     1
102
RTVSPropertyOp33
 70
     1
102
RTVSPropertyOp34
 70
     1
102
RTVSPropertyOp35
 70
     1
102
RTVSPropertyOp36
 70
     1
102
RTVSPropertyOp37
 70
     1
102
RTVSPropertyOp38
 70
     1
102
RTVSPropertyOp39
 70
     1
102
RTVSPropertyOp40
 70
     1
102
RTVSPropertyOp41
 70
     1
102
RTVSPropertyOp42
 70
     1
102
RTVSPropertyOp43
 70
     1
102
RTVSPropertyOp44
 70
     1
102
RTVSPropertyOp45
 70
     1
102
RTVSPropertyOp46
 70
     1
102
RTVSPropertyOp47
 70
     1
102
RTVSPropertyOp48
 70
     1
102
RTVSPropertyOp49
 70
     1
102
RTVSPropertyOp50
 70
     1
102
RTVSPropertyOp51
 70
     0
102
RTVSPropertyOp52
 70
     0
102
RTVSPropertyOp53
 70
     1
102
RTVSPropertyOp54
 70
     1
102
RTVSPropertyOp55
 70
     1
102
RTVSPropertyOp56
 70
     1
102
RTVSPropertyOp57
 70
     1
102
RTVSPost2010Prop28
280
     0
102
RTVSPost2010PropOp28
 70
     1
102
RTVSPost2010Prop29
280
     1
102
RTVSPost2010PropOp29
 70
     1
102
RTVSPost2010Prop30
280
     1
102
RTVSPost2010PropOp30
 70
     1
102
RTVSPost2010Prop31
280
     0
102
RTVSPost2010PropOp31
 70
     1
102
RTVSPost2010Prop32
280
     0
102
RTVSPost2010PropOp32
 70
     1
102
RTVSPost2010Prop33
280
     0
102
RTVSPost2010PropOp33
 70
     1
102
RTVSPost2010Prop34
280
     0
102
RTVSPost2010PropOp34
 70
     1
102
RTVSPost2010Prop35
280
     0
102
RTVSPost2010PropOp35
 70
     1
102
RTVSPost2010Prop36
280
     0
102
RTVSPost2010PropOp36
 70
     1
102
RTVSPost2010Prop37
 90
       50
102
RTVSPost2010PropOp37
 70
     1
102
RTVSPost2010Prop38
140
0.0
102
RTVSPost2010PropOp38
 70
     1
102
RTVSPost2010Prop39
140
1.0
102
RTVSPost2010PropOp39
 70
     1
102
RTVSPost2010Prop40
 90
        0
102
RTVSPost2010PropOp40
 70
     1
102
RTVSPost2010Prop41ColorIndex
 90
       18
102
RTVSPost2010Prop41ColorRGB
 90
        0
102
RTVSPost2010PropOp41
 70
     1
102
RTVSPost2010Prop42
 90
       50
102
RTVSPost2010PropOp42
 70
     1
102
RTVSPost2010Prop43
 90
        3
102
RTVSPost2010PropOp43
 70
     1
102
RTVSPost2010Prop44ColorIndex
 90
        5
102
RTVSPost2010Prop44ColorRGB
 90
      255
102
RTVSPost2010PropOp44
 70
     1
102
RTVSPost2010Prop45
280
     0
102
RTVSPost2010PropOp45
 70
     1
102
RTVSPost2010Prop46
 90
       50
102
RTVSPost2010PropOp46
 70
     1
102
RTVSPost2010Prop47
 90
       50
102
RTVSPost2010PropOp47
 70
     1
102
RTVSPost2010Prop48
 90
       50
102
RTVSPost2010PropOp48
 70
     1
102
RTVSPost2010Prop49
280
     0
102
RTVSPost2010PropOp49
 70
     1
102
RTVSPost2010Prop50
 90
       50
102
RTVSPost2010PropOp50
 70
     1
102
RTVSPost2010Prop51ColorIndex
 90
      256
102
RTVSPost2010Prop51ColorRGB
 90
-16777216
102
RTVSPost2010PropOp51
 70
     0
102
RTVSPost2010Prop52
140
1.0
102
RTVSPost2010PropOp52
 70
     0
102
RTVSPost2010Prop53
 90
        2
102
RTVSPost2010PropOp53
 70
     1
102
RTVSPost2010Prop54
  1
strokes_ogs.tif
102
RTVSPost2010PropOp54
 70
     1
102
RTVSPost2010Prop55
280
     0
102
RTVSPost2010PropOp55
 70
     1
102
RTVSPost2010Prop56
140
1.0
102
RTVSPost2010PropOp56
 70
     1
102
RTVSPost2010Prop57
140
1.0
102
RTVSPost2010PropOp57
 70
     1
  0
XRECORD
  5
159
102
{ACAD_REACTORS
330
158
102
}
330
158
100
AcDbXrecord
280
     1
102
RTVSPropertyOp0
 70
     1
102
RTVSPropertyOp1
 70
     1
102
RTVSPropertyOp2
 70
     1
102
RTVSPropertyOp3
 70
     1
102
RTVSPropertyOp4
 70
     1
102
RTVSPropertyOp5
 70
     1
102
RTVSPropertyOp6
 70
     1
102
RTVSPropertyOp7
 70
     1
102
RTVSPropertyOp8
 70
     1
102
RTVSPropertyOp9
 70
     1
102
RTVSPropertyOp10
 70
     1
102
RTVSPropertyOp11
 70
     1
102
RTVSPropertyOp12
 70
     1
102
RTVSPropertyOp13
 70
     1
102
RTVSPropertyOp14
 70
     1
102
RTVSPropertyOp15
 70
     1
102
RTVSPropertyOp16
 70
     1
102
RTVSPropertyOp17
 70
     1
102
RTVSPropertyOp18
 70
     1
102
RTVSPropertyOp19
 70
     1
102
RTVSPropertyOp20
 70
     1
102
RTVSPropertyOp21
 70
     1
102
RTVSPropertyOp22
 70
     1
102
RTVSPropertyOp23
 70
     1
102
RTVSPropertyOp24
 70
     1
102
RTVSPropertyOp25
 70
     1
102
RTVSPropertyOp26
 70
     1
102
RTVSPropertyOp27
 70
     1
102
RTVSPropertyOp28
 70
     1
102
RTVSPropertyOp29
 70
     1
102
RTVSPropertyOp30
 70
     1
102
RTVSPropertyOp31
 70
     1
102
RTVSPropertyOp32
 70
     1
102
RTVSPropertyOp33
 70
     1
102
RTVSPropertyOp34
 70
     1
102
RTVSPropertyOp35
 70
     1
102
RTVSPropertyOp36
 70
     1
102
RTVSPropertyOp37
 70
     1
102
RTVSPropertyOp38
 70
     1
102
RTVSPropertyOp39
 70
     1
102
RTVSPropertyOp40
 70
     1
102
RTVSPropertyOp41
 70
     1
102
RTVSPropertyOp42
 70
     1
102
RTVSPropertyOp43
 70
     1
102
RTVSPropertyOp44
 70
     1
102
RTVSPropertyOp45
 70
     1
102
RTVSPropertyOp46
 70
     1
102
RTVSPropertyOp47
 70
     1
102
RTVSPropertyOp48
 70
     1
102
RTVSPropertyOp49
 70
     1
102
RTVSPropertyOp50
 70
     1
102
RTVSPropertyOp51
 70
     0
102
RTVSPropertyOp52
 70
     0
102
RTVSPropertyOp53
 70
     1
102
RTVSPropertyOp54
 70
     1
102
RTVSPropertyOp55
 70
     1
102
RTVSPropertyOp56
 70
     1
102
RTVSPropertyOp57
 70
     1
102
RTVSPost2010Prop28
280
     0
102
RTVSPost2010PropOp28
 70
     1
102
RTVSPost2010Prop29
280
     1
102
RTVSPost2010PropOp29
 70
     1
102
RTVSPost2010Prop30
280
     1
102
RTVSPost2010PropOp30
 70
     1
102
RTVSPost2010Prop31
280
     0
102
RTVSPost2010PropOp31
 70
     1
102
RTVSPost2010Prop32
280
     0
102
RTVSPost2010PropOp32
 70
     1
102
RTVSPost2010Prop33
280
     0
102
RTVSPost2010PropOp33
 70
     1
102
RTVSPost2010Prop34
280
     0
102
RTVSPost2010PropOp34
 70
     1
102
RTVSPost2010Prop35
280
     0
102
RTVSPost2010PropOp35
 70
     1
102
RTVSPost2010Prop36
280
     0
102
RTVSPost2010PropOp36
 70
     1
102
RTVSPost2010Prop37
 90
       50
102
RTVSPost2010PropOp37
 70
     1
102
RTVSPost2010Prop38
140
0.0
102
RTVSPost2010PropOp38
 70
     1
102
RTVSPost2010Prop39
140
1.0
102
RTVSPost2010PropOp39
 70
     1
102
RTVSPost2010Prop40
 90
        0
102
RTVSPost2010PropOp40
 70
     1
102
RTVSPost2010Prop41ColorIndex
 90
       18
102
RTVSPost2010Prop41ColorRGB
 90
        0
102
RTVSPost2010PropOp41
 70
     1
102
RTVSPost2010Prop42
 90
       50
102
RTVSPost2010PropOp42
 70
     1
102
RTVSPost2010Prop43
 90
        3
102
RTVSPost2010PropOp43
 70
     1
102
RTVSPost2010Prop44ColorIndex
 90
        5
102
RTVSPost2010Prop44ColorRGB
 90
      255
102
RTVSPost2010PropOp44
 70
     1
102
RTVSPost2010Prop45
280
     0
102
RTVSPost2010PropOp45
 70
     1
102
RTVSPost2010Prop46
 90
       50
102
RTVSPost2010PropOp46
 70
     1
102
RTVSPost2010Prop47
 90
       50
102
RTVSPost2010PropOp47
 70
     1
102
RTVSPost2010Prop48
 90
       50
102
RTVSPost2010PropOp48
 70
     1
102
RTVSPost2010Prop49
280
     0
102
RTVSPost2010PropOp49
 70
     1
102
RTVSPost2010Prop50
 90
       50
102
RTVSPost2010PropOp50
 70
     1
102
RTVSPost2010Prop51ColorIndex
 90
      256
102
RTVSPost2010Prop51ColorRGB
 90
-16777216
102
RTVSPost2010PropOp51
 70
     0
102
RTVSPost2010Prop52
140
1.0
102
RTVSPost2010PropOp52
 70
     0
102
RTVSPost2010Prop53
 90
        2
102
RTVSPost2010PropOp53
 70
     1
102
RTVSPost2010Prop54
  1
strokes_ogs.tif
102
RTVSPost2010PropOp54
 70
     1
102
RTVSPost2010Prop55
280
     0
102
RTVSPost2010PropOp55
 70
     1
102
RTVSPost2010Prop56
140
1.0
102
RTVSPost2010PropOp56
 70
     1
102
RTVSPost2010Prop57
140
1.0
102
RTVSPost2010PropOp57
 70
     1
  0
XRECORD
  5
15B
102
{ACAD_REACTORS
330
15A
102
}
330
15A
100
AcDbXrecord
280
     1
102
RTVSPropertyOp0
 70
     1
102
RTVSPropertyOp1
 70
     1
102
RTVSPropertyOp2
 70
     1
102
RTVSPropertyOp3
 70
     1
102
RTVSPropertyOp4
 70
     1
102
RTVSPropertyOp5
 70
     1
102
RTVSPropertyOp6
 70
     1
102
RTVSPropertyOp7
 70
     1
102
RTVSPropertyOp8
 70
     1
102
RTVSPropertyOp9
 70
     1
102
RTVSPropertyOp10
 70
     1
102
RTVSPropertyOp11
 70
     1
102
RTVSPropertyOp12
 70
     1
102
RTVSPropertyOp13
 70
     1
102
RTVSPropertyOp14
 70
     1
102
RTVSPropertyOp15
 70
     1
102
RTVSPropertyOp16
 70
     1
102
RTVSPropertyOp17
 70
     1
102
RTVSPropertyOp18
 70
     1
102
RTVSPropertyOp19
 70
     1
102
RTVSPropertyOp20
 70
     1
102
RTVSPropertyOp21
 70
     1
102
RTVSPropertyOp22
 70
     1
102
RTVSPropertyOp23
 70
     1
102
RTVSPropertyOp24
 70
     1
102
RTVSPropertyOp25
 70
     1
102
RTVSPropertyOp26
 70
     1
102
RTVSPropertyOp27
 70
     1
102
RTVSPropertyOp28
 70
     1
102
RTVSPropertyOp29
 70
     1
102
RTVSPropertyOp30
 70
     1
102
RTVSPropertyOp31
 70
     1
102
RTVSPropertyOp32
 70
     1
102
RTVSPropertyOp33
 70
     1
102
RTVSPropertyOp34
 70
     1
102
RTVSPropertyOp35
 70
     1
102
RTVSPropertyOp36
 70
     1
102
RTVSPropertyOp37
 70
     1
102
RTVSPropertyOp38
 70
     1
102
RTVSPropertyOp39
 70
     1
102
RTVSPropertyOp40
 70
     1
102
RTVSPropertyOp41
 70
     1
102
RTVSPropertyOp42
 70
     1
102
RTVSPropertyOp43
 70
     1
102
RTVSPropertyOp44
 70
     1
102
RTVSPropertyOp45
 70
     1
102
RTVSPropertyOp46
 70
     1
102
RTVSPropertyOp47
 70
     1
102
RTVSPropertyOp48
 70
     1
102
RTVSPropertyOp49
 70
     1
102
RTVSPropertyOp50
 70
     1
102
RTVSPropertyOp51
 70
     0
102
RTVSPropertyOp52
 70
     0
102
RTVSPropertyOp53
 70
     1
102
RTVSPropertyOp54
 70
     1
102
RTVSPropertyOp55
 70
     1
102
RTVSPropertyOp56
 70
     1
102
RTVSPropertyOp57
 70
     1
102
RTVSPost2010Prop28
280
     0
102
RTVSPost2010PropOp28
 70
     1
102
RTVSPost2010Prop29
280
     1
102
RTVSPost2010PropOp29
 70
     1
102
RTVSPost2010Prop30
280
     1
102
RTVSPost2010PropOp30
 70
     1
102
RTVSPost2010Prop31
280
     0
102
RTVSPost2010PropOp31
 70
     1
102
RTVSPost2010Prop32
280
     0
102
RTVSPost2010PropOp32
 70
     1
102
RTVSPost2010Prop33
280
     0
102
RTVSPost2010PropOp33
 70
     1
102
RTVSPost2010Prop34
280
     0
102
RTVSPost2010PropOp34
 70
     1
102
RTVSPost2010Prop35
280
     0
102
RTVSPost2010PropOp35
 70
     1
102
RTVSPost2010Prop36
280
     0
102
RTVSPost2010PropOp36
 70
     1
102
RTVSPost2010Prop37
 90
       50
102
RTVSPost2010PropOp37
 70
     1
102
RTVSPost2010Prop38
140
0.0
102
RTVSPost2010PropOp38
 70
     1
102
RTVSPost2010Prop39
140
1.0
102
RTVSPost2010PropOp39
 70
     1
102
RTVSPost2010Prop40
 90
        0
102
RTVSPost2010PropOp40
 70
     1
102
RTVSPost2010Prop41ColorIndex
 90
       18
102
RTVSPost2010Prop41ColorRGB
 90
        0
102
RTVSPost2010PropOp41
 70
     1
102
RTVSPost2010Prop42
 90
       50
102
RTVSPost2010PropOp42
 70
     1
102
RTVSPost2010Prop43
 90
        3
102
RTVSPost2010PropOp43
 70
     1
102
RTVSPost2010Prop44ColorIndex
 90
        5
102
RTVSPost2010Prop44ColorRGB
 90
      255
102
RTVSPost2010PropOp44
 70
     1
102
RTVSPost2010Prop45
280
     0
102
RTVSPost2010PropOp45
 70
     1
102
RTVSPost2010Prop46
 90
       50
102
RTVSPost2010PropOp46
 70
     1
102
RTVSPost2010Prop47
 90
       50
102
RTVSPost2010PropOp47
 70
     1
102
RTVSPost2010Prop48
 90
       50
102
RTVSPost2010PropOp48
 70
     1
102
RTVSPost2010Prop49
280
     0
102
RTVSPost2010PropOp49
 70
     1
102
RTVSPost2010Prop50
 90
       50
102
RTVSPost2010PropOp50
 70
     1
102
RTVSPost2010Prop51ColorIndex
 90
      256
102
RTVSPost2010Prop51ColorRGB
 90
-16777216
102
RTVSPost2010PropOp51
 70
     0
102
RTVSPost2010Prop52
140
1.0
102
RTVSPost2010PropOp52
 70
     0
102
RTVSPost2010Prop53
 90
        2
102
RTVSPost2010PropOp53
 70
     1
102
RTVSPost2010Prop54
  1
strokes_ogs.tif
102
RTVSPost2010PropOp54
 70
     1
102
RTVSPost2010Prop55
280
     0
102
RTVSPost2010PropOp55
 70
     1
102
RTVSPost2010Prop56
140
1.0
102
RTVSPost2010PropOp56
 70
     1
102
RTVSPost2010Prop57
140
1.0
102
RTVSPost2010PropOp57
 70
     1
  0
XRECORD
  5
16B
102
{ACAD_REACTORS
330
16A
102
}
330
16A
100
AcDbXrecord
280
     1
102
RTVSPropertyOp0
 70
     0
102
RTVSPropertyOp1
 70
     0
102
RTVSPropertyOp2
 70
     0
102
RTVSPropertyOp3
 70
     0
102
RTVSPropertyOp4
 70
     0
102
RTVSPropertyOp5
 70
     0
102
RTVSPropertyOp6
 70
     0
102
RTVSPropertyOp7
 70
     0
102
RTVSPropertyOp8
 70
     0
102
RTVSPropertyOp9
 70
     0
102
RTVSPropertyOp10
 70
     0
102
RTVSPropertyOp11
 70
     0
102
RTVSPropertyOp12
 70
     0
102
RTVSPropertyOp13
 70
     0
102
RTVSPropertyOp14
 70
     2
102
RTVSPropertyOp15
 70
     0
102
RTVSPropertyOp16
 70
     0
102
RTVSPropertyOp17
 70
     0
102
RTVSPropertyOp18
 70
     0
102
RTVSPropertyOp19
 70
     0
102
RTVSPropertyOp20
 70
     0
102
RTVSPropertyOp21
 70
     0
102
RTVSPropertyOp22
 70
     0
102
RTVSPropertyOp23
 70
     0
102
RTVSPropertyOp24
 70
     0
102
RTVSPropertyOp25
 70
     0
102
RTVSPropertyOp26
 70
     0
102
RTVSPropertyOp27
 70
     0
102
RTVSPropertyOp28
 70
     0
102
RTVSPropertyOp29
 70
     0
102
RTVSPropertyOp30
 70
     0
102
RTVSPropertyOp31
 70
     0
102
RTVSPropertyOp32
 70
     0
102
RTVSPropertyOp33
 70
     0
102
RTVSPropertyOp34
 70
     0
102
RTVSPropertyOp35
 70
     0
102
RTVSPropertyOp36
 70
     0
102
RTVSPropertyOp37
 70
     0
102
RTVSPropertyOp38
 70
     0
102
RTVSPropertyOp39
 70
     0
102
RTVSPropertyOp40
 70
     0
102
RTVSPropertyOp41
 70
     0
102
RTVSPropertyOp42
 70
     0
102
RTVSPropertyOp43
 70
     0
102
RTVSPropertyOp44
 70
     0
102
RTVSPropertyOp45
 70
     0
102
RTVSPropertyOp46
 70
     0
102
RTVSPropertyOp47
 70
     0
102
RTVSPropertyOp48
 70
     0
102
RTVSPropertyOp49
 70
     0
102
RTVSPropertyOp50
 70
     0
102
RTVSPropertyOp51
 70
     0
102
RTVSPropertyOp52
 70
     0
102
RTVSPropertyOp53
 70
     0
102
RTVSPropertyOp54
 70
     0
102
RTVSPropertyOp55
 70
     0
102
RTVSPropertyOp56
 70
     0
102
RTVSPropertyOp57
 70
     0
102
RTVSPost2010Prop28
280
     0
102
RTVSPost2010PropOp28
 70
     0
102
RTVSPost2010Prop29
280
     1
102
RTVSPost2010PropOp29
 70
     0
102
RTVSPost2010Prop30
280
     1
102
RTVSPost2010PropOp30
 70
     0
102
RTVSPost2010Prop31
280
     0
102
RTVSPost2010PropOp31
 70
     0
102
RTVSPost2010Prop32
280
     0
102
RTVSPost2010PropOp32
 70
     0
102
RTVSPost2010Prop33
280
     0
102
RTVSPost2010PropOp33
 70
     0
102
RTVSPost2010Prop34
280
     0
102
RTVSPost2010PropOp34
 70
     0
102
RTVSPost2010Prop35
280
     0
102
RTVSPost2010PropOp35
 70
     0
102
RTVSPost2010Prop36
280
     0
102
RTVSPost2010PropOp36
 70
     0
102
RTVSPost2010Prop37
 90
       50
102
RTVSPost2010PropOp37
 70
     0
102
RTVSPost2010Prop38
140
0.0
102
RTVSPost2010PropOp38
 70
     0
102
RTVSPost2010Prop39
140
1.0
102
RTVSPost2010PropOp39
 70
     0
102
RTVSPost2010Prop40
 90
        0
102
RTVSPost2010PropOp40
 70
     0
102
RTVSPost2010Prop41ColorIndex
 90
       18
102
RTVSPost2010Prop41ColorRGB
 90
        0
102
RTVSPost2010PropOp41
 70
     0
102
RTVSPost2010Prop42
 90
       50
102
RTVSPost2010PropOp42
 70
     0
102
RTVSPost2010Prop43
 90
        3
102
RTVSPost2010PropOp43
 70
     0
102
RTVSPost2010Prop44ColorIndex
 90
        5
102
RTVSPost2010Prop44ColorRGB
 90
      255
102
RTVSPost2010PropOp44
 70
     0
102
RTVSPost2010Prop45
280
     0
102
RTVSPost2010PropOp45
 70
     0
102
RTVSPost2010Prop46
 90
       50
102
RTVSPost2010PropOp46
 70
     0
102
RTVSPost2010Prop47
 90
       50
102
RTVSPost2010PropOp47
 70
     0
102
RTVSPost2010Prop48
 90
       50
102
RTVSPost2010PropOp48
 70
     0
102
RTVSPost2010Prop49
280
     0
102
RTVSPost2010PropOp49
 70
     0
102
RTVSPost2010Prop50
 90
       50
102
RTVSPost2010PropOp50
 70
     0
102
RTVSPost2010Prop51ColorIndex
 90
      256
102
RTVSPost2010Prop51ColorRGB
 90
-16777216
102
RTVSPost2010PropOp51
 70
     0
102
RTVSPost2010Prop52
140
1.0
102
RTVSPost2010PropOp52
 70
     0
102
RTVSPost2010Prop53
 90
        2
102
RTVSPost2010PropOp53
 70
     0
102
RTVSPost2010Prop54
  1
strokes_ogs.tif
102
RTVSPost2010PropOp54
 70
     0
102
RTVSPost2010Prop55
280
     0
102
RTVSPost2010PropOp55
 70
     0
102
RTVSPost2010Prop56
140
1.0
102
RTVSPost2010PropOp56
 70
     0
102
RTVSPost2010Prop57
140
1.0
102
RTVSPost2010PropOp57
 70
     0
  0
XRECORD
  5
163
102
{ACAD_REACTORS
330
162
102
}
330
162
100
AcDbXrecord
280
     1
102
RTVSPropertyOp0
 70
     1
102
RTVSPropertyOp1
 70
     1
102
RTVSPropertyOp2
 70
     1
102
RTVSPropertyOp3
 70
     1
102
RTVSPropertyOp4
 70
     1
102
RTVSPropertyOp5
 70
     1
102
RTVSPropertyOp6
 70
     1
102
RTVSPropertyOp7
 70
     1
102
RTVSPropertyOp8
 70
     1
102
RTVSPropertyOp9
 70
     1
102
RTVSPropertyOp10
 70
     1
102
RTVSPropertyOp11
 70
     1
102
RTVSPropertyOp12
 70
     1
102
RTVSPropertyOp13
 70
     1
102
RTVSPropertyOp14
 70
     1
102
RTVSPropertyOp15
 70
     1
102
RTVSPropertyOp16
 70
     1
102
RTVSPropertyOp17
 70
     1
102
RTVSPropertyOp18
 70
     1
102
RTVSPropertyOp19
 70
     1
102
RTVSPropertyOp20
 70
     1
102
RTVSPropertyOp21
 70
     1
102
RTVSPropertyOp22
 70
     1
102
RTVSPropertyOp23
 70
     1
102
RTVSPropertyOp24
 70
     1
102
RTVSPropertyOp25
 70
     1
102
RTVSPropertyOp26
 70
     1
102
RTVSPropertyOp27
 70
     1
102
RTVSPropertyOp28
 70
     1
102
RTVSPropertyOp29
 70
     1
102
RTVSPropertyOp30
 70
     1
102
RTVSPropertyOp31
 70
     1
102
RTVSPropertyOp32
 70
     1
102
RTVSPropertyOp33
 70
     1
102
RTVSPropertyOp34
 70
     1
102
RTVSPropertyOp35
 70
     1
102
RTVSPropertyOp36
 70
     1
102
RTVSPropertyOp37
 70
     1
102
RTVSPropertyOp38
 70
     1
102
RTVSPropertyOp39
 70
     1
102
RTVSPropertyOp40
 70
     1
102
RTVSPropertyOp41
 70
     1
102
RTVSPropertyOp42
 70
     1
102
RTVSPropertyOp43
 70
     1
102
RTVSPropertyOp44
 70
     1
102
RTVSPropertyOp45
 70
     1
102
RTVSPropertyOp46
 70
     1
102
RTVSPropertyOp47
 70
     1
102
RTVSPropertyOp48
 70
     1
102
RTVSPropertyOp49
 70
     1
102
RTVSPropertyOp50
 70
     1
102
RTVSPropertyOp51
 70
     0
102
RTVSPropertyOp52
 70
     0
102
RTVSPropertyOp53
 70
     1
102
RTVSPropertyOp54
 70
     1
102
RTVSPropertyOp55
 70
     1
102
RTVSPropertyOp56
 70
     1
102
RTVSPropertyOp57
 70
     1
102
RTVSPost2010Prop28
280
     0
102
RTVSPost2010PropOp28
 70
     1
102
RTVSPost2010Prop29
280
     1
102
RTVSPost2010PropOp29
 70
     1
102
RTVSPost2010Prop30
280
     1
102
RTVSPost2010PropOp30
 70
     1
102
RTVSPost2010Prop31
280
     0
102
RTVSPost2010PropOp31
 70
     1
102
RTVSPost2010Prop32
280
     0
102
RTVSPost2010PropOp32
 70
     1
102
RTVSPost2010Prop33
280
     0
102
RTVSPost2010PropOp33
 70
     1
102
RTVSPost2010Prop34
280
     0
102
RTVSPost2010PropOp34
 70
     1
102
RTVSPost2010Prop35
280
     0
102
RTVSPost2010PropOp35
 70
     1
102
RTVSPost2010Prop36
280
     0
102
RTVSPost2010PropOp36
 70
     1
102
RTVSPost2010Prop37
 90
       50
102
RTVSPost2010PropOp37
 70
     1
102
RTVSPost2010Prop38
140
0.0
102
RTVSPost2010PropOp38
 70
     1
102
RTVSPost2010Prop39
140
1.0
102
RTVSPost2010PropOp39
 70
     1
102
RTVSPost2010Prop40
 90
        0
102
RTVSPost2010PropOp40
 70
     1
102
RTVSPost2010Prop41ColorIndex
 90
       18
102
RTVSPost2010Prop41ColorRGB
 90
        0
102
RTVSPost2010PropOp41
 70
     1
102
RTVSPost2010Prop42
 90
       50
102
RTVSPost2010PropOp42
 70
     1
102
RTVSPost2010Prop43
 90
        3
102
RTVSPost2010PropOp43
 70
     1
102
RTVSPost2010Prop44ColorIndex
 90
        5
102
RTVSPost2010Prop44ColorRGB
 90
      255
102
RTVSPost2010PropOp44
 70
     1
102
RTVSPost2010Prop45
280
     0
102
RTVSPost2010PropOp45
 70
     1
102
RTVSPost2010Prop46
 90
       50
102
RTVSPost2010PropOp46
 70
     1
102
RTVSPost2010Prop47
 90
       50
102
RTVSPost2010PropOp47
 70
     1
102
RTVSPost2010Prop48
 90
       50
102
RTVSPost2010PropOp48
 70
     1
102
RTVSPost2010Prop49
280
     0
102
RTVSPost2010PropOp49
 70
     1
102
RTVSPost2010Prop50
 90
       50
102
RTVSPost2010PropOp50
 70
     1
102
RTVSPost2010Prop51ColorIndex
 90
      256
102
RTVSPost2010Prop51ColorRGB
 90
-16777216
102
RTVSPost2010PropOp51
 70
     0
102
RTVSPost2010Prop52
140
1.0
102
RTVSPost2010PropOp52
 70
     0
102
RTVSPost2010Prop53
 90
        2
102
RTVSPost2010PropOp53
 70
     1
102
RTVSPost2010Prop54
  1
strokes_ogs.tif
102
RTVSPost2010PropOp54
 70
     1
102
RTVSPost2010Prop55
280
     0
102
RTVSPost2010PropOp55
 70
     1
102
RTVSPost2010Prop56
140
1.0
102
RTVSPost2010PropOp56
 70
     1
102
RTVSPost2010Prop57
140
1.0
102
RTVSPost2010PropOp57
 70
     1
  0
XRECORD
  5
147
102
{ACAD_REACTORS
330
146
102
}
330
146
100
AcDbXrecord
280
     1
102
RTVSPropertyOp0
 70
     1
102
RTVSPropertyOp1
 70
     1
102
RTVSPropertyOp2
 70
     1
102
RTVSPropertyOp3
 70
     1
102
RTVSPropertyOp4
 70
     1
102
RTVSPropertyOp5
 70
     1
102
RTVSPropertyOp6
 70
     1
102
RTVSPropertyOp7
 70
     1
102
RTVSPropertyOp8
 70
     1
102
RTVSPropertyOp9
 70
     1
102
RTVSPropertyOp10
 70
     1
102
RTVSPropertyOp11
 70
     1
102
RTVSPropertyOp12
 70
     1
102
RTVSPropertyOp13
 70
     1
102
RTVSPropertyOp14
 70
     1
102
RTVSPropertyOp15
 70
     1
102
RTVSPropertyOp16
 70
     1
102
RTVSPropertyOp17
 70
     1
102
RTVSPropertyOp18
 70
     1
102
RTVSPropertyOp19
 70
     1
102
RTVSPropertyOp20
 70
     1
102
RTVSPropertyOp21
 70
     1
102
RTVSPropertyOp22
 70
     1
102
RTVSPropertyOp23
 70
     1
102
RTVSPropertyOp24
 70
     1
102
RTVSPropertyOp25
 70
     1
102
RTVSPropertyOp26
 70
     1
102
RTVSPropertyOp27
 70
     1
102
RTVSPropertyOp28
 70
     1
102
RTVSPropertyOp29
 70
     1
102
RTVSPropertyOp30
 70
     1
102
RTVSPropertyOp31
 70
     1
102
RTVSPropertyOp32
 70
     1
102
RTVSPropertyOp33
 70
     1
102
RTVSPropertyOp34
 70
     1
102
RTVSPropertyOp35
 70
     1
102
RTVSPropertyOp36
 70
     1
102
RTVSPropertyOp37
 70
     1
102
RTVSPropertyOp38
 70
     1
102
RTVSPropertyOp39
 70
     1
102
RTVSPropertyOp40
 70
     1
102
RTVSPropertyOp41
 70
     1
102
RTVSPropertyOp42
 70
     1
102
RTVSPropertyOp43
 70
     1
102
RTVSPropertyOp44
 70
     1
102
RTVSPropertyOp45
 70
     1
102
RTVSPropertyOp46
 70
     1
102
RTVSPropertyOp47
 70
     1
102
RTVSPropertyOp48
 70
     1
102
RTVSPropertyOp49
 70
     1
102
RTVSPropertyOp50
 70
     1
102
RTVSPropertyOp51
 70
     0
102
RTVSPropertyOp52
 70
     0
102
RTVSPropertyOp53
 70
     1
102
RTVSPropertyOp54
 70
     1
102
RTVSPropertyOp55
 70
     1
102
RTVSPropertyOp56
 70
     1
102
RTVSPropertyOp57
 70
     1
102
RTVSPost2010Prop28
280
     0
102
RTVSPost2010PropOp28
 70
     1
102
RTVSPost2010Prop29
280
     1
102
RTVSPost2010PropOp29
 70
     1
102
RTVSPost2010Prop30
280
     1
102
RTVSPost2010PropOp30
 70
     1
102
RTVSPost2010Prop31
280
     0
102
RTVSPost2010PropOp31
 70
     1
102
RTVSPost2010Prop32
280
     0
102
RTVSPost2010PropOp32
 70
     1
102
RTVSPost2010Prop33
280
     0
102
RTVSPost2010PropOp33
 70
     1
102
RTVSPost2010Prop34
280
     0
102
RTVSPost2010PropOp34
 70
     1
102
RTVSPost2010Prop35
280
     0
102
RTVSPost2010PropOp35
 70
     1
102
RTVSPost2010Prop36
280
     0
102
RTVSPost2010PropOp36
 70
     1
102
RTVSPost2010Prop37
 90
       50
102
RTVSPost2010PropOp37
 70
     1
102
RTVSPost2010Prop38
140
0.0
102
RTVSPost2010PropOp38
 70
     1
102
RTVSPost2010Prop39
140
1.0
102
RTVSPost2010PropOp39
 70
     1
102
RTVSPost2010Prop40
 90
        0
102
RTVSPost2010PropOp40
 70
     1
102
RTVSPost2010Prop41ColorIndex
 90
       18
102
RTVSPost2010Prop41ColorRGB
 90
        0
102
RTVSPost2010PropOp41
 70
     1
102
RTVSPost2010Prop42
 90
       50
102
RTVSPost2010PropOp42
 70
     1
102
RTVSPost2010Prop43
 90
        3
102
RTVSPost2010PropOp43
 70
     1
102
RTVSPost2010Prop44ColorIndex
 90
        5
102
RTVSPost2010Prop44ColorRGB
 90
      255
102
RTVSPost2010PropOp44
 70
     1
102
RTVSPost2010Prop45
280
     0
102
RTVSPost2010PropOp45
 70
     1
102
RTVSPost2010Prop46
 90
       50
102
RTVSPost2010PropOp46
 70
     1
102
RTVSPost2010Prop47
 90
       50
102
RTVSPost2010PropOp47
 70
     1
102
RTVSPost2010Prop48
 90
       50
102
RTVSPost2010PropOp48
 70
     1
102
RTVSPost2010Prop49
280
     0
102
RTVSPost2010PropOp49
 70
     1
102
RTVSPost2010Prop50
 90
       50
102
RTVSPost2010PropOp50
 70
     1
102
RTVSPost2010Prop51ColorIndex
 90
      256
102
RTVSPost2010Prop51ColorRGB
 90
-16777216
102
RTVSPost2010PropOp51
 70
     0
102
RTVSPost2010Prop52
140
1.0
102
RTVSPost2010PropOp52
 70
     0
102
RTVSPost2010Prop53
 90
        2
102
RTVSPost2010PropOp53
 70
     1
102
RTVSPost2010Prop54
  1
strokes_ogs.tif
102
RTVSPost2010PropOp54
 70
     1
102
RTVSPost2010Prop55
280
     0
102
RTVSPost2010PropOp55
 70
     1
102
RTVSPost2010Prop56
140
1.0
102
RTVSPost2010PropOp56
 70
     1
102
RTVSPost2010Prop57
140
1.0
102
RTVSPost2010PropOp57
 70
     1
  0
XRECORD
  5
149
102
{ACAD_REACTORS
330
148
102
}
330
148
100
AcDbXrecord
280
     1
102
RTVSPropertyOp0
 70
     1
102
RTVSPropertyOp1
 70
     1
102
RTVSPropertyOp2
 70
     1
102
RTVSPropertyOp3
 70
     1
102
RTVSPropertyOp4
 70
     1
102
RTVSPropertyOp5
 70
     1
102
RTVSPropertyOp6
 70
     1
102
RTVSPropertyOp7
 70
     1
102
RTVSPropertyOp8
 70
     1
102
RTVSPropertyOp9
 70
     1
102
RTVSPropertyOp10
 70
     1
102
RTVSPropertyOp11
 70
     1
102
RTVSPropertyOp12
 70
     1
102
RTVSPropertyOp13
 70
     1
102
RTVSPropertyOp14
 70
     1
102
RTVSPropertyOp15
 70
     1
102
RTVSPropertyOp16
 70
     1
102
RTVSPropertyOp17
 70
     1
102
RTVSPropertyOp18
 70
     1
102
RTVSPropertyOp19
 70
     1
102
RTVSPropertyOp20
 70
     1
102
RTVSPropertyOp21
 70
     1
102
RTVSPropertyOp22
 70
     1
102
RTVSPropertyOp23
 70
     1
102
RTVSPropertyOp24
 70
     1
102
RTVSPropertyOp25
 70
     1
102
RTVSPropertyOp26
 70
     1
102
RTVSPropertyOp27
 70
     1
102
RTVSPropertyOp28
 70
     1
102
RTVSPropertyOp29
 70
     1
102
RTVSPropertyOp30
 70
     1
102
RTVSPropertyOp31
 70
     1
102
RTVSPropertyOp32
 70
     1
102
RTVSPropertyOp33
 70
     1
102
RTVSPropertyOp34
 70
     1
102
RTVSPropertyOp35
 70
     1
102
RTVSPropertyOp36
 70
     1
102
RTVSPropertyOp37
 70
     1
102
RTVSPropertyOp38
 70
     1
102
RTVSPropertyOp39
 70
     1
102
RTVSPropertyOp40
 70
     1
102
RTVSPropertyOp41
 70
     1
102
RTVSPropertyOp42
 70
     1
102
RTVSPropertyOp43
 70
     1
102
RTVSPropertyOp44
 70
     1
102
RTVSPropertyOp45
 70
     1
102
RTVSPropertyOp46
 70
     1
102
RTVSPropertyOp47
 70
     1
102
RTVSPropertyOp48
 70
     1
102
RTVSPropertyOp49
 70
     1
102
RTVSPropertyOp50
 70
     1
102
RTVSPropertyOp51
 70
     0
102
RTVSPropertyOp52
 70
     0
102
RTVSPropertyOp53
 70
     1
102
RTVSPropertyOp54
 70
     1
102
RTVSPropertyOp55
 70
     1
102
RTVSPropertyOp56
 70
     1
102
RTVSPropertyOp57
 70
     1
102
RTVSPost2010Prop28
280
     0
102
RTVSPost2010PropOp28
 70
     1
102
RTVSPost2010Prop29
280
     1
102
RTVSPost2010PropOp29
 70
     1
102
RTVSPost2010Prop30
280
     1
102
RTVSPost2010PropOp30
 70
     1
102
RTVSPost2010Prop31
280
     0
102
RTVSPost2010PropOp31
 70
     1
102
RTVSPost2010Prop32
280
     0
102
RTVSPost2010PropOp32
 70
     1
102
RTVSPost2010Prop33
280
     0
102
RTVSPost2010PropOp33
 70
     1
102
RTVSPost2010Prop34
280
     0
102
RTVSPost2010PropOp34
 70
     1
102
RTVSPost2010Prop35
280
     0
102
RTVSPost2010PropOp35
 70
     1
102
RTVSPost2010Prop36
280
     0
102
RTVSPost2010PropOp36
 70
     1
102
RTVSPost2010Prop37
 90
       50
102
RTVSPost2010PropOp37
 70
     1
102
RTVSPost2010Prop38
140
0.0
102
RTVSPost2010PropOp38
 70
     1
102
RTVSPost2010Prop39
140
1.0
102
RTVSPost2010PropOp39
 70
     1
102
RTVSPost2010Prop40
 90
        0
102
RTVSPost2010PropOp40
 70
     1
102
RTVSPost2010Prop41ColorIndex
 90
       18
102
RTVSPost2010Prop41ColorRGB
 90
        0
102
RTVSPost2010PropOp41
 70
     1
102
RTVSPost2010Prop42
 90
       50
102
RTVSPost2010PropOp42
 70
     1
102
RTVSPost2010Prop43
 90
        3
102
RTVSPost2010PropOp43
 70
     1
102
RTVSPost2010Prop44ColorIndex
 90
        5
102
RTVSPost2010Prop44ColorRGB
 90
      255
102
RTVSPost2010PropOp44
 70
     1
102
RTVSPost2010Prop45
280
     0
102
RTVSPost2010PropOp45
 70
     1
102
RTVSPost2010Prop46
 90
       50
102
RTVSPost2010PropOp46
 70
     1
102
RTVSPost2010Prop47
 90
       50
102
RTVSPost2010PropOp47
 70
     1
102
RTVSPost2010Prop48
 90
       50
102
RTVSPost2010PropOp48
 70
     1
102
RTVSPost2010Prop49
280
     0
102
RTVSPost2010PropOp49
 70
     1
102
RTVSPost2010Prop50
 90
       50
102
RTVSPost2010PropOp50
 70
     1
102
RTVSPost2010Prop51ColorIndex
 90
      256
102
RTVSPost2010Prop51ColorRGB
 90
-16777216
102
RTVSPost2010PropOp51
 70
     0
102
RTVSPost2010Prop52
140
1.0
102
RTVSPost2010PropOp52
 70
     0
102
RTVSPost2010Prop53
 90
        2
102
RTVSPost2010PropOp53
 70
     1
102
RTVSPost2010Prop54
  1
strokes_ogs.tif
102
RTVSPost2010PropOp54
 70
     1
102
RTVSPost2010Prop55
280
     0
102
RTVSPost2010PropOp55
 70
     1
102
RTVSPost2010Prop56
140
1.0
102
RTVSPost2010PropOp56
 70
     1
102
RTVSPost2010Prop57
140
1.0
102
RTVSPost2010PropOp57
 70
     1
  0
XRECORD
  5
14B
102
{ACAD_REACTORS
330
14A
102
}
330
14A
100
AcDbXrecord
280
     1
102
RTVSPropertyOp0
 70
     1
102
RTVSPropertyOp1
 70
     1
102
RTVSPropertyOp2
 70
     1
102
RTVSPropertyOp3
 70
     1
102
RTVSPropertyOp4
 70
     1
102
RTVSPropertyOp5
 70
     1
102
RTVSPropertyOp6
 70
     1
102
RTVSPropertyOp7
 70
     1
102
RTVSPropertyOp8
 70
     1
102
RTVSPropertyOp9
 70
     1
102
RTVSPropertyOp10
 70
     1
102
RTVSPropertyOp11
 70
     1
102
RTVSPropertyOp12
 70
     1
102
RTVSPropertyOp13
 70
     1
102
RTVSPropertyOp14
 70
     1
102
RTVSPropertyOp15
 70
     1
102
RTVSPropertyOp16
 70
     1
102
RTVSPropertyOp17
 70
     1
102
RTVSPropertyOp18
 70
     1
102
RTVSPropertyOp19
 70
     1
102
RTVSPropertyOp20
 70
     1
102
RTVSPropertyOp21
 70
     1
102
RTVSPropertyOp22
 70
     1
102
RTVSPropertyOp23
 70
     1
102
RTVSPropertyOp24
 70
     1
102
RTVSPropertyOp25
 70
     1
102
RTVSPropertyOp26
 70
     1
102
RTVSPropertyOp27
 70
     1
102
RTVSPropertyOp28
 70
     1
102
RTVSPropertyOp29
 70
     1
102
RTVSPropertyOp30
 70
     1
102
RTVSPropertyOp31
 70
     1
102
RTVSPropertyOp32
 70
     1
102
RTVSPropertyOp33
 70
     1
102
RTVSPropertyOp34
 70
     1
102
RTVSPropertyOp35
 70
     1
102
RTVSPropertyOp36
 70
     1
102
RTVSPropertyOp37
 70
     1
102
RTVSPropertyOp38
 70
     1
102
RTVSPropertyOp39
 70
     1
102
RTVSPropertyOp40
 70
     1
102
RTVSPropertyOp41
 70
     1
102
RTVSPropertyOp42
 70
     1
102
RTVSPropertyOp43
 70
     1
102
RTVSPropertyOp44
 70
     1
102
RTVSPropertyOp45
 70
     1
102
RTVSPropertyOp46
 70
     1
102
RTVSPropertyOp47
 70
     1
102
RTVSPropertyOp48
 70
     1
102
RTVSPropertyOp49
 70
     1
102
RTVSPropertyOp50
 70
     1
102
RTVSPropertyOp51
 70
     0
102
RTVSPropertyOp52
 70
     0
102
RTVSPropertyOp53
 70
     1
102
RTVSPropertyOp54
 70
     1
102
RTVSPropertyOp55
 70
     1
102
RTVSPropertyOp56
 70
     1
102
RTVSPropertyOp57
 70
     1
102
RTVSPost2010Prop28
280
     0
102
RTVSPost2010PropOp28
 70
     1
102
RTVSPost2010Prop29
280
     1
102
RTVSPost2010PropOp29
 70
     1
102
RTVSPost2010Prop30
280
     1
102
RTVSPost2010PropOp30
 70
     1
102
RTVSPost2010Prop31
280
     0
102
RTVSPost2010PropOp31
 70
     1
102
RTVSPost2010Prop32
280
     0
102
RTVSPost2010PropOp32
 70
     1
102
RTVSPost2010Prop33
280
     0
102
RTVSPost2010PropOp33
 70
     1
102
RTVSPost2010Prop34
280
     0
102
RTVSPost2010PropOp34
 70
     1
102
RTVSPost2010Prop35
280
     0
102
RTVSPost2010PropOp35
 70
     1
102
RTVSPost2010Prop36
280
     0
102
RTVSPost2010PropOp36
 70
     1
102
RTVSPost2010Prop37
 90
       50
102
RTVSPost2010PropOp37
 70
     1
102
RTVSPost2010Prop38
140
0.0
102
RTVSPost2010PropOp38
 70
     1
102
RTVSPost2010Prop39
140
1.0
102
RTVSPost2010PropOp39
 70
     1
102
RTVSPost2010Prop40
 90
        0
102
RTVSPost2010PropOp40
 70
     1
102
RTVSPost2010Prop41ColorIndex
 90
       18
102
RTVSPost2010Prop41ColorRGB
 90
        0
102
RTVSPost2010PropOp41
 70
     1
102
RTVSPost2010Prop42
 90
       50
102
RTVSPost2010PropOp42
 70
     1
102
RTVSPost2010Prop43
 90
        3
102
RTVSPost2010PropOp43
 70
     1
102
RTVSPost2010Prop44ColorIndex
 90
        5
102
RTVSPost2010Prop44ColorRGB
 90
      255
102
RTVSPost2010PropOp44
 70
     1
102
RTVSPost2010Prop45
280
     0
102
RTVSPost2010PropOp45
 70
     1
102
RTVSPost2010Prop46
 90
       50
102
RTVSPost2010PropOp46
 70
     1
102
RTVSPost2010Prop47
 90
       50
102
RTVSPost2010PropOp47
 70
     1
102
RTVSPost2010Prop48
 90
       50
102
RTVSPost2010PropOp48
 70
     1
102
RTVSPost2010Prop49
280
     0
102
RTVSPost2010PropOp49
 70
     1
102
RTVSPost2010Prop50
 90
       50
102
RTVSPost2010PropOp50
 70
     1
102
RTVSPost2010Prop51ColorIndex
 90
      256
102
RTVSPost2010Prop51ColorRGB
 90
-16777216
102
RTVSPost2010PropOp51
 70
     0
102
RTVSPost2010Prop52
140
1.0
102
RTVSPost2010PropOp52
 70
     0
102
RTVSPost2010Prop53
 90
        2
102
RTVSPost2010PropOp53
 70
     1
102
RTVSPost2010Prop54
  1
strokes_ogs.tif
102
RTVSPost2010PropOp54
 70
     1
102
RTVSPost2010Prop55
280
     0
102
RTVSPost2010PropOp55
 70
     1
102
RTVSPost2010Prop56
140
1.0
102
RTVSPost2010PropOp56
 70
     1
102
RTVSPost2010Prop57
140
1.0
102
RTVSPost2010PropOp57
 70
     1
  0
XRECORD
  5
14D
102
{ACAD_REACTORS
330
14C
102
}
330
14C
100
AcDbXrecord
280
     1
102
RTVSPropertyOp0
 70
     1
102
RTVSPropertyOp1
 70
     1
102
RTVSPropertyOp2
 70
     1
102
RTVSPropertyOp3
 70
     1
102
RTVSPropertyOp4
 70
     1
102
RTVSPropertyOp5
 70
     1
102
RTVSPropertyOp6
 70
     1
102
RTVSPropertyOp7
 70
     1
102
RTVSPropertyOp8
 70
     1
102
RTVSPropertyOp9
 70
     1
102
RTVSPropertyOp10
 70
     1
102
RTVSPropertyOp11
 70
     1
102
RTVSPropertyOp12
 70
     1
102
RTVSPropertyOp13
 70
     1
102
RTVSPropertyOp14
 70
     1
102
RTVSPropertyOp15
 70
     1
102
RTVSPropertyOp16
 70
     1
102
RTVSPropertyOp17
 70
     1
102
RTVSPropertyOp18
 70
     1
102
RTVSPropertyOp19
 70
     1
102
RTVSPropertyOp20
 70
     1
102
RTVSPropertyOp21
 70
     1
102
RTVSPropertyOp22
 70
     1
102
RTVSPropertyOp23
 70
     1
102
RTVSPropertyOp24
 70
     1
102
RTVSPropertyOp25
 70
     1
102
RTVSPropertyOp26
 70
     1
102
RTVSPropertyOp27
 70
     1
102
RTVSPropertyOp28
 70
     1
102
RTVSPropertyOp29
 70
     1
102
RTVSPropertyOp30
 70
     1
102
RTVSPropertyOp31
 70
     1
102
RTVSPropertyOp32
 70
     1
102
RTVSPropertyOp33
 70
     1
102
RTVSPropertyOp34
 70
     1
102
RTVSPropertyOp35
 70
     1
102
RTVSPropertyOp36
 70
     1
102
RTVSPropertyOp37
 70
     1
102
RTVSPropertyOp38
 70
     1
102
RTVSPropertyOp39
 70
     1
102
RTVSPropertyOp40
 70
     1
102
RTVSPropertyOp41
 70
     1
102
RTVSPropertyOp42
 70
     1
102
RTVSPropertyOp43
 70
     1
102
RTVSPropertyOp44
 70
     1
102
RTVSPropertyOp45
 70
     1
102
RTVSPropertyOp46
 70
     1
102
RTVSPropertyOp47
 70
     1
102
RTVSPropertyOp48
 70
     1
102
RTVSPropertyOp49
 70
     1
102
RTVSPropertyOp50
 70
     1
102
RTVSPropertyOp51
 70
     0
102
RTVSPropertyOp52
 70
     0
102
RTVSPropertyOp53
 70
     1
102
RTVSPropertyOp54
 70
     1
102
RTVSPropertyOp55
 70
     1
102
RTVSPropertyOp56
 70
     1
102
RTVSPropertyOp57
 70
     1
102
RTVSPost2010Prop28
280
     0
102
RTVSPost2010PropOp28
 70
     1
102
RTVSPost2010Prop29
280
     1
102
RTVSPost2010PropOp29
 70
     1
102
RTVSPost2010Prop30
280
     1
102
RTVSPost2010PropOp30
 70
     1
102
RTVSPost2010Prop31
280
     0
102
RTVSPost2010PropOp31
 70
     1
102
RTVSPost2010Prop32
280
     0
102
RTVSPost2010PropOp32
 70
     1
102
RTVSPost2010Prop33
280
     0
102
RTVSPost2010PropOp33
 70
     1
102
RTVSPost2010Prop34
280
     0
102
RTVSPost2010PropOp34
 70
     1
102
RTVSPost2010Prop35
280
     0
102
RTVSPost2010PropOp35
 70
     1
102
RTVSPost2010Prop36
280
     0
102
RTVSPost2010PropOp36
 70
     1
102
RTVSPost2010Prop37
 90
       50
102
RTVSPost2010PropOp37
 70
     1
102
RTVSPost2010Prop38
140
0.0
102
RTVSPost2010PropOp38
 70
     1
102
RTVSPost2010Prop39
140
1.0
102
RTVSPost2010PropOp39
 70
     1
102
RTVSPost2010Prop40
 90
        0
102
RTVSPost2010PropOp40
 70
     1
102
RTVSPost2010Prop41ColorIndex
 90
       18
102
RTVSPost2010Prop41ColorRGB
 90
        0
102
RTVSPost2010PropOp41
 70
     1
102
RTVSPost2010Prop42
 90
       50
102
RTVSPost2010PropOp42
 70
     1
102
RTVSPost2010Prop43
 90
        3
102
RTVSPost2010PropOp43
 70
     1
102
RTVSPost2010Prop44ColorIndex
 90
        5
102
RTVSPost2010Prop44ColorRGB
 90
      255
102
RTVSPost2010PropOp44
 70
     1
102
RTVSPost2010Prop45
280
     0
102
RTVSPost2010PropOp45
 70
     1
102
RTVSPost2010Prop46
 90
       50
102
RTVSPost2010PropOp46
 70
     1
102
RTVSPost2010Prop47
 90
       50
102
RTVSPost2010PropOp47
 70
     1
102
RTVSPost2010Prop48
 90
       50
102
RTVSPost2010PropOp48
 70
     1
102
RTVSPost2010Prop49
280
     0
102
RTVSPost2010PropOp49
 70
     1
102
RTVSPost2010Prop50
 90
       50
102
RTVSPost2010PropOp50
 70
     1
102
RTVSPost2010Prop51ColorIndex
 90
      256
102
RTVSPost2010Prop51ColorRGB
 90
-16777216
102
RTVSPost2010PropOp51
 70
     0
102
RTVSPost2010Prop52
140
1.0
102
RTVSPost2010PropOp52
 70
     0
102
RTVSPost2010Prop53
 90
        2
102
RTVSPost2010PropOp53
 70
     1
102
RTVSPost2010Prop54
  1
strokes_ogs.tif
102
RTVSPost2010PropOp54
 70
     1
102
RTVSPost2010Prop55
280
     0
102
RTVSPost2010PropOp55
 70
     1
102
RTVSPost2010Prop56
140
1.0
102
RTVSPost2010PropOp56
 70
     1
102
RTVSPost2010Prop57
140
1.0
102
RTVSPost2010PropOp57
 70
     1
  0
XRECORD
  5
153
102
{ACAD_REACTORS
330
152
102
}
330
152
100
AcDbXrecord
280
     1
102
RTVSPropertyOp0
 70
     1
102
RTVSPropertyOp1
 70
     1
102
RTVSPropertyOp2
 70
     1
102
RTVSPropertyOp3
 70
     1
102
RTVSPropertyOp4
 70
     1
102
RTVSPropertyOp5
 70
     1
102
RTVSPropertyOp6
 70
     1
102
RTVSPropertyOp7
 70
     1
102
RTVSPropertyOp8
 70
     1
102
RTVSPropertyOp9
 70
     1
102
RTVSPropertyOp10
 70
     1
102
RTVSPropertyOp11
 70
     1
102
RTVSPropertyOp12
 70
     1
102
RTVSPropertyOp13
 70
     1
102
RTVSPropertyOp14
 70
     1
102
RTVSPropertyOp15
 70
     1
102
RTVSPropertyOp16
 70
     1
102
RTVSPropertyOp17
 70
     1
102
RTVSPropertyOp18
 70
     1
102
RTVSPropertyOp19
 70
     1
102
RTVSPropertyOp20
 70
     1
102
RTVSPropertyOp21
 70
     1
102
RTVSPropertyOp22
 70
     1
102
RTVSPropertyOp23
 70
     1
102
RTVSPropertyOp24
 70
     1
102
RTVSPropertyOp25
 70
     1
102
RTVSPropertyOp26
 70
     1
102
RTVSPropertyOp27
 70
     1
102
RTVSPropertyOp28
 70
     1
102
RTVSPropertyOp29
 70
     1
102
RTVSPropertyOp30
 70
     1
102
RTVSPropertyOp31
 70
     1
102
RTVSPropertyOp32
 70
     1
102
RTVSPropertyOp33
 70
     1
102
RTVSPropertyOp34
 70
     1
102
RTVSPropertyOp35
 70
     1
102
RTVSPropertyOp36
 70
     1
102
RTVSPropertyOp37
 70
     1
102
RTVSPropertyOp38
 70
     1
102
RTVSPropertyOp39
 70
     1
102
RTVSPropertyOp40
 70
     1
102
RTVSPropertyOp41
 70
     1
102
RTVSPropertyOp42
 70
     1
102
RTVSPropertyOp43
 70
     1
102
RTVSPropertyOp44
 70
     1
102
RTVSPropertyOp45
 70
     1
102
RTVSPropertyOp46
 70
     1
102
RTVSPropertyOp47
 70
     1
102
RTVSPropertyOp48
 70
     1
102
RTVSPropertyOp49
 70
     1
102
RTVSPropertyOp50
 70
     1
102
RTVSPropertyOp51
 70
     0
102
RTVSPropertyOp52
 70
     0
102
RTVSPropertyOp53
 70
     1
102
RTVSPropertyOp54
 70
     1
102
RTVSPropertyOp55
 70
     1
102
RTVSPropertyOp56
 70
     1
102
RTVSPropertyOp57
 70
     1
102
RTVSPost2010Prop28
280
     0
102
RTVSPost2010PropOp28
 70
     1
102
RTVSPost2010Prop29
280
     1
102
RTVSPost2010PropOp29
 70
     1
102
RTVSPost2010Prop30
280
     1
102
RTVSPost2010PropOp30
 70
     1
102
RTVSPost2010Prop31
280
     0
102
RTVSPost2010PropOp31
 70
     1
102
RTVSPost2010Prop32
280
     0
102
RTVSPost2010PropOp32
 70
     1
102
RTVSPost2010Prop33
280
     0
102
RTVSPost2010PropOp33
 70
     1
102
RTVSPost2010Prop34
280
     0
102
RTVSPost2010PropOp34
 70
     1
102
RTVSPost2010Prop35
280
     0
102
RTVSPost2010PropOp35
 70
     1
102
RTVSPost2010Prop36
280
     0
102
RTVSPost2010PropOp36
 70
     1
102
RTVSPost2010Prop37
 90
       50
102
RTVSPost2010PropOp37
 70
     1
102
RTVSPost2010Prop38
140
0.0
102
RTVSPost2010PropOp38
 70
     1
102
RTVSPost2010Prop39
140
1.0
102
RTVSPost2010PropOp39
 70
     1
102
RTVSPost2010Prop40
 90
        0
102
RTVSPost2010PropOp40
 70
     1
102
RTVSPost2010Prop41ColorIndex
 90
       18
102
RTVSPost2010Prop41ColorRGB
 90
        0
102
RTVSPost2010PropOp41
 70
     1
102
RTVSPost2010Prop42
 90
       50
102
RTVSPost2010PropOp42
 70
     1
102
RTVSPost2010Prop43
 90
        3
102
RTVSPost2010PropOp43
 70
     1
102
RTVSPost2010Prop44ColorIndex
 90
        5
102
RTVSPost2010Prop44ColorRGB
 90
      255
102
RTVSPost2010PropOp44
 70
     1
102
RTVSPost2010Prop45
280
     0
102
RTVSPost2010PropOp45
 70
     1
102
RTVSPost2010Prop46
 90
       50
102
RTVSPost2010PropOp46
 70
     1
102
RTVSPost2010Prop47
 90
       50
102
RTVSPost2010PropOp47
 70
     1
102
RTVSPost2010Prop48
 90
       50
102
RTVSPost2010PropOp48
 70
     1
102
RTVSPost2010Prop49
280
     0
102
RTVSPost2010PropOp49
 70
     1
102
RTVSPost2010Prop50
 90
       50
102
RTVSPost2010PropOp50
 70
     1
102
RTVSPost2010Prop51ColorIndex
 90
      256
102
RTVSPost2010Prop51ColorRGB
 90
-16777216
102
RTVSPost2010PropOp51
 70
     0
102
RTVSPost2010Prop52
140
1.0
102
RTVSPost2010PropOp52
 70
     0
102
RTVSPost2010Prop53
 90
        2
102
RTVSPost2010PropOp53
 70
     1
102
RTVSPost2010Prop54
  1
strokes_ogs.tif
102
RTVSPost2010PropOp54
 70
     1
102
RTVSPost2010Prop55
280
     0
102
RTVSPost2010PropOp55
 70
     1
102
RTVSPost2010Prop56
140
1.0
102
RTVSPost2010PropOp56
 70
     1
102
RTVSPost2010Prop57
140
1.0
102
RTVSPost2010PropOp57
 70
     1
  0
XRECORD
  5
167
102
{ACAD_REACTORS
330
166
102
}
330
166
100
AcDbXrecord
280
     1
102
RTVSPropertyOp0
 70
     0
102
RTVSPropertyOp1
 70
     0
102
RTVSPropertyOp2
 70
     0
102
RTVSPropertyOp3
 70
     0
102
RTVSPropertyOp4
 70
     0
102
RTVSPropertyOp5
 70
     0
102
RTVSPropertyOp6
 70
     0
102
RTVSPropertyOp7
 70
     0
102
RTVSPropertyOp8
 70
     0
102
RTVSPropertyOp9
 70
     0
102
RTVSPropertyOp10
 70
     0
102
RTVSPropertyOp11
 70
     0
102
RTVSPropertyOp12
 70
     0
102
RTVSPropertyOp13
 70
     0
102
RTVSPropertyOp14
 70
     2
102
RTVSPropertyOp15
 70
     0
102
RTVSPropertyOp16
 70
     0
102
RTVSPropertyOp17
 70
     0
102
RTVSPropertyOp18
 70
     0
102
RTVSPropertyOp19
 70
     0
102
RTVSPropertyOp20
 70
     0
102
RTVSPropertyOp21
 70
     0
102
RTVSPropertyOp22
 70
     0
102
RTVSPropertyOp23
 70
     0
102
RTVSPropertyOp24
 70
     0
102
RTVSPropertyOp25
 70
     0
102
RTVSPropertyOp26
 70
     0
102
RTVSPropertyOp27
 70
     0
102
RTVSPropertyOp28
 70
     0
102
RTVSPropertyOp29
 70
     0
102
RTVSPropertyOp30
 70
     0
102
RTVSPropertyOp31
 70
     0
102
RTVSPropertyOp32
 70
     0
102
RTVSPropertyOp33
 70
     0
102
RTVSPropertyOp34
 70
     0
102
RTVSPropertyOp35
 70
     0
102
RTVSPropertyOp36
 70
     0
102
RTVSPropertyOp37
 70
     0
102
RTVSPropertyOp38
 70
     0
102
RTVSPropertyOp39
 70
     0
102
RTVSPropertyOp40
 70
     0
102
RTVSPropertyOp41
 70
     0
102
RTVSPropertyOp42
 70
     0
102
RTVSPropertyOp43
 70
     0
102
RTVSPropertyOp44
 70
     0
102
RTVSPropertyOp45
 70
     0
102
RTVSPropertyOp46
 70
     0
102
RTVSPropertyOp47
 70
     0
102
RTVSPropertyOp48
 70
     0
102
RTVSPropertyOp49
 70
     0
102
RTVSPropertyOp50
 70
     0
102
RTVSPropertyOp51
 70
     0
102
RTVSPropertyOp52
 70
     0
102
RTVSPropertyOp53
 70
     0
102
RTVSPropertyOp54
 70
     0
102
RTVSPropertyOp55
 70
     0
102
RTVSPropertyOp56
 70
     0
102
RTVSPropertyOp57
 70
     0
102
RTVSPost2010Prop28
280
     0
102
RTVSPost2010PropOp28
 70
     0
102
RTVSPost2010Prop29
280
     1
102
RTVSPost2010PropOp29
 70
     0
102
RTVSPost2010Prop30
280
     1
102
RTVSPost2010PropOp30
 70
     0
102
RTVSPost2010Prop31
280
     0
102
RTVSPost2010PropOp31
 70
     0
102
RTVSPost2010Prop32
280
     0
102
RTVSPost2010PropOp32
 70
     0
102
RTVSPost2010Prop33
280
     0
102
RTVSPost2010PropOp33
 70
     0
102
RTVSPost2010Prop34
280
     0
102
RTVSPost2010PropOp34
 70
     0
102
RTVSPost2010Prop35
280
     0
102
RTVSPost2010PropOp35
 70
     0
102
RTVSPost2010Prop36
280
     0
102
RTVSPost2010PropOp36
 70
     0
102
RTVSPost2010Prop37
 90
       50
102
RTVSPost2010PropOp37
 70
     0
102
RTVSPost2010Prop38
140
0.0
102
RTVSPost2010PropOp38
 70
     0
102
RTVSPost2010Prop39
140
1.0
102
RTVSPost2010PropOp39
 70
     0
102
RTVSPost2010Prop40
 90
        0
102
RTVSPost2010PropOp40
 70
     0
102
RTVSPost2010Prop41ColorIndex
 90
       18
102
RTVSPost2010Prop41ColorRGB
 90
        0
102
RTVSPost2010PropOp41
 70
     0
102
RTVSPost2010Prop42
 90
       50
102
RTVSPost2010PropOp42
 70
     0
102
RTVSPost2010Prop43
 90
        3
102
RTVSPost2010PropOp43
 70
     0
102
RTVSPost2010Prop44ColorIndex
 90
        5
102
RTVSPost2010Prop44ColorRGB
 90
      255
102
RTVSPost2010PropOp44
 70
     0
102
RTVSPost2010Prop45
280
     0
102
RTVSPost2010PropOp45
 70
     0
102
RTVSPost2010Prop46
 90
       50
102
RTVSPost2010PropOp46
 70
     0
102
RTVSPost2010Prop47
 90
       50
102
RTVSPost2010PropOp47
 70
     0
102
RTVSPost2010Prop48
 90
       50
102
RTVSPost2010PropOp48
 70
     0
102
RTVSPost2010Prop49
280
     0
102
RTVSPost2010PropOp49
 70
     0
102
RTVSPost2010Prop50
 90
       50
102
RTVSPost2010PropOp50
 70
     0
102
RTVSPost2010Prop51ColorIndex
 90
      256
102
RTVSPost2010Prop51ColorRGB
 90
-16777216
102
RTVSPost2010PropOp51
 70
     0
102
RTVSPost2010Prop52
140
1.0
102
RTVSPost2010PropOp52
 70
     0
102
RTVSPost2010Prop53
 90
        2
102
RTVSPost2010PropOp53
 70
     0
102
RTVSPost2010Prop54
  1
strokes_ogs.tif
102
RTVSPost2010PropOp54
 70
     0
102
RTVSPost2010Prop55
280
     0
102
RTVSPost2010PropOp55
 70
     0
102
RTVSPost2010Prop56
140
1.0
102
RTVSPost2010PropOp56
 70
     0
102
RTVSPost2010Prop57
140
1.0
102
RTVSPost2010PropOp57
 70
     0
  0
XRECORD
  5
161
102
{ACAD_REACTORS
330
160
102
}
330
160
100
AcDbXrecord
280
     1
102
RTVSPropertyOp0
 70
     1
102
RTVSPropertyOp1
 70
     1
102
RTVSPropertyOp2
 70
     1
102
RTVSPropertyOp3
 70
     1
102
RTVSPropertyOp4
 70
     1
102
RTVSPropertyOp5
 70
     1
102
RTVSPropertyOp6
 70
     1
102
RTVSPropertyOp7
 70
     1
102
RTVSPropertyOp8
 70
     1
102
RTVSPropertyOp9
 70
     1
102
RTVSPropertyOp10
 70
     1
102
RTVSPropertyOp11
 70
     1
102
RTVSPropertyOp12
 70
     1
102
RTVSPropertyOp13
 70
     1
102
RTVSPropertyOp14
 70
     1
102
RTVSPropertyOp15
 70
     1
102
RTVSPropertyOp16
 70
     1
102
RTVSPropertyOp17
 70
     1
102
RTVSPropertyOp18
 70
     1
102
RTVSPropertyOp19
 70
     1
102
RTVSPropertyOp20
 70
     1
102
RTVSPropertyOp21
 70
     1
102
RTVSPropertyOp22
 70
     1
102
RTVSPropertyOp23
 70
     1
102
RTVSPropertyOp24
 70
     1
102
RTVSPropertyOp25
 70
     1
102
RTVSPropertyOp26
 70
     1
102
RTVSPropertyOp27
 70
     1
102
RTVSPropertyOp28
 70
     1
102
RTVSPropertyOp29
 70
     1
102
RTVSPropertyOp30
 70
     1
102
RTVSPropertyOp31
 70
     1
102
RTVSPropertyOp32
 70
     1
102
RTVSPropertyOp33
 70
     1
102
RTVSPropertyOp34
 70
     1
102
RTVSPropertyOp35
 70
     1
102
RTVSPropertyOp36
 70
     1
102
RTVSPropertyOp37
 70
     1
102
RTVSPropertyOp38
 70
     1
102
RTVSPropertyOp39
 70
     1
102
RTVSPropertyOp40
 70
     1
102
RTVSPropertyOp41
 70
     1
102
RTVSPropertyOp42
 70
     1
102
RTVSPropertyOp43
 70
     1
102
RTVSPropertyOp44
 70
     1
102
RTVSPropertyOp45
 70
     1
102
RTVSPropertyOp46
 70
     1
102
RTVSPropertyOp47
 70
     1
102
RTVSPropertyOp48
 70
     1
102
RTVSPropertyOp49
 70
     1
102
RTVSPropertyOp50
 70
     1
102
RTVSPropertyOp51
 70
     0
102
RTVSPropertyOp52
 70
     0
102
RTVSPropertyOp53
 70
     1
102
RTVSPropertyOp54
 70
     1
102
RTVSPropertyOp55
 70
     1
102
RTVSPropertyOp56
 70
     1
102
RTVSPropertyOp57
 70
     1
102
RTVSPost2010Prop28
280
     0
102
RTVSPost2010PropOp28
 70
     1
102
RTVSPost2010Prop29
280
     1
102
RTVSPost2010PropOp29
 70
     1
102
RTVSPost2010Prop30
280
     1
102
RTVSPost2010PropOp30
 70
     1
102
RTVSPost2010Prop31
280
     0
102
RTVSPost2010PropOp31
 70
     1
102
RTVSPost2010Prop32
280
     0
102
RTVSPost2010PropOp32
 70
     1
102
RTVSPost2010Prop33
280
     0
102
RTVSPost2010PropOp33
 70
     1
102
RTVSPost2010Prop34
280
     0
102
RTVSPost2010PropOp34
 70
     1
102
RTVSPost2010Prop35
280
     0
102
RTVSPost2010PropOp35
 70
     1
102
RTVSPost2010Prop36
280
     0
102
RTVSPost2010PropOp36
 70
     1
102
RTVSPost2010Prop37
 90
       50
102
RTVSPost2010PropOp37
 70
     1
102
RTVSPost2010Prop38
140
0.0
102
RTVSPost2010PropOp38
 70
     1
102
RTVSPost2010Prop39
140
1.0
102
RTVSPost2010PropOp39
 70
     1
102
RTVSPost2010Prop40
 90
        0
102
RTVSPost2010PropOp40
 70
     1
102
RTVSPost2010Prop41ColorIndex
 90
       18
102
RTVSPost2010Prop41ColorRGB
 90
        0
102
RTVSPost2010PropOp41
 70
     1
102
RTVSPost2010Prop42
 90
       50
102
RTVSPost2010PropOp42
 70
     1
102
RTVSPost2010Prop43
 90
        3
102
RTVSPost2010PropOp43
 70
     1
102
RTVSPost2010Prop44ColorIndex
 90
        5
102
RTVSPost2010Prop44ColorRGB
 90
      255
102
RTVSPost2010PropOp44
 70
     1
102
RTVSPost2010Prop45
280
     0
102
RTVSPost2010PropOp45
 70
     1
102
RTVSPost2010Prop46
 90
       50
102
RTVSPost2010PropOp46
 70
     1
102
RTVSPost2010Prop47
 90
       50
102
RTVSPost2010PropOp47
 70
     1
102
RTVSPost2010Prop48
 90
       50
102
RTVSPost2010PropOp48
 70
     1
102
RTVSPost2010Prop49
280
     0
102
RTVSPost2010PropOp49
 70
     1
102
RTVSPost2010Prop50
 90
       50
102
RTVSPost2010PropOp50
 70
     1
102
RTVSPost2010Prop51ColorIndex
 90
      256
102
RTVSPost2010Prop51ColorRGB
 90
-16777216
102
RTVSPost2010PropOp51
 70
     0
102
RTVSPost2010Prop52
140
1.0
102
RTVSPost2010PropOp52
 70
     0
102
RTVSPost2010Prop53
 90
        2
102
RTVSPost2010PropOp53
 70
     1
102
RTVSPost2010Prop54
  1
strokes_ogs.tif
102
RTVSPost2010PropOp54
 70
     1
102
RTVSPost2010Prop55
280
     0
102
RTVSPost2010PropOp55
 70
     1
102
RTVSPost2010Prop56
140
1.0
102
RTVSPost2010PropOp56
 70
     1
102
RTVSPost2010Prop57
140
1.0
102
RTVSPost2010PropOp57
 70
     1
  0
XRECORD
  5
169
102
{ACAD_REACTORS
330
168
102
}
330
168
100
AcDbXrecord
280
     1
102
RTVSPropertyOp0
 70
     0
102
RTVSPropertyOp1
 70
     0
102
RTVSPropertyOp2
 70
     0
102
RTVSPropertyOp3
 70
     0
102
RTVSPropertyOp4
 70
     0
102
RTVSPropertyOp5
 70
     0
102
RTVSPropertyOp6
 70
     0
102
RTVSPropertyOp7
 70
     0
102
RTVSPropertyOp8
 70
     0
102
RTVSPropertyOp9
 70
     0
102
RTVSPropertyOp10
 70
     0
102
RTVSPropertyOp11
 70
     0
102
RTVSPropertyOp12
 70
     0
102
RTVSPropertyOp13
 70
     0
102
RTVSPropertyOp14
 70
     2
102
RTVSPropertyOp15
 70
     0
102
RTVSPropertyOp16
 70
     0
102
RTVSPropertyOp17
 70
     0
102
RTVSPropertyOp18
 70
     0
102
RTVSPropertyOp19
 70
     0
102
RTVSPropertyOp20
 70
     0
102
RTVSPropertyOp21
 70
     0
102
RTVSPropertyOp22
 70
     0
102
RTVSPropertyOp23
 70
     0
102
RTVSPropertyOp24
 70
     0
102
RTVSPropertyOp25
 70
     0
102
RTVSPropertyOp26
 70
     0
102
RTVSPropertyOp27
 70
     0
102
RTVSPropertyOp28
 70
     0
102
RTVSPropertyOp29
 70
     0
102
RTVSPropertyOp30
 70
     0
102
RTVSPropertyOp31
 70
     0
102
RTVSPropertyOp32
 70
     0
102
RTVSPropertyOp33
 70
     0
102
RTVSPropertyOp34
 70
     0
102
RTVSPropertyOp35
 70
     0
102
RTVSPropertyOp36
 70
     0
102
RTVSPropertyOp37
 70
     0
102
RTVSPropertyOp38
 70
     0
102
RTVSPropertyOp39
 70
     0
102
RTVSPropertyOp40
 70
     0
102
RTVSPropertyOp41
 70
     0
102
RTVSPropertyOp42
 70
     0
102
RTVSPropertyOp43
 70
     0
102
RTVSPropertyOp44
 70
     0
102
RTVSPropertyOp45
 70
     0
102
RTVSPropertyOp46
 70
     0
102
RTVSPropertyOp47
 70
     0
102
RTVSPropertyOp48
 70
     0
102
RTVSPropertyOp49
 70
     0
102
RTVSPropertyOp50
 70
     0
102
RTVSPropertyOp51
 70
     0
102
RTVSPropertyOp52
 70
     0
102
RTVSPropertyOp53
 70
     0
102
RTVSPropertyOp54
 70
     0
102
RTVSPropertyOp55
 70
     0
102
RTVSPropertyOp56
 70
     0
102
RTVSPropertyOp57
 70
     0
102
RTVSPost2010Prop28
280
     0
102
RTVSPost2010PropOp28
 70
     0
102
RTVSPost2010Prop29
280
     1
102
RTVSPost2010PropOp29
 70
     0
102
RTVSPost2010Prop30
280
     1
102
RTVSPost2010PropOp30
 70
     0
102
RTVSPost2010Prop31
280
     0
102
RTVSPost2010PropOp31
 70
     0
102
RTVSPost2010Prop32
280
     0
102
RTVSPost2010PropOp32
 70
     0
102
RTVSPost2010Prop33
280
     0
102
RTVSPost2010PropOp33
 70
     0
102
RTVSPost2010Prop34
280
     0
102
RTVSPost2010PropOp34
 70
     0
102
RTVSPost2010Prop35
280
     0
102
RTVSPost2010PropOp35
 70
     0
102
RTVSPost2010Prop36
280
     0
102
RTVSPost2010PropOp36
 70
     0
102
RTVSPost2010Prop37
 90
       50
102
RTVSPost2010PropOp37
 70
     0
102
RTVSPost2010Prop38
140
0.0
102
RTVSPost2010PropOp38
 70
     0
102
RTVSPost2010Prop39
140
1.0
102
RTVSPost2010PropOp39
 70
     0
102
RTVSPost2010Prop40
 90
        0
102
RTVSPost2010PropOp40
 70
     0
102
RTVSPost2010Prop41ColorIndex
 90
       18
102
RTVSPost2010Prop41ColorRGB
 90
        0
102
RTVSPost2010PropOp41
 70
     0
102
RTVSPost2010Prop42
 90
       50
102
RTVSPost2010PropOp42
 70
     0
102
RTVSPost2010Prop43
 90
        3
102
RTVSPost2010PropOp43
 70
     0
102
RTVSPost2010Prop44ColorIndex
 90
        5
102
RTVSPost2010Prop44ColorRGB
 90
      255
102
RTVSPost2010PropOp44
 70
     0
102
RTVSPost2010Prop45
280
     0
102
RTVSPost2010PropOp45
 70
     0
102
RTVSPost2010Prop46
 90
       50
102
RTVSPost2010PropOp46
 70
     0
102
RTVSPost2010Prop47
 90
       50
102
RTVSPost2010PropOp47
 70
     0
102
RTVSPost2010Prop48
 90
       50
102
RTVSPost2010PropOp48
 70
     0
102
RTVSPost2010Prop49
280
     0
102
RTVSPost2010PropOp49
 70
     0
102
RTVSPost2010Prop50
 90
       50
102
RTVSPost2010PropOp50
 70
     0
102
RTVSPost2010Prop51ColorIndex
 90
      256
102
RTVSPost2010Prop51ColorRGB
 90
-16777216
102
RTVSPost2010PropOp51
 70
     0
102
RTVSPost2010Prop52
140
1.0
102
RTVSPost2010PropOp52
 70
     0
102
RTVSPost2010Prop53
 90
        2
102
RTVSPost2010PropOp53
 70
     0
102
RTVSPost2010Prop54
  1
strokes_ogs.tif
102
RTVSPost2010PropOp54
 70
     0
102
RTVSPost2010Prop55
280
     0
102
RTVSPost2010PropOp55
 70
     0
102
RTVSPost2010Prop56
140
1.0
102
RTVSPost2010PropOp56
 70
     0
102
RTVSPost2010Prop57
140
1.0
102
RTVSPost2010PropOp57
 70
     0
  0
XRECORD
  5
157
102
{ACAD_REACTORS
330
156
102
}
330
156
100
AcDbXrecord
280
     1
102
RTVSPropertyOp0
 70
     1
102
RTVSPropertyOp1
 70
     1
102
RTVSPropertyOp2
 70
     1
102
RTVSPropertyOp3
 70
     1
102
RTVSPropertyOp4
 70
     1
102
RTVSPropertyOp5
 70
     1
102
RTVSPropertyOp6
 70
     1
102
RTVSPropertyOp7
 70
     1
102
RTVSPropertyOp8
 70
     1
102
RTVSPropertyOp9
 70
     1
102
RTVSPropertyOp10
 70
     1
102
RTVSPropertyOp11
 70
     1
102
RTVSPropertyOp12
 70
     1
102
RTVSPropertyOp13
 70
     1
102
RTVSPropertyOp14
 70
     1
102
RTVSPropertyOp15
 70
     1
102
RTVSPropertyOp16
 70
     1
102
RTVSPropertyOp17
 70
     1
102
RTVSPropertyOp18
 70
     1
102
RTVSPropertyOp19
 70
     1
102
RTVSPropertyOp20
 70
     1
102
RTVSPropertyOp21
 70
     1
102
RTVSPropertyOp22
 70
     1
102
RTVSPropertyOp23
 70
     1
102
RTVSPropertyOp24
 70
     1
102
RTVSPropertyOp25
 70
     1
102
RTVSPropertyOp26
 70
     1
102
RTVSPropertyOp27
 70
     1
102
RTVSPropertyOp28
 70
     1
102
RTVSPropertyOp29
 70
     1
102
RTVSPropertyOp30
 70
     1
102
RTVSPropertyOp31
 70
     1
102
RTVSPropertyOp32
 70
     1
102
RTVSPropertyOp33
 70
     1
102
RTVSPropertyOp34
 70
     1
102
RTVSPropertyOp35
 70
     1
102
RTVSPropertyOp36
 70
     1
102
RTVSPropertyOp37
 70
     1
102
RTVSPropertyOp38
 70
     1
102
RTVSPropertyOp39
 70
     1
102
RTVSPropertyOp40
 70
     1
102
RTVSPropertyOp41
 70
     1
102
RTVSPropertyOp42
 70
     1
102
RTVSPropertyOp43
 70
     1
102
RTVSPropertyOp44
 70
     1
102
RTVSPropertyOp45
 70
     1
102
RTVSPropertyOp46
 70
     1
102
RTVSPropertyOp47
 70
     1
102
RTVSPropertyOp48
 70
     1
102
RTVSPropertyOp49
 70
     1
102
RTVSPropertyOp50
 70
     1
102
RTVSPropertyOp51
 70
     0
102
RTVSPropertyOp52
 70
     0
102
RTVSPropertyOp53
 70
     1
102
RTVSPropertyOp54
 70
     1
102
RTVSPropertyOp55
 70
     1
102
RTVSPropertyOp56
 70
     1
102
RTVSPropertyOp57
 70
     1
102
RTVSPost2010Prop28
280
     0
102
RTVSPost2010PropOp28
 70
     1
102
RTVSPost2010Prop29
280
     1
102
RTVSPost2010PropOp29
 70
     1
102
RTVSPost2010Prop30
280
     1
102
RTVSPost2010PropOp30
 70
     1
102
RTVSPost2010Prop31
280
     0
102
RTVSPost2010PropOp31
 70
     1
102
RTVSPost2010Prop32
280
     0
102
RTVSPost2010PropOp32
 70
     1
102
RTVSPost2010Prop33
280
     0
102
RTVSPost2010PropOp33
 70
     1
102
RTVSPost2010Prop34
280
     0
102
RTVSPost2010PropOp34
 70
     1
102
RTVSPost2010Prop35
280
     0
102
RTVSPost2010PropOp35
 70
     1
102
RTVSPost2010Prop36
280
     0
102
RTVSPost2010PropOp36
 70
     1
102
RTVSPost2010Prop37
 90
       50
102
RTVSPost2010PropOp37
 70
     1
102
RTVSPost2010Prop38
140
0.0
102
RTVSPost2010PropOp38
 70
     1
102
RTVSPost2010Prop39
140
1.0
102
RTVSPost2010PropOp39
 70
     1
102
RTVSPost2010Prop40
 90
        0
102
RTVSPost2010PropOp40
 70
     1
102
RTVSPost2010Prop41ColorIndex
 90
       18
102
RTVSPost2010Prop41ColorRGB
 90
        0
102
RTVSPost2010PropOp41
 70
     1
102
RTVSPost2010Prop42
 90
       50
102
RTVSPost2010PropOp42
 70
     1
102
RTVSPost2010Prop43
 90
        3
102
RTVSPost2010PropOp43
 70
     1
102
RTVSPost2010Prop44ColorIndex
 90
        5
102
RTVSPost2010Prop44ColorRGB
 90
      255
102
RTVSPost2010PropOp44
 70
     1
102
RTVSPost2010Prop45
280
     0
102
RTVSPost2010PropOp45
 70
     1
102
RTVSPost2010Prop46
 90
       50
102
RTVSPost2010PropOp46
 70
     1
102
RTVSPost2010Prop47
 90
       50
102
RTVSPost2010PropOp47
 70
     1
102
RTVSPost2010Prop48
 90
       50
102
RTVSPost2010PropOp48
 70
     1
102
RTVSPost2010Prop49
280
     0
102
RTVSPost2010PropOp49
 70
     1
102
RTVSPost2010Prop50
 90
       50
102
RTVSPost2010PropOp50
 70
     1
102
RTVSPost2010Prop51ColorIndex
 90
      256
102
RTVSPost2010Prop51ColorRGB
 90
-16777216
102
RTVSPost2010PropOp51
 70
     0
102
RTVSPost2010Prop52
140
1.0
102
RTVSPost2010PropOp52
 70
     0
102
RTVSPost2010Prop53
 90
        2
102
RTVSPost2010PropOp53
 70
     1
102
RTVSPost2010Prop54
  1
strokes_ogs.tif
102
RTVSPost2010PropOp54
 70
     1
102
RTVSPost2010Prop55
280
     0
102
RTVSPost2010PropOp55
 70
     1
102
RTVSPost2010Prop56
140
1.0
102
RTVSPost2010PropOp56
 70
     1
102
RTVSPost2010Prop57
140
1.0
102
RTVSPost2010PropOp57
 70
     1
  0
XRECORD
  5
175
102
{ACAD_REACTORS
330
174
102
}
330
174
100
AcDbXrecord
280
     1
102
RTVSPropertyOp0
 70
     1
102
RTVSPropertyOp1
 70
     1
102
RTVSPropertyOp2
 70
     1
102
RTVSPropertyOp3
 70
     1
102
RTVSPropertyOp4
 70
     1
102
RTVSPropertyOp5
 70
     1
102
RTVSPropertyOp6
 70
     1
102
RTVSPropertyOp7
 70
     1
102
RTVSPropertyOp8
 70
     1
102
RTVSPropertyOp9
 70
     1
102
RTVSPropertyOp10
 70
     1
102
RTVSPropertyOp11
 70
     1
102
RTVSPropertyOp12
 70
     1
102
RTVSPropertyOp13
 70
     1
102
RTVSPropertyOp14
 70
     1
102
RTVSPropertyOp15
 70
     1
102
RTVSPropertyOp16
 70
     1
102
RTVSPropertyOp17
 70
     1
102
RTVSPropertyOp18
 70
     1
102
RTVSPropertyOp19
 70
     1
102
RTVSPropertyOp20
 70
     1
102
RTVSPropertyOp21
 70
     1
102
RTVSPropertyOp22
 70
     1
102
RTVSPropertyOp23
 70
     1
102
RTVSPropertyOp24
 70
     1
102
RTVSPropertyOp25
 70
     1
102
RTVSPropertyOp26
 70
     1
102
RTVSPropertyOp27
 70
     1
102
RTVSPropertyOp28
 70
     1
102
RTVSPropertyOp29
 70
     1
102
RTVSPropertyOp30
 70
     1
102
RTVSPropertyOp31
 70
     1
102
RTVSPropertyOp32
 70
     1
102
RTVSPropertyOp33
 70
     1
102
RTVSPropertyOp34
 70
     1
102
RTVSPropertyOp35
 70
     1
102
RTVSPropertyOp36
 70
     1
102
RTVSPropertyOp37
 70
     1
102
RTVSPropertyOp38
 70
     1
102
RTVSPropertyOp39
 70
     1
102
RTVSPropertyOp40
 70
     1
102
RTVSPropertyOp41
 70
     1
102
RTVSPropertyOp42
 70
     1
102
RTVSPropertyOp43
 70
     1
102
RTVSPropertyOp44
 70
     1
102
RTVSPropertyOp45
 70
     1
102
RTVSPropertyOp46
 70
     1
102
RTVSPropertyOp47
 70
     1
102
RTVSPropertyOp48
 70
     1
102
RTVSPropertyOp49
 70
     1
102
RTVSPropertyOp50
 70
     1
102
RTVSPropertyOp51
 70
     0
102
RTVSPropertyOp52
 70
     0
102
RTVSPropertyOp53
 70
     1
102
RTVSPropertyOp54
 70
     1
102
RTVSPropertyOp55
 70
     1
102
RTVSPropertyOp56
 70
     1
102
RTVSPropertyOp57
 70
     1
102
RTVSPost2010Prop28
280
     0
102
RTVSPost2010PropOp28
 70
     1
102
RTVSPost2010Prop29
280
     1
102
RTVSPost2010PropOp29
 70
     1
102
RTVSPost2010Prop30
280
     1
102
RTVSPost2010PropOp30
 70
     1
102
RTVSPost2010Prop31
280
     0
102
RTVSPost2010PropOp31
 70
     1
102
RTVSPost2010Prop32
280
     0
102
RTVSPost2010PropOp32
 70
     1
102
RTVSPost2010Prop33
280
     0
102
RTVSPost2010PropOp33
 70
     1
102
RTVSPost2010Prop34
280
     0
102
RTVSPost2010PropOp34
 70
     1
102
RTVSPost2010Prop35
280
     0
102
RTVSPost2010PropOp35
 70
     1
102
RTVSPost2010Prop36
280
     0
102
RTVSPost2010PropOp36
 70
     1
102
RTVSPost2010Prop37
 90
       50
102
RTVSPost2010PropOp37
 70
     1
102
RTVSPost2010Prop38
140
0.0
102
RTVSPost2010PropOp38
 70
     1
102
RTVSPost2010Prop39
140
1.0
102
RTVSPost2010PropOp39
 70
     1
102
RTVSPost2010Prop40
 90
        0
102
RTVSPost2010PropOp40
 70
     1
102
RTVSPost2010Prop41ColorIndex
 90
       18
102
RTVSPost2010Prop41ColorRGB
 90
        0
102
RTVSPost2010PropOp41
 70
     1
102
RTVSPost2010Prop42
 90
       50
102
RTVSPost2010PropOp42
 70
     1
102
RTVSPost2010Prop43
 90
        3
102
RTVSPost2010PropOp43
 70
     1
102
RTVSPost2010Prop44ColorIndex
 90
        5
102
RTVSPost2010Prop44ColorRGB
 90
      255
102
RTVSPost2010PropOp44
 70
     1
102
RTVSPost2010Prop45
280
     0
102
RTVSPost2010PropOp45
 70
     1
102
RTVSPost2010Prop46
 90
       50
102
RTVSPost2010PropOp46
 70
     1
102
RTVSPost2010Prop47
 90
       50
102
RTVSPost2010PropOp47
 70
     1
102
RTVSPost2010Prop48
 90
       50
102
RTVSPost2010PropOp48
 70
     1
102
RTVSPost2010Prop49
280
     0
102
RTVSPost2010PropOp49
 70
     1
102
RTVSPost2010Prop50
 90
       50
102
RTVSPost2010PropOp50
 70
     1
102
RTVSPost2010Prop51ColorIndex
 90
      256
102
RTVSPost2010Prop51ColorRGB
 90
-16777216
102
RTVSPost2010PropOp51
 70
     0
102
RTVSPost2010Prop52
140
1.0
102
RTVSPost2010PropOp52
 70
     0
102
RTVSPost2010Prop53
 90
        2
102
RTVSPost2010PropOp53
 70
     1
102
RTVSPost2010Prop54
  1
strokes_ogs.tif
102
RTVSPost2010PropOp54
 70
     1
102
RTVSPost2010Prop55
280
     0
102
RTVSPost2010PropOp55
 70
     1
102
RTVSPost2010Prop56
140
1.0
102
RTVSPost2010PropOp56
 70
     1
102
RTVSPost2010Prop57
140
1.0
102
RTVSPost2010PropOp57
 70
     1
  0
XRECORD
  5
173
102
{ACAD_REACTORS
330
172
102
}
330
172
100
AcDbXrecord
280
     1
102
RTVSPropertyOp0
 70
     1
102
RTVSPropertyOp1
 70
     1
102
RTVSPropertyOp2
 70
     1
102
RTVSPropertyOp3
 70
     1
102
RTVSPropertyOp4
 70
     1
102
RTVSPropertyOp5
 70
     1
102
RTVSPropertyOp6
 70
     1
102
RTVSPropertyOp7
 70
     1
102
RTVSPropertyOp8
 70
     1
102
RTVSPropertyOp9
 70
     1
102
RTVSPropertyOp10
 70
     1
102
RTVSPropertyOp11
 70
     1
102
RTVSPropertyOp12
 70
     1
102
RTVSPropertyOp13
 70
     1
102
RTVSPropertyOp14
 70
     1
102
RTVSPropertyOp15
 70
     1
102
RTVSPropertyOp16
 70
     1
102
RTVSPropertyOp17
 70
     1
102
RTVSPropertyOp18
 70
     1
102
RTVSPropertyOp19
 70
     1
102
RTVSPropertyOp20
 70
     1
102
RTVSPropertyOp21
 70
     1
102
RTVSPropertyOp22
 70
     1
102
RTVSPropertyOp23
 70
     1
102
RTVSPropertyOp24
 70
     1
102
RTVSPropertyOp25
 70
     1
102
RTVSPropertyOp26
 70
     1
102
RTVSPropertyOp27
 70
     1
102
RTVSPropertyOp28
 70
     1
102
RTVSPropertyOp29
 70
     1
102
RTVSPropertyOp30
 70
     1
102
RTVSPropertyOp31
 70
     1
102
RTVSPropertyOp32
 70
     1
102
RTVSPropertyOp33
 70
     1
102
RTVSPropertyOp34
 70
     1
102
RTVSPropertyOp35
 70
     1
102
RTVSPropertyOp36
 70
     1
102
RTVSPropertyOp37
 70
     1
102
RTVSPropertyOp38
 70
     1
102
RTVSPropertyOp39
 70
     1
102
RTVSPropertyOp40
 70
     1
102
RTVSPropertyOp41
 70
     1
102
RTVSPropertyOp42
 70
     1
102
RTVSPropertyOp43
 70
     1
102
RTVSPropertyOp44
 70
     1
102
RTVSPropertyOp45
 70
     1
102
RTVSPropertyOp46
 70
     1
102
RTVSPropertyOp47
 70
     1
102
RTVSPropertyOp48
 70
     1
102
RTVSPropertyOp49
 70
     1
102
RTVSPropertyOp50
 70
     1
102
RTVSPropertyOp51
 70
     0
102
RTVSPropertyOp52
 70
     0
102
RTVSPropertyOp53
 70
     1
102
RTVSPropertyOp54
 70
     1
102
RTVSPropertyOp55
 70
     1
102
RTVSPropertyOp56
 70
     1
102
RTVSPropertyOp57
 70
     1
102
RTVSPost2010Prop28
280
     0
102
RTVSPost2010PropOp28
 70
     1
102
RTVSPost2010Prop29
280
     1
102
RTVSPost2010PropOp29
 70
     1
102
RTVSPost2010Prop30
280
     1
102
RTVSPost2010PropOp30
 70
     1
102
RTVSPost2010Prop31
280
     0
102
RTVSPost2010PropOp31
 70
     1
102
RTVSPost2010Prop32
280
     0
102
RTVSPost2010PropOp32
 70
     1
102
RTVSPost2010Prop33
280
     0
102
RTVSPost2010PropOp33
 70
     1
102
RTVSPost2010Prop34
280
     0
102
RTVSPost2010PropOp34
 70
     1
102
RTVSPost2010Prop35
280
     0
102
RTVSPost2010PropOp35
 70
     1
102
RTVSPost2010Prop36
280
     0
102
RTVSPost2010PropOp36
 70
     1
102
RTVSPost2010Prop37
 90
       50
102
RTVSPost2010PropOp37
 70
     1
102
RTVSPost2010Prop38
140
0.0
102
RTVSPost2010PropOp38
 70
     1
102
RTVSPost2010Prop39
140
1.0
102
RTVSPost2010PropOp39
 70
     1
102
RTVSPost2010Prop40
 90
        0
102
RTVSPost2010PropOp40
 70
     1
102
RTVSPost2010Prop41ColorIndex
 90
       18
102
RTVSPost2010Prop41ColorRGB
 90
        0
102
RTVSPost2010PropOp41
 70
     1
102
RTVSPost2010Prop42
 90
       50
102
RTVSPost2010PropOp42
 70
     1
102
RTVSPost2010Prop43
 90
        3
102
RTVSPost2010PropOp43
 70
     1
102
RTVSPost2010Prop44ColorIndex
 90
        5
102
RTVSPost2010Prop44ColorRGB
 90
      255
102
RTVSPost2010PropOp44
 70
     1
102
RTVSPost2010Prop45
280
     0
102
RTVSPost2010PropOp45
 70
     1
102
RTVSPost2010Prop46
 90
       50
102
RTVSPost2010PropOp46
 70
     1
102
RTVSPost2010Prop47
 90
       50
102
RTVSPost2010PropOp47
 70
     1
102
RTVSPost2010Prop48
 90
       50
102
RTVSPost2010PropOp48
 70
     1
102
RTVSPost2010Prop49
280
     0
102
RTVSPost2010PropOp49
 70
     1
102
RTVSPost2010Prop50
 90
       50
102
RTVSPost2010PropOp50
 70
     1
102
RTVSPost2010Prop51ColorIndex
 90
      256
102
RTVSPost2010Prop51ColorRGB
 90
-16777216
102
RTVSPost2010PropOp51
 70
     0
102
RTVSPost2010Prop52
140
1.0
102
RTVSPost2010PropOp52
 70
     0
102
RTVSPost2010Prop53
 90
        2
102
RTVSPost2010PropOp53
 70
     1
102
RTVSPost2010Prop54
  1
strokes_ogs.tif
102
RTVSPost2010PropOp54
 70
     1
102
RTVSPost2010Prop55
280
     0
102
RTVSPost2010PropOp55
 70
     1
102
RTVSPost2010Prop56
140
1.0
102
RTVSPost2010PropOp56
 70
     1
102
RTVSPost2010Prop57
140
1.0
102
RTVSPost2010PropOp57
 70
     1
  0
XRECORD
  5
16D
102
{ACAD_REACTORS
330
16C
102
}
330
16C
100
AcDbXrecord
280
     1
102
RTVSPropertyOp0
 70
     1
102
RTVSPropertyOp1
 70
     1
102
RTVSPropertyOp2
 70
     1
102
RTVSPropertyOp3
 70
     1
102
RTVSPropertyOp4
 70
     1
102
RTVSPropertyOp5
 70
     1
102
RTVSPropertyOp6
 70
     1
102
RTVSPropertyOp7
 70
     1
102
RTVSPropertyOp8
 70
     1
102
RTVSPropertyOp9
 70
     1
102
RTVSPropertyOp10
 70
     1
102
RTVSPropertyOp11
 70
     1
102
RTVSPropertyOp12
 70
     1
102
RTVSPropertyOp13
 70
     1
102
RTVSPropertyOp14
 70
     1
102
RTVSPropertyOp15
 70
     1
102
RTVSPropertyOp16
 70
     1
102
RTVSPropertyOp17
 70
     1
102
RTVSPropertyOp18
 70
     1
102
RTVSPropertyOp19
 70
     1
102
RTVSPropertyOp20
 70
     1
102
RTVSPropertyOp21
 70
     1
102
RTVSPropertyOp22
 70
     1
102
RTVSPropertyOp23
 70
     1
102
RTVSPropertyOp24
 70
     1
102
RTVSPropertyOp25
 70
     1
102
RTVSPropertyOp26
 70
     1
102
RTVSPropertyOp27
 70
     1
102
RTVSPropertyOp28
 70
     1
102
RTVSPropertyOp29
 70
     1
102
RTVSPropertyOp30
 70
     1
102
RTVSPropertyOp31
 70
     1
102
RTVSPropertyOp32
 70
     1
102
RTVSPropertyOp33
 70
     1
102
RTVSPropertyOp34
 70
     1
102
RTVSPropertyOp35
 70
     1
102
RTVSPropertyOp36
 70
     1
102
RTVSPropertyOp37
 70
     1
102
RTVSPropertyOp38
 70
     1
102
RTVSPropertyOp39
 70
     1
102
RTVSPropertyOp40
 70
     1
102
RTVSPropertyOp41
 70
     1
102
RTVSPropertyOp42
 70
     1
102
RTVSPropertyOp43
 70
     1
102
RTVSPropertyOp44
 70
     1
102
RTVSPropertyOp45
 70
     1
102
RTVSPropertyOp46
 70
     1
102
RTVSPropertyOp47
 70
     1
102
RTVSPropertyOp48
 70
     1
102
RTVSPropertyOp49
 70
     1
102
RTVSPropertyOp50
 70
     1
102
RTVSPropertyOp51
 70
     0
102
RTVSPropertyOp52
 70
     0
102
RTVSPropertyOp53
 70
     1
102
RTVSPropertyOp54
 70
     1
102
RTVSPropertyOp55
 70
     1
102
RTVSPropertyOp56
 70
     1
102
RTVSPropertyOp57
 70
     1
102
RTVSPost2010Prop28
280
     0
102
RTVSPost2010PropOp28
 70
     1
102
RTVSPost2010Prop29
280
     1
102
RTVSPost2010PropOp29
 70
     1
102
RTVSPost2010Prop30
280
     1
102
RTVSPost2010PropOp30
 70
     1
102
RTVSPost2010Prop31
280
     0
102
RTVSPost2010PropOp31
 70
     1
102
RTVSPost2010Prop32
280
     0
102
RTVSPost2010PropOp32
 70
     1
102
RTVSPost2010Prop33
280
     0
102
RTVSPost2010PropOp33
 70
     1
102
RTVSPost2010Prop34
280
     0
102
RTVSPost2010PropOp34
 70
     1
102
RTVSPost2010Prop35
280
     0
102
RTVSPost2010PropOp35
 70
     1
102
RTVSPost2010Prop36
280
     0
102
RTVSPost2010PropOp36
 70
     1
102
RTVSPost2010Prop37
 90
       50
102
RTVSPost2010PropOp37
 70
     1
102
RTVSPost2010Prop38
140
0.0
102
RTVSPost2010PropOp38
 70
     1
102
RTVSPost2010Prop39
140
1.0
102
RTVSPost2010PropOp39
 70
     1
102
RTVSPost2010Prop40
 90
        0
102
RTVSPost2010PropOp40
 70
     1
102
RTVSPost2010Prop41ColorIndex
 90
       18
102
RTVSPost2010Prop41ColorRGB
 90
        0
102
RTVSPost2010PropOp41
 70
     1
102
RTVSPost2010Prop42
 90
       50
102
RTVSPost2010PropOp42
 70
     1
102
RTVSPost2010Prop43
 90
        3
102
RTVSPost2010PropOp43
 70
     1
102
RTVSPost2010Prop44ColorIndex
 90
        5
102
RTVSPost2010Prop44ColorRGB
 90
      255
102
RTVSPost2010PropOp44
 70
     1
102
RTVSPost2010Prop45
280
     0
102
RTVSPost2010PropOp45
 70
     1
102
RTVSPost2010Prop46
 90
       50
102
RTVSPost2010PropOp46
 70
     1
102
RTVSPost2010Prop47
 90
       50
102
RTVSPost2010PropOp47
 70
     1
102
RTVSPost2010Prop48
 90
       50
102
RTVSPost2010PropOp48
 70
     1
102
RTVSPost2010Prop49
280
     0
102
RTVSPost2010PropOp49
 70
     1
102
RTVSPost2010Prop50
 90
       50
102
RTVSPost2010PropOp50
 70
     1
102
RTVSPost2010Prop51ColorIndex
 90
      256
102
RTVSPost2010Prop51ColorRGB
 90
-16777216
102
RTVSPost2010PropOp51
 70
     0
102
RTVSPost2010Prop52
140
1.0
102
RTVSPost2010PropOp52
 70
     0
102
RTVSPost2010Prop53
 90
        2
102
RTVSPost2010PropOp53
 70
     1
102
RTVSPost2010Prop54
  1
strokes_ogs.tif
102
RTVSPost2010PropOp54
 70
     1
102
RTVSPost2010Prop55
280
     0
102
RTVSPost2010PropOp55
 70
     1
102
RTVSPost2010Prop56
140
1.0
102
RTVSPost2010PropOp56
 70
     1
102
RTVSPost2010Prop57
140
1.0
102
RTVSPost2010PropOp57
 70
     1
  0
XRECORD
  5
16F
102
{ACAD_REACTORS
330
16E
102
}
330
16E
100
AcDbXrecord
280
     1
102
RTVSPropertyOp0
 70
     1
102
RTVSPropertyOp1
 70
     1
102
RTVSPropertyOp2
 70
     1
102
RTVSPropertyOp3
 70
     1
102
RTVSPropertyOp4
 70
     1
102
RTVSPropertyOp5
 70
     1
102
RTVSPropertyOp6
 70
     1
102
RTVSPropertyOp7
 70
     1
102
RTVSPropertyOp8
 70
     1
102
RTVSPropertyOp9
 70
     1
102
RTVSPropertyOp10
 70
     1
102
RTVSPropertyOp11
 70
     1
102
RTVSPropertyOp12
 70
     1
102
RTVSPropertyOp13
 70
     1
102
RTVSPropertyOp14
 70
     1
102
RTVSPropertyOp15
 70
     1
102
RTVSPropertyOp16
 70
     1
102
RTVSPropertyOp17
 70
     1
102
RTVSPropertyOp18
 70
     1
102
RTVSPropertyOp19
 70
     1
102
RTVSPropertyOp20
 70
     1
102
RTVSPropertyOp21
 70
     1
102
RTVSPropertyOp22
 70
     1
102
RTVSPropertyOp23
 70
     1
102
RTVSPropertyOp24
 70
     1
102
RTVSPropertyOp25
 70
     1
102
RTVSPropertyOp26
 70
     1
102
RTVSPropertyOp27
 70
     1
102
RTVSPropertyOp28
 70
     1
102
RTVSPropertyOp29
 70
     1
102
RTVSPropertyOp30
 70
     1
102
RTVSPropertyOp31
 70
     1
102
RTVSPropertyOp32
 70
     1
102
RTVSPropertyOp33
 70
     1
102
RTVSPropertyOp34
 70
     1
102
RTVSPropertyOp35
 70
     1
102
RTVSPropertyOp36
 70
     1
102
RTVSPropertyOp37
 70
     1
102
RTVSPropertyOp38
 70
     1
102
RTVSPropertyOp39
 70
     1
102
RTVSPropertyOp40
 70
     1
102
RTVSPropertyOp41
 70
     1
102
RTVSPropertyOp42
 70
     1
102
RTVSPropertyOp43
 70
     1
102
RTVSPropertyOp44
 70
     1
102
RTVSPropertyOp45
 70
     1
102
RTVSPropertyOp46
 70
     1
102
RTVSPropertyOp47
 70
     1
102
RTVSPropertyOp48
 70
     1
102
RTVSPropertyOp49
 70
     1
102
RTVSPropertyOp50
 70
     1
102
RTVSPropertyOp51
 70
     0
102
RTVSPropertyOp52
 70
     0
102
RTVSPropertyOp53
 70
     1
102
RTVSPropertyOp54
 70
     1
102
RTVSPropertyOp55
 70
     1
102
RTVSPropertyOp56
 70
     1
102
RTVSPropertyOp57
 70
     1
102
RTVSPost2010Prop28
280
     0
102
RTVSPost2010PropOp28
 70
     1
102
RTVSPost2010Prop29
280
     1
102
RTVSPost2010PropOp29
 70
     1
102
RTVSPost2010Prop30
280
     1
102
RTVSPost2010PropOp30
 70
     1
102
RTVSPost2010Prop31
280
     0
102
RTVSPost2010PropOp31
 70
     1
102
RTVSPost2010Prop32
280
     0
102
RTVSPost2010PropOp32
 70
     1
102
RTVSPost2010Prop33
280
     0
102
RTVSPost2010PropOp33
 70
     1
102
RTVSPost2010Prop34
280
     0
102
RTVSPost2010PropOp34
 70
     1
102
RTVSPost2010Prop35
280
     0
102
RTVSPost2010PropOp35
 70
     1
102
RTVSPost2010Prop36
280
     0
102
RTVSPost2010PropOp36
 70
     1
102
RTVSPost2010Prop37
 90
       50
102
RTVSPost2010PropOp37
 70
     1
102
RTVSPost2010Prop38
140
0.0
102
RTVSPost2010PropOp38
 70
     1
102
RTVSPost2010Prop39
140
1.0
102
RTVSPost2010PropOp39
 70
     1
102
RTVSPost2010Prop40
 90
        0
102
RTVSPost2010PropOp40
 70
     1
102
RTVSPost2010Prop41ColorIndex
 90
       18
102
RTVSPost2010Prop41ColorRGB
 90
        0
102
RTVSPost2010PropOp41
 70
     1
102
RTVSPost2010Prop42
 90
       50
102
RTVSPost2010PropOp42
 70
     1
102
RTVSPost2010Prop43
 90
        3
102
RTVSPost2010PropOp43
 70
     1
102
RTVSPost2010Prop44ColorIndex
 90
        5
102
RTVSPost2010Prop44ColorRGB
 90
      255
102
RTVSPost2010PropOp44
 70
     1
102
RTVSPost2010Prop45
280
     0
102
RTVSPost2010PropOp45
 70
     1
102
RTVSPost2010Prop46
 90
       50
102
RTVSPost2010PropOp46
 70
     1
102
RTVSPost2010Prop47
 90
       50
102
RTVSPost2010PropOp47
 70
     1
102
RTVSPost2010Prop48
 90
       50
102
RTVSPost2010PropOp48
 70
     1
102
RTVSPost2010Prop49
280
     0
102
RTVSPost2010PropOp49
 70
     1
102
RTVSPost2010Prop50
 90
       50
102
RTVSPost2010PropOp50
 70
     1
102
RTVSPost2010Prop51ColorIndex
 90
      256
102
RTVSPost2010Prop51ColorRGB
 90
-16777216
102
RTVSPost2010PropOp51
 70
     0
102
RTVSPost2010Prop52
140
1.0
102
RTVSPost2010PropOp52
 70
     0
102
RTVSPost2010Prop53
 90
        2
102
RTVSPost2010PropOp53
 70
     1
102
RTVSPost2010Prop54
  1
strokes_ogs.tif
102
RTVSPost2010PropOp54
 70
     1
102
RTVSPost2010Prop55
280
     0
102
RTVSPost2010PropOp55
 70
     1
102
RTVSPost2010Prop56
140
1.0
102
RTVSPost2010PropOp56
 70
     1
102
RTVSPost2010Prop57
140
1.0
102
RTVSPost2010PropOp57
 70
     1
  0
XRECORD
  5
15F
102
{ACAD_REACTORS
330
15E
102
}
330
15E
100
AcDbXrecord
280
     1
102
RTVSPropertyOp0
 70
     1
102
RTVSPropertyOp1
 70
     1
102
RTVSPropertyOp2
 70
     1
102
RTVSPropertyOp3
 70
     1
102
RTVSPropertyOp4
 70
     1
102
RTVSPropertyOp5
 70
     1
102
RTVSPropertyOp6
 70
     1
102
RTVSPropertyOp7
 70
     1
102
RTVSPropertyOp8
 70
     1
102
RTVSPropertyOp9
 70
     1
102
RTVSPropertyOp10
 70
     1
102
RTVSPropertyOp11
 70
     1
102
RTVSPropertyOp12
 70
     1
102
RTVSPropertyOp13
 70
     1
102
RTVSPropertyOp14
 70
     1
102
RTVSPropertyOp15
 70
     1
102
RTVSPropertyOp16
 70
     1
102
RTVSPropertyOp17
 70
     1
102
RTVSPropertyOp18
 70
     1
102
RTVSPropertyOp19
 70
     1
102
RTVSPropertyOp20
 70
     1
102
RTVSPropertyOp21
 70
     1
102
RTVSPropertyOp22
 70
     1
102
RTVSPropertyOp23
 70
     1
102
RTVSPropertyOp24
 70
     1
102
RTVSPropertyOp25
 70
     1
102
RTVSPropertyOp26
 70
     1
102
RTVSPropertyOp27
 70
     1
102
RTVSPropertyOp28
 70
     1
102
RTVSPropertyOp29
 70
     1
102
RTVSPropertyOp30
 70
     1
102
RTVSPropertyOp31
 70
     1
102
RTVSPropertyOp32
 70
     1
102
RTVSPropertyOp33
 70
     1
102
RTVSPropertyOp34
 70
     1
102
RTVSPropertyOp35
 70
     1
102
RTVSPropertyOp36
 70
     1
102
RTVSPropertyOp37
 70
     1
102
RTVSPropertyOp38
 70
     1
102
RTVSPropertyOp39
 70
     1
102
RTVSPropertyOp40
 70
     1
102
RTVSPropertyOp41
 70
     1
102
RTVSPropertyOp42
 70
     1
102
RTVSPropertyOp43
 70
     1
102
RTVSPropertyOp44
 70
     1
102
RTVSPropertyOp45
 70
     1
102
RTVSPropertyOp46
 70
     1
102
RTVSPropertyOp47
 70
     1
102
RTVSPropertyOp48
 70
     1
102
RTVSPropertyOp49
 70
     1
102
RTVSPropertyOp50
 70
     1
102
RTVSPropertyOp51
 70
     0
102
RTVSPropertyOp52
 70
     0
102
RTVSPropertyOp53
 70
     1
102
RTVSPropertyOp54
 70
     1
102
RTVSPropertyOp55
 70
     1
102
RTVSPropertyOp56
 70
     1
102
RTVSPropertyOp57
 70
     1
102
RTVSPost2010Prop28
280
     0
102
RTVSPost2010PropOp28
 70
     1
102
RTVSPost2010Prop29
280
     1
102
RTVSPost2010PropOp29
 70
     1
102
RTVSPost2010Prop30
280
     1
102
RTVSPost2010PropOp30
 70
     1
102
RTVSPost2010Prop31
280
     0
102
RTVSPost2010PropOp31
 70
     1
102
RTVSPost2010Prop32
280
     0
102
RTVSPost2010PropOp32
 70
     1
102
RTVSPost2010Prop33
280
     0
102
RTVSPost2010PropOp33
 70
     1
102
RTVSPost2010Prop34
280
     0
102
RTVSPost2010PropOp34
 70
     1
102
RTVSPost2010Prop35
280
     0
102
RTVSPost2010PropOp35
 70
     1
102
RTVSPost2010Prop36
280
     0
102
RTVSPost2010PropOp36
 70
     1
102
RTVSPost2010Prop37
 90
       50
102
RTVSPost2010PropOp37
 70
     1
102
RTVSPost2010Prop38
140
0.0
102
RTVSPost2010PropOp38
 70
     1
102
RTVSPost2010Prop39
140
1.0
102
RTVSPost2010PropOp39
 70
     1
102
RTVSPost2010Prop40
 90
        0
102
RTVSPost2010PropOp40
 70
     1
102
RTVSPost2010Prop41ColorIndex
 90
       18
102
RTVSPost2010Prop41ColorRGB
 90
        0
102
RTVSPost2010PropOp41
 70
     1
102
RTVSPost2010Prop42
 90
       50
102
RTVSPost2010PropOp42
 70
     1
102
RTVSPost2010Prop43
 90
        3
102
RTVSPost2010PropOp43
 70
     1
102
RTVSPost2010Prop44ColorIndex
 90
        5
102
RTVSPost2010Prop44ColorRGB
 90
      255
102
RTVSPost2010PropOp44
 70
     1
102
RTVSPost2010Prop45
280
     0
102
RTVSPost2010PropOp45
 70
     1
102
RTVSPost2010Prop46
 90
       50
102
RTVSPost2010PropOp46
 70
     1
102
RTVSPost2010Prop47
 90
       50
102
RTVSPost2010PropOp47
 70
     1
102
RTVSPost2010Prop48
 90
       50
102
RTVSPost2010PropOp48
 70
     1
102
RTVSPost2010Prop49
280
     0
102
RTVSPost2010PropOp49
 70
     1
102
RTVSPost2010Prop50
 90
       50
102
RTVSPost2010PropOp50
 70
     1
102
RTVSPost2010Prop51ColorIndex
 90
      256
102
RTVSPost2010Prop51ColorRGB
 90
-16777216
102
RTVSPost2010PropOp51
 70
     0
102
RTVSPost2010Prop52
140
1.0
102
RTVSPost2010PropOp52
 70
     0
102
RTVSPost2010Prop53
 90
        2
102
RTVSPost2010PropOp53
 70
     1
102
RTVSPost2010Prop54
  1
strokes_ogs.tif
102
RTVSPost2010PropOp54
 70
     1
102
RTVSPost2010Prop55
280
     0
102
RTVSPost2010PropOp55
 70
     1
102
RTVSPost2010Prop56
140
1.0
102
RTVSPost2010PropOp56
 70
     1
102
RTVSPost2010Prop57
140
1.0
102
RTVSPost2010PropOp57
 70
     1
  0
XRECORD
  5
151
102
{ACAD_REACTORS
330
150
102
}
330
150
100
AcDbXrecord
280
     1
102
RTVSPropertyOp0
 70
     1
102
RTVSPropertyOp1
 70
     1
102
RTVSPropertyOp2
 70
     1
102
RTVSPropertyOp3
 70
     1
102
RTVSPropertyOp4
 70
     1
102
RTVSPropertyOp5
 70
     1
102
RTVSPropertyOp6
 70
     1
102
RTVSPropertyOp7
 70
     1
102
RTVSPropertyOp8
 70
     1
102
RTVSPropertyOp9
 70
     1
102
RTVSPropertyOp10
 70
     1
102
RTVSPropertyOp11
 70
     1
102
RTVSPropertyOp12
 70
     1
102
RTVSPropertyOp13
 70
     1
102
RTVSPropertyOp14
 70
     1
102
RTVSPropertyOp15
 70
     1
102
RTVSPropertyOp16
 70
     1
102
RTVSPropertyOp17
 70
     1
102
RTVSPropertyOp18
 70
     1
102
RTVSPropertyOp19
 70
     1
102
RTVSPropertyOp20
 70
     1
102
RTVSPropertyOp21
 70
     1
102
RTVSPropertyOp22
 70
     1
102
RTVSPropertyOp23
 70
     1
102
RTVSPropertyOp24
 70
     1
102
RTVSPropertyOp25
 70
     1
102
RTVSPropertyOp26
 70
     1
102
RTVSPropertyOp27
 70
     1
102
RTVSPropertyOp28
 70
     1
102
RTVSPropertyOp29
 70
     1
102
RTVSPropertyOp30
 70
     1
102
RTVSPropertyOp31
 70
     1
102
RTVSPropertyOp32
 70
     1
102
RTVSPropertyOp33
 70
     1
102
RTVSPropertyOp34
 70
     1
102
RTVSPropertyOp35
 70
     1
102
RTVSPropertyOp36
 70
     1
102
RTVSPropertyOp37
 70
     1
102
RTVSPropertyOp38
 70
     1
102
RTVSPropertyOp39
 70
     1
102
RTVSPropertyOp40
 70
     1
102
RTVSPropertyOp41
 70
     1
102
RTVSPropertyOp42
 70
     1
102
RTVSPropertyOp43
 70
     1
102
RTVSPropertyOp44
 70
     1
102
RTVSPropertyOp45
 70
     1
102
RTVSPropertyOp46
 70
     1
102
RTVSPropertyOp47
 70
     1
102
RTVSPropertyOp48
 70
     1
102
RTVSPropertyOp49
 70
     1
102
RTVSPropertyOp50
 70
     1
102
RTVSPropertyOp51
 70
     0
102
RTVSPropertyOp52
 70
     0
102
RTVSPropertyOp53
 70
     1
102
RTVSPropertyOp54
 70
     1
102
RTVSPropertyOp55
 70
     1
102
RTVSPropertyOp56
 70
     1
102
RTVSPropertyOp57
 70
     1
102
RTVSPost2010Prop28
280
     0
102
RTVSPost2010PropOp28
 70
     1
102
RTVSPost2010Prop29
280
     1
102
RTVSPost2010PropOp29
 70
     1
102
RTVSPost2010Prop30
280
     1
102
RTVSPost2010PropOp30
 70
     1
102
RTVSPost2010Prop31
280
     0
102
RTVSPost2010PropOp31
 70
     1
102
RTVSPost2010Prop32
280
     0
102
RTVSPost2010PropOp32
 70
     1
102
RTVSPost2010Prop33
280
     0
102
RTVSPost2010PropOp33
 70
     1
102
RTVSPost2010Prop34
280
     0
102
RTVSPost2010PropOp34
 70
     1
102
RTVSPost2010Prop35
280
     0
102
RTVSPost2010PropOp35
 70
     1
102
RTVSPost2010Prop36
280
     0
102
RTVSPost2010PropOp36
 70
     1
102
RTVSPost2010Prop37
 90
       50
102
RTVSPost2010PropOp37
 70
     1
102
RTVSPost2010Prop38
140
0.0
102
RTVSPost2010PropOp38
 70
     1
102
RTVSPost2010Prop39
140
1.0
102
RTVSPost2010PropOp39
 70
     1
102
RTVSPost2010Prop40
 90
        0
102
RTVSPost2010PropOp40
 70
     1
102
RTVSPost2010Prop41ColorIndex
 90
       18
102
RTVSPost2010Prop41ColorRGB
 90
        0
102
RTVSPost2010PropOp41
 70
     1
102
RTVSPost2010Prop42
 90
       50
102
RTVSPost2010PropOp42
 70
     1
102
RTVSPost2010Prop43
 90
        3
102
RTVSPost2010PropOp43
 70
     1
102
RTVSPost2010Prop44ColorIndex
 90
        5
102
RTVSPost2010Prop44ColorRGB
 90
      255
102
RTVSPost2010PropOp44
 70
     1
102
RTVSPost2010Prop45
280
     0
102
RTVSPost2010PropOp45
 70
     1
102
RTVSPost2010Prop46
 90
       50
102
RTVSPost2010PropOp46
 70
     1
102
RTVSPost2010Prop47
 90
       50
102
RTVSPost2010PropOp47
 70
     1
102
RTVSPost2010Prop48
 90
       50
102
RTVSPost2010PropOp48
 70
     1
102
RTVSPost2010Prop49
280
     0
102
RTVSPost2010PropOp49
 70
     1
102
RTVSPost2010Prop50
 90
       50
102
RTVSPost2010PropOp50
 70
     1
102
RTVSPost2010Prop51ColorIndex
 90
      256
102
RTVSPost2010Prop51ColorRGB
 90
-16777216
102
RTVSPost2010PropOp51
 70
     0
102
RTVSPost2010Prop52
140
1.0
102
RTVSPost2010PropOp52
 70
     0
102
RTVSPost2010Prop53
 90
        2
102
RTVSPost2010PropOp53
 70
     1
102
RTVSPost2010Prop54
  1
strokes_ogs.tif
102
RTVSPost2010PropOp54
 70
     1
102
RTVSPost2010Prop55
280
     0
102
RTVSPost2010PropOp55
 70
     1
102
RTVSPost2010Prop56
140
1.0
102
RTVSPost2010PropOp56
 70
     1
102
RTVSPost2010Prop57
140
1.0
102
RTVSPost2010PropOp57
 70
     1
  0
XRECORD
  5
171
102
{ACAD_REACTORS
330
170
102
}
330
170
100
AcDbXrecord
280
     1
102
RTVSPropertyOp0
 70
     1
102
RTVSPropertyOp1
 70
     1
102
RTVSPropertyOp2
 70
     1
102
RTVSPropertyOp3
 70
     1
102
RTVSPropertyOp4
 70
     1
102
RTVSPropertyOp5
 70
     1
102
RTVSPropertyOp6
 70
     1
102
RTVSPropertyOp7
 70
     1
102
RTVSPropertyOp8
 70
     1
102
RTVSPropertyOp9
 70
     1
102
RTVSPropertyOp10
 70
     1
102
RTVSPropertyOp11
 70
     1
102
RTVSPropertyOp12
 70
     1
102
RTVSPropertyOp13
 70
     1
102
RTVSPropertyOp14
 70
     1
102
RTVSPropertyOp15
 70
     1
102
RTVSPropertyOp16
 70
     1
102
RTVSPropertyOp17
 70
     1
102
RTVSPropertyOp18
 70
     1
102
RTVSPropertyOp19
 70
     1
102
RTVSPropertyOp20
 70
     1
102
RTVSPropertyOp21
 70
     1
102
RTVSPropertyOp22
 70
     1
102
RTVSPropertyOp23
 70
     1
102
RTVSPropertyOp24
 70
     1
102
RTVSPropertyOp25
 70
     1
102
RTVSPropertyOp26
 70
     1
102
RTVSPropertyOp27
 70
     1
102
RTVSPropertyOp28
 70
     1
102
RTVSPropertyOp29
 70
     1
102
RTVSPropertyOp30
 70
     1
102
RTVSPropertyOp31
 70
     1
102
RTVSPropertyOp32
 70
     1
102
RTVSPropertyOp33
 70
     1
102
RTVSPropertyOp34
 70
     1
102
RTVSPropertyOp35
 70
     1
102
RTVSPropertyOp36
 70
     1
102
RTVSPropertyOp37
 70
     1
102
RTVSPropertyOp38
 70
     1
102
RTVSPropertyOp39
 70
     1
102
RTVSPropertyOp40
 70
     1
102
RTVSPropertyOp41
 70
     1
102
RTVSPropertyOp42
 70
     1
102
RTVSPropertyOp43
 70
     1
102
RTVSPropertyOp44
 70
     1
102
RTVSPropertyOp45
 70
     1
102
RTVSPropertyOp46
 70
     1
102
RTVSPropertyOp47
 70
     1
102
RTVSPropertyOp48
 70
     1
102
RTVSPropertyOp49
 70
     1
102
RTVSPropertyOp50
 70
     1
102
RTVSPropertyOp51
 70
     0
102
RTVSPropertyOp52
 70
     0
102
RTVSPropertyOp53
 70
     1
102
RTVSPropertyOp54
 70
     1
102
RTVSPropertyOp55
 70
     1
102
RTVSPropertyOp56
 70
     1
102
RTVSPropertyOp57
 70
     1
102
RTVSPost2010Prop28
280
     0
102
RTVSPost2010PropOp28
 70
     1
102
RTVSPost2010Prop29
280
     1
102
RTVSPost2010PropOp29
 70
     1
102
RTVSPost2010Prop30
280
     1
102
RTVSPost2010PropOp30
 70
     1
102
RTVSPost2010Prop31
280
     0
102
RTVSPost2010PropOp31
 70
     1
102
RTVSPost2010Prop32
280
     0
102
RTVSPost2010PropOp32
 70
     1
102
RTVSPost2010Prop33
280
     0
102
RTVSPost2010PropOp33
 70
     1
102
RTVSPost2010Prop34
280
     0
102
RTVSPost2010PropOp34
 70
     1
102
RTVSPost2010Prop35
280
     0
102
RTVSPost2010PropOp35
 70
     1
102
RTVSPost2010Prop36
280
     0
102
RTVSPost2010PropOp36
 70
     1
102
RTVSPost2010Prop37
 90
       50
102
RTVSPost2010PropOp37
 70
     1
102
RTVSPost2010Prop38
140
0.0
102
RTVSPost2010PropOp38
 70
     1
102
RTVSPost2010Prop39
140
1.0
102
RTVSPost2010PropOp39
 70
     1
102
RTVSPost2010Prop40
 90
        0
102
RTVSPost2010PropOp40
 70
     1
102
RTVSPost2010Prop41ColorIndex
 90
       18
102
RTVSPost2010Prop41ColorRGB
 90
        0
102
RTVSPost2010PropOp41
 70
     1
102
RTVSPost2010Prop42
 90
       50
102
RTVSPost2010PropOp42
 70
     1
102
RTVSPost2010Prop43
 90
        3
102
RTVSPost2010PropOp43
 70
     1
102
RTVSPost2010Prop44ColorIndex
 90
        5
102
RTVSPost2010Prop44ColorRGB
 90
      255
102
RTVSPost2010PropOp44
 70
     1
102
RTVSPost2010Prop45
280
     0
102
RTVSPost2010PropOp45
 70
     1
102
RTVSPost2010Prop46
 90
       50
102
RTVSPost2010PropOp46
 70
     1
102
RTVSPost2010Prop47
 90
       50
102
RTVSPost2010PropOp47
 70
     1
102
RTVSPost2010Prop48
 90
       50
102
RTVSPost2010PropOp48
 70
     1
102
RTVSPost2010Prop49
280
     0
102
RTVSPost2010PropOp49
 70
     1
102
RTVSPost2010Prop50
 90
       50
102
RTVSPost2010PropOp50
 70
     1
102
RTVSPost2010Prop51ColorIndex
 90
      256
102
RTVSPost2010Prop51ColorRGB
 90
-16777216
102
RTVSPost2010PropOp51
 70
     0
102
RTVSPost2010Prop52
140
1.0
102
RTVSPost2010PropOp52
 70
     0
102
RTVSPost2010Prop53
 90
        2
102
RTVSPost2010PropOp53
 70
     1
102
RTVSPost2010Prop54
  1
strokes_ogs.tif
102
RTVSPost2010PropOp54
 70
     1
102
RTVSPost2010Prop55
280
     0
102
RTVSPost2010PropOp55
 70
     1
102
RTVSPost2010Prop56
140
1.0
102
RTVSPost2010PropOp56
 70
     1
102
RTVSPost2010Prop57
140
1.0
102
RTVSPost2010PropOp57
 70
     1
  0
ENDSEC
  0
EOF
