  0
SECTION
  2
HEADER
  9
$ACADVER
  1
AC1018
  9
$ACADMAINTVER
 70
     0
  9
$DWGCODEPAGE
  3
ANSI_936
  9
$INSBASE
 10
0.0
 20
0.0
 30
0.0
  9
$EXTMIN
 10
254.2515847424653
 20
492.0963224432704
 30
0.0
  9
$EXTMAX
 10
301.2562872674984
 20
781.076105516869
 30
0.0
  9
$LIMMIN
 10
0.0
 20
0.0
  9
$LIMMAX
 10
12.0
 20
9.0
  9
$ORTHOMODE
 70
     0
  9
$REGENMODE
 70
     1
  9
$FILLMODE
 70
     1
  9
$QTEXTMODE
 70
     0
  9
$MIRRTEXT
 70
     1
  9
$LTSCALE
 40
1.0
  9
$ATTMODE
 70
     1
  9
$TEXTSIZE
 40
0.2
  9
$TRACEWID
 40
0.05
  9
$TEXTSTYLE
  7
Standard
  9
$CLAYER
  8
0
  9
$CELTYPE
  6
ByLayer
  9
$CECOLOR
 62
   256
  9
$CELTSCALE
 40
1.0
  9
$DISPSILH
 70
     0
  9
$DIMSCALE
 40
1.0
  9
$DIMASZ
 40
0.18
  9
$DIMEXO
 40
0.0625
  9
$DIMDLI
 40
0.38
  9
$DIMRND
 40
0.0
  9
$DIMDLE
 40
0.0
  9
$DIMEXE
 40
0.18
  9
$DIMTP
 40
0.0
  9
$DIMTM
 40
0.0
  9
$DIMTXT
 40
0.18
  9
$DIMCEN
 40
0.09
  9
$DIMTSZ
 40
0.0
  9
$DIMTOL
 70
     0
  9
$DIMLIM
 70
     0
  9
$DIMTIH
 70
     1
  9
$DIMTOH
 70
     1
  9
$DIMSE1
 70
     0
  9
$DIMSE2
 70
     0
  9
$DIMTAD
 70
     0
  9
$DIMZIN
 70
     0
  9
$DIMBLK
  1

  9
$DIMASO
 70
     1
  9
$DIMSHO
 70
     1
  9
$DIMPOST
  1

  9
$DIMAPOST
  1

  9
$DIMALT
 70
     0
  9
$DIMALTD
 70
     2
  9
$DIMALTF
 40
25.4
  9
$DIMLFAC
 40
1.0
  9
$DIMTOFL
 70
     0
  9
$DIMTVP
 40
0.0
  9
$DIMTIX
 70
     0
  9
$DIMSOXD
 70
     0
  9
$DIMSAH
 70
     0
  9
$DIMBLK1
  1

  9
$DIMBLK2
  1

  9
$DIMSTYLE
  2
Standard
  9
$DIMCLRD
 70
     0
  9
$DIMCLRE
 70
     0
  9
$DIMCLRT
 70
     0
  9
$DIMTFAC
 40
1.0
  9
$DIMGAP
 40
0.09
  9
$DIMJUST
 70
     0
  9
$DIMSD1
 70
     0
  9
$DIMSD2
 70
     0
  9
$DIMTOLJ
 70
     1
  9
$DIMTZIN
 70
     0
  9
$DIMALTZ
 70
     0
  9
$DIMALTTZ
 70
     0
  9
$DIMUPT
 70
     0
  9
$DIMDEC
 70
     4
  9
$DIMTDEC
 70
     4
  9
$DIMALTU
 70
     2
  9
$DIMALTTD
 70
     2
  9
$DIMTXSTY
  7
Standard
  9
$DIMAUNIT
 70
     0
  9
$DIMADEC
 70
     0
  9
$DIMALTRND
 40
0.0
  9
$DIMAZIN
 70
     0
  9
$DIMDSEP
 70
    46
  9
$DIMATFIT
 70
     3
  9
$DIMFRAC
 70
     0
  9
$DIMLDRBLK
  1

  9
$DIMLUNIT
 70
     2
  9
$DIMLWD
 70
    -2
  9
$DIMLWE
 70
    -2
  9
$DIMTMOVE
 70
     2
  9
$LUNITS
 70
     2
  9
$LUPREC
 70
     3
  9
$SKETCHINC
 40
0.1
  9
$FILLETRAD
 40
0.5
  9
$AUNITS
 70
     0
  9
$AUPREC
 70
     0
  9
$MENU
  1
.
  9
$ELEVATION
 40
0.0
  9
$PELEVATION
 40
0.0
  9
$THICKNESS
 40
0.0
  9
$LIMCHECK
 70
     0
  9
$CHAMFERA
 40
0.5
  9
$CHAMFERB
 40
0.5
  9
$CHAMFERC
 40
1.0
  9
$CHAMFERD
 40
0.0
  9
$SKPOLY
 70
     0
  9
$TDCREATE
 40
2456850.466251678
  9
$TDUCREATE
 40
2456850.132918345
  9
$TDUPDATE
 40
2456850.466262199
  9
$TDUUPDATE
 40
2456850.132928866
  9
$TDINDWG
 40
0.0000000116
  9
$TDUSRTIMER
 40
0.0000000116
  9
$USRTIMER
 70
     1
  9
$ANGBASE
 50
0.0
  9
$ANGDIR
 70
     0
  9
$PDMODE
 70
     0
  9
$PDSIZE
 40
0.0
  9
$PLINEWID
 40
0.0
  9
$SPLFRAME
 70
     0
  9
$SPLINETYPE
 70
     6
  9
$SPLINESEGS
 70
     8
  9
$HANDSEED
  5
73A
  9
$SURFTAB1
 70
     6
  9
$SURFTAB2
 70
     6
  9
$SURFTYPE
 70
     6
  9
$SURFU
 70
     6
  9
$SURFV
 70
     6
  9
$UCSBASE
  2

  9
$UCSNAME
  2

  9
$UCSORG
 10
0.0
 20
0.0
 30
0.0
  9
$UCSXDIR
 10
1.0
 20
0.0
 30
0.0
  9
$UCSYDIR
 10
0.0
 20
1.0
 30
0.0
  9
$UCSORTHOREF
  2

  9
$UCSORTHOVIEW
 70
     0
  9
$UCSORGTOP
 10
0.0
 20
0.0
 30
0.0
  9
$UCSORGBOTTOM
 10
0.0
 20
0.0
 30
0.0
  9
$UCSORGLEFT
 10
0.0
 20
0.0
 30
0.0
  9
$UCSORGRIGHT
 10
0.0
 20
0.0
 30
0.0
  9
$UCSORGFRONT
 10
0.0
 20
0.0
 30
0.0
  9
$UCSORGBACK
 10
0.0
 20
0.0
 30
0.0
  9
$PUCSBASE
  2

  9
$PUCSNAME
  2

  9
$PUCSORG
 10
0.0
 20
0.0
 30
0.0
  9
$PUCSXDIR
 10
1.0
 20
0.0
 30
0.0
  9
$PUCSYDIR
 10
0.0
 20
1.0
 30
0.0
  9
$PUCSORTHOREF
  2

  9
$PUCSORTHOVIEW
 70
     0
  9
$PUCSORGTOP
 10
0.0
 20
0.0
 30
0.0
  9
$PUCSORGBOTTOM
 10
0.0
 20
0.0
 30
0.0
  9
$PUCSORGLEFT
 10
0.0
 20
0.0
 30
0.0
  9
$PUCSORGRIGHT
 10
0.0
 20
0.0
 30
0.0
  9
$PUCSORGFRONT
 10
0.0
 20
0.0
 30
0.0
  9
$PUCSORGBACK
 10
0.0
 20
0.0
 30
0.0
  9
$USERI1
 70
     0
  9
$USERI2
 70
     0
  9
$USERI3
 70
     0
  9
$USERI4
 70
     0
  9
$USERI5
 70
     0
  9
$USERR1
 40
0.0
  9
$USERR2
 40
0.0
  9
$USERR3
 40
0.0
  9
$USERR4
 40
0.0
  9
$USERR5
 40
0.0
  9
$WORLDVIEW
 70
     1
  9
$SHADEDGE
 70
     3
  9
$SHADEDIF
 70
    70
  9
$TILEMODE
 70
     1
  9
$MAXACTVP
 70
    64
  9
$PINSBASE
 10
0.0
 20
0.0
 30
0.0
  9
$PLIMCHECK
 70
     0
  9
$PEXTMIN
 10
1.000000000000000E+20
 20
1.000000000000000E+20
 30
1.000000000000000E+20
  9
$PEXTMAX
 10
-1.000000000000000E+20
 20
-1.000000000000000E+20
 30
-1.000000000000000E+20
  9
$PLIMMIN
 10
0.0
 20
0.0
  9
$PLIMMAX
 10
12.0
 20
9.0
  9
$UNITMODE
 70
     0
  9
$VISRETAIN
 70
     1
  9
$PLINEGEN
 70
     0
  9
$PSLTSCALE
 70
     1
  9
$TREEDEPTH
 70
  3020
  9
$CMLSTYLE
  2
Standard
  9
$CMLJUST
 70
     0
  9
$CMLSCALE
 40
1.0
  9
$PROXYGRAPHICS
 70
     1
  9
$MEASUREMENT
 70
     0
  9
$CELWEIGHT
370
    -1
  9
$ENDCAPS
280
     0
  9
$JOINSTYLE
280
     0
  9
$LWDISPLAY
290
     0
  9
$INSUNITS
 70
     4
  9
$HYPERLINKBASE
  1

  9
$STYLESHEET
  1

  9
$XEDIT
290
     1
  9
$CEPSNTYPE
380
     0
  9
$PSTYLEMODE
290
     1
  9
$FINGERPRINTGUID
  2
{ACFCDC33-2BDB-43AD-A402-492997AE8207}
  9
$VERSIONGUID
  2
{FAEB1C32-E019-11D5-929B-00C0DF256EC4}
  9
$EXTNAMES
290
     1
  9
$PSVPSCALE
 40
0.0
  9
$OLESTARTUP
290
     0
  9
$SORTENTS
280
   127
  9
$INDEXCTL
280
     0
  9
$HIDETEXT
280
     1
  9
$XCLIPFRAME
290
     0
  9
$HALOGAP
280
     0
  9
$OBSCOLOR
 70
   257
  9
$OBSLTYPE
280
     0
  9
$INTERSECTIONDISPLAY
280
     0
  9
$INTERSECTIONCOLOR
 70
   257
  9
$DIMASSOC
280
     2
  9
$PROJECTNAME
  1

  0
ENDSEC
  0
SECTION
  2
CLASSES
  0
CLASS
  1
ACDBDICTIONARYWDFLT
  2
AcDbDictionaryWithDefault
  3
ObjectDBX Classes
 90
        0
 91
        4
280
     0
281
     0
  0
CLASS
  1
VISUALSTYLE
  2
AcDbVisualStyle
  3
ObjectDBX Classes
 90
     4095
 91
        4
280
     0
281
     0
  0
CLASS
  1
MATERIAL
  2
AcDbMaterial
  3
ObjectDBX Classes
 90
     1153
 91
        4
280
     0
281
     0
  0
CLASS
  1
SCALE
  2
AcDbScale
  3
ObjectDBX Classes
 90
     1153
 91
        4
280
     0
281
     0
  0
CLASS
  1
SUN
  2
AcDbSun
  3
SCENEOE
 90
     1153
 91
        4
280
     0
281
     0
  0
CLASS
  1
DICTIONARYVAR
  2
AcDbDictionaryVar
  3
ObjectDBX Classes
 90
        0
 91
        4
280
     0
281
     0
  0
ENDSEC
  0
SECTION
  2
TABLES
  0
TABLE
  2
VPORT
  5
8
330
0
100
AcDbSymbolTable
 70
     1
  0
VPORT
  5
29
330
8
100
AcDbSymbolTableRecord
100
AcDbViewportTableRecord
  2
*Active
 70
     0
 10
0.0
 20
0.0
 11
1.0
 21
1.0
 12
277.7539360049818
 22
636.5862139800697
 13
0.0
 23
0.0
 14
0.5
 24
0.5
 15
0.5
 25
0.5
 16
0.0
 26
0.0
 36
1.0
 17
0.0
 27
0.0
 37
0.0
 40
294.7593787350706
 41
0.1626411353074916
 42
50.0
 43
0.0
 44
0.0
 50
0.0
 51
0.0
 71
     0
 72
   100
 73
     1
 74
     3
 75
     0
 76
     0
 77
     0
 78
     0
281
     0
 65
     1
110
0.0
120
0.0
130
0.0
111
1.0
121
0.0
131
0.0
112
0.0
122
1.0
132
0.0
 79
     0
146
0.0
  0
ENDTAB
  0
TABLE
  2
LTYPE
  5
5
330
0
100
AcDbSymbolTable
 70
     1
  0
LTYPE
  5
14
330
5
100
AcDbSymbolTableRecord
100
AcDbLinetypeTableRecord
  2
ByBlock
 70
     0
  3

 72
    65
 73
     0
 40
0.0
  0
LTYPE
  5
15
330
5
100
AcDbSymbolTableRecord
100
AcDbLinetypeTableRecord
  2
ByLayer
 70
     0
  3

 72
    65
 73
     0
 40
0.0
  0
LTYPE
  5
16
330
5
100
AcDbSymbolTableRecord
100
AcDbLinetypeTableRecord
  2
Continuous
 70
     0
  3
Solid line
 72
    65
 73
     0
 40
0.0
  0
ENDTAB
  0
TABLE
  2
LAYER
  5
2
330
0
100
AcDbSymbolTable
 70
     2
  0
LAYER
  5
10
330
2
100
AcDbSymbolTableRecord
100
AcDbLayerTableRecord
  2
0
 70
     0
 62
     7
  6
Continuous
370
    -3
390
F
  0
LAYER
  5
62
330
2
100
AcDbSymbolTableRecord
100
AcDbLayerTableRecord
  2
Make2D$可见线$普通线
 70
     0
 62
    18
420
        0
  6
Continuous
370
    -3
390
F
  0
ENDTAB
  0
TABLE
  2
STYLE
  5
3
330
0
100
AcDbSymbolTable
 70
     1
  0
STYLE
  5
11
330
3
100
AcDbSymbolTableRecord
100
AcDbTextStyleTableRecord
  2
Standard
 70
     0
 40
0.0
 41
1.0
 50
0.0
 71
     0
 42
0.2
  3
txt
  4

  0
ENDTAB
  0
TABLE
  2
VIEW
  5
6
330
0
100
AcDbSymbolTable
 70
     0
  0
ENDTAB
  0
TABLE
  2
UCS
  5
7
330
0
100
AcDbSymbolTable
 70
     0
  0
ENDTAB
  0
TABLE
  2
APPID
  5
9
330
0
100
AcDbSymbolTable
 70
     1
  0
APPID
  5
12
330
9
100
AcDbSymbolTableRecord
100
AcDbRegAppTableRecord
  2
ACAD
 70
     0
  0
ENDTAB
  0
TABLE
  2
DIMSTYLE
  5
A
330
0
100
AcDbSymbolTable
 70
     1
100
AcDbDimStyleTable
  0
DIMSTYLE
105
27
330
A
100
AcDbSymbolTableRecord
100
AcDbDimStyleTableRecord
  2
Standard
 70
     0
178
     0
340
11
  0
ENDTAB
  0
TABLE
  2
BLOCK_RECORD
  5
1
330
0
100
AcDbSymbolTable
 70
     1
  0
BLOCK_RECORD
  5
1F
330
1
100
AcDbSymbolTableRecord
100
AcDbBlockTableRecord
  2
*Model_Space
340
22
  0
BLOCK_RECORD
  5
1B
330
1
100
AcDbSymbolTableRecord
100
AcDbBlockTableRecord
  2
*Paper_Space
340
1E
  0
BLOCK_RECORD
  5
23
330
1
100
AcDbSymbolTableRecord
100
AcDbBlockTableRecord
  2
*Paper_Space0
340
26
  0
ENDTAB
  0
ENDSEC
  0
SECTION
  2
BLOCKS
  0
BLOCK
  5
20
330
1F
100
AcDbEntity
  8
0
100
AcDbBlockBegin
  2
*Model_Space
 70
     0
 10
0.0
 20
0.0
 30
0.0
  3
*Model_Space
  1
*Model_Space
  0
ENDBLK
  5
21
330
1F
100
AcDbEntity
  8
0
100
AcDbBlockEnd
  0
BLOCK
  5
1C
330
1B
100
AcDbEntity
 67
     1
  8
0
100
AcDbBlockBegin
  2
*Paper_Space
 70
     0
 10
0.0
 20
0.0
 30
0.0
  3
*Paper_Space
  1
*Paper_Space
  0
ENDBLK
  5
1D
330
1B
100
AcDbEntity
 67
     1
  8
0
100
AcDbBlockEnd
  0
BLOCK
  5
24
330
23
100
AcDbEntity
  8
0
100
AcDbBlockBegin
  2
*Paper_Space0
 70
     0
 10
0.0
 20
0.0
 30
0.0
  3
*Paper_Space0
  1
*Paper_Space0
  0
ENDBLK
  5
25
330
23
100
AcDbEntity
  8
0
100
AcDbBlockEnd
  0
ENDSEC
  0
SECTION
  2
ENTITIES
  0
ARC
  5
63
330
1F
100
AcDbEntity
  8
Make2D$可见线$普通线
100
AcDbCircle
 10
280.3842703954243
 20
691.8005102831643
 30
0.0
 40
10.9260463390019
100
AcDbArc
 50
23.22137997071099
 51
28.15784824879104
  0
ARC
  5
64
330
1F
100
AcDbEntity
  8
Make2D$可见线$普通线
100
AcDbCircle
 10
263.3754296346247
 20
699.6260100773744
 30
0.0
 40
1.184388825417614
100
AcDbArc
 50
326.7262802403678
 51
341.650877381577
  0
LINE
  5
65
330
1F
100
AcDbEntity
  8
Make2D$可见线$普通线
100
AcDbLine
 10
290.3686978713974
 20
683.9059285547713
 30
0.0
 11
290.7983881089347
 21
684.4732668596912
 31
0.0
  0
ARC
  5
66
330
1F
100
AcDbEntity
  8
Make2D$可见线$普通线
100
AcDbCircle
 10
277.7539360049938
 20
722.6555816195714
 30
0.0
 40
15.4999999999679
100
AcDbArc
 50
0.5611491111140726
 51
7.874555684754031
  0
POLYLINE
  5
67
330
1F
100
AcDbEntity
  8
Make2D$可见线$普通线
100
AcDb2dPolyline
 66
     1
 10
0.0
 20
0.0
 30
0.0
  0
VERTEX
  5
68
330
67
100
AcDbEntity
  8
Make2D$可见线$普通线
100
AcDbVertex
100
AcDb2dVertex
 10
261.9983277125713
 20
724.7812283847533
 30
0.0
 42
-0.1399646807095597
  0
VERTEX
  5
69
330
67
100
AcDbEntity
  8
Make2D$可见线$普通线
100
AcDbVertex
100
AcDb2dVertex
 10
261.4389177981818
 20
724.8909102583718
 30
0.0
 42
-0.2275530499157892
  0
VERTEX
  5
6A
330
67
100
AcDbEntity
  8
Make2D$可见线$普通线
100
AcDbVertex
100
AcDb2dVertex
 10
261.2528974534685
 20
725.2782353127302
 30
0.0
 42
0.0009266677469627
  0
VERTEX
  5
6B
330
67
100
AcDbEntity
  8
Make2D$可见线$普通线
100
AcDbVertex
100
AcDb2dVertex
 10
294.2528841280068
 20
725.2781352354996
 30
0.0
 42
-0.4146176198671286
  0
VERTEX
  5
6C
330
67
100
AcDbEntity
  8
Make2D$可见线$普通线
100
AcDbVertex
100
AcDb2dVertex
 10
293.7538913908
 20
724.7780401755276
 30
0.0
  0
SEQEND
  5
6D
330
67
100
AcDbEntity
  8
Make2D$可见线$普通线
  0
POLYLINE
  5
6E
330
1F
100
AcDbEntity
  8
Make2D$可见线$普通线
100
AcDb2dPolyline
 66
     1
 10
0.0
 20
0.0
 30
0.0
  0
VERTEX
  5
6F
330
6E
100
AcDbEntity
  8
Make2D$可见线$普通线
100
AcDbVertex
100
AcDb2dVertex
 10
293.5266677468318
 20
724.7808392694661
 30
0.0
  0
VERTEX
  5
70
330
6E
100
AcDbEntity
  8
Make2D$可见线$普通线
100
AcDbVertex
100
AcDb2dVertex
 10
293.437537510449
 20
724.7792170404084
 30
0.0
  0
VERTEX
  5
71
330
6E
100
AcDbEntity
  8
Make2D$可见线$普通线
100
AcDbVertex
100
AcDb2dVertex
 10
293.2337532149497
 20
724.7788085553632
 30
0.0
  0
VERTEX
  5
72
330
6E
100
AcDbEntity
  8
Make2D$可见线$普通线
100
AcDbVertex
100
AcDb2dVertex
 10
293.0560696301256
 20
724.7785184955038
 30
0.0
  0
VERTEX
  5
73
330
6E
100
AcDbEntity
  8
Make2D$可见线$普通线
100
AcDbVertex
100
AcDb2dVertex
 10
292.8463993046998
 20
724.7782239557391
 30
0.0
  0
VERTEX
  5
74
330
6E
100
AcDbEntity
  8
Make2D$可见线$普通线
100
AcDbVertex
100
AcDb2dVertex
 10
292.5248465563041
 20
724.777838090478
 30
0.0
  0
VERTEX
  5
75
330
6E
100
AcDbEntity
  8
Make2D$可见线$普通线
100
AcDbVertex
100
AcDb2dVertex
 10
292.161615874625
 20
724.7774664833792
 30
0.0
  0
VERTEX
  5
76
330
6E
100
AcDbEntity
  8
Make2D$可见线$普通线
100
AcDbVertex
100
AcDb2dVertex
 10
291.7597093114574
 20
724.7771100081844
 30
0.0
  0
VERTEX
  5
77
330
6E
100
AcDbEntity
  8
Make2D$可见线$普通线
100
AcDbVertex
100
AcDb2dVertex
 10
291.320100016356
 20
724.776767872141
 30
0.0
  0
VERTEX
  5
78
330
6E
100
AcDbEntity
  8
Make2D$可见线$普通线
100
AcDbVertex
100
AcDb2dVertex
 10
291.0584785874216
 20
724.7765828795533
 30
0.0
  0
VERTEX
  5
79
330
6E
100
AcDbEntity
  8
Make2D$可见线$普通线
100
AcDbVertex
100
AcDb2dVertex
 10
290.3296370533234
 20
724.7761246618725
 30
0.0
  0
VERTEX
  5
7A
330
6E
100
AcDbEntity
  8
Make2D$可见线$普通线
100
AcDbVertex
100
AcDb2dVertex
 10
290.1217979754615
 20
724.7760068780492
 30
0.0
  0
VERTEX
  5
7B
330
6E
100
AcDbEntity
  8
Make2D$可见线$普通线
100
AcDbVertex
100
AcDb2dVertex
 10
289.197365058045
 20
724.7755379791338
 30
0.0
  0
VERTEX
  5
7C
330
6E
100
AcDbEntity
  8
Make2D$可见线$普通线
100
AcDbVertex
100
AcDb2dVertex
 10
289.0564979792771
 20
724.7754734072164
 30
0.0
  0
VERTEX
  5
7D
330
6E
100
AcDbEntity
  8
Make2D$可见线$普通线
100
AcDbVertex
100
AcDb2dVertex
 10
287.9440648003915
 20
724.7750161820086
 30
0.0
  0
VERTEX
  5
7E
330
6E
100
AcDbEntity
  8
Make2D$可见线$普通线
100
AcDbVertex
100
AcDb2dVertex
 10
287.2329184458236
 20
724.7747663461091
 30
0.0
  0
VERTEX
  5
7F
330
6E
100
AcDbEntity
  8
Make2D$可见线$普通线
100
AcDbVertex
100
AcDb2dVertex
 10
285.8611452768731
 20
724.7743612674547
 30
0.0
  0
VERTEX
  5
80
330
6E
100
AcDbEntity
  8
Make2D$可见线$普通线
100
AcDbVertex
100
AcDb2dVertex
 10
282.3890923747737
 20
724.7736923761006
 30
0.0
  0
VERTEX
  5
81
330
6E
100
AcDbEntity
  8
Make2D$可见线$普通线
100
AcDbVertex
100
AcDb2dVertex
 10
281.8375419485371
 20
724.7736256379881
 30
0.0
  0
VERTEX
  5
82
330
6E
100
AcDbEntity
  8
Make2D$可见线$普通线
100
AcDbVertex
100
AcDb2dVertex
 10
280.8722101594591
 20
724.7735321631586
 30
0.0
  0
VERTEX
  5
83
330
6E
100
AcDbEntity
  8
Make2D$可见线$普通线
100
AcDbVertex
100
AcDb2dVertex
 10
280.2174741159281
 20
724.7734851353359
 30
0.0
  0
VERTEX
  5
84
330
6E
100
AcDbEntity
  8
Make2D$可见线$普通线
100
AcDbVertex
100
AcDb2dVertex
 10
279.0388455830574
 20
724.7734328161021
 30
0.0
  0
VERTEX
  5
85
330
6E
100
AcDbEntity
  8
Make2D$可见线$普通线
100
AcDbVertex
100
AcDb2dVertex
 10
278.0414208677654
 20
724.7734203679952
 30
0.0
  0
VERTEX
  5
86
330
6E
100
AcDbEntity
  8
Make2D$可见线$普通线
100
AcDbVertex
100
AcDb2dVertex
 10
277.406203758689
 20
724.773427482218
 30
0.0
  0
VERTEX
  5
87
330
6E
100
AcDbEntity
  8
Make2D$可见线$普通线
100
AcDbVertex
100
AcDb2dVertex
 10
276.3906407375774
 20
724.7734631803844
 30
0.0
  0
VERTEX
  5
88
330
6E
100
AcDbEntity
  8
Make2D$可见线$普通线
100
AcDbVertex
100
AcDb2dVertex
 10
275.9161711201277
 20
724.7734901920753
 30
0.0
  0
VERTEX
  5
89
330
6E
100
AcDbEntity
  8
Make2D$可见线$普通线
100
AcDbVertex
100
AcDb2dVertex
 10
274.6109295726206
 20
724.7735990966389
 30
0.0
  0
VERTEX
  5
8A
330
6E
100
AcDbEntity
  8
Make2D$可见线$普通线
100
AcDbVertex
100
AcDb2dVertex
 10
274.0616451469432
 20
724.7736604572414
 30
0.0
  0
VERTEX
  5
8B
330
6E
100
AcDbEntity
  8
Make2D$可见线$普通线
100
AcDbVertex
100
AcDb2dVertex
 10
273.1307318358307
 20
724.7737862625002
 30
0.0
  0
VERTEX
  5
8C
330
6E
100
AcDbEntity
  8
Make2D$可见线$普通线
100
AcDbVertex
100
AcDb2dVertex
 10
269.6368731359408
 20
724.7745311877934
 30
0.0
  0
VERTEX
  5
8D
330
6E
100
AcDbEntity
  8
Make2D$可见线$普通线
100
AcDbVertex
100
AcDb2dVertex
 10
268.8485045301745
 20
724.7747689970422
 30
0.0
  0
VERTEX
  5
8E
330
6E
100
AcDbEntity
  8
Make2D$可见线$普通线
100
AcDbVertex
100
AcDb2dVertex
 10
268.0944234612551
 20
724.7750258760097
 30
0.0
  0
VERTEX
  5
8F
330
6E
100
AcDbEntity
  8
Make2D$可见线$普通线
100
AcDbVertex
100
AcDb2dVertex
 10
267.6131866323234
 20
724.7752065735394
 30
0.0
  0
VERTEX
  5
90
330
6E
100
AcDbEntity
  8
Make2D$可见线$普通线
100
AcDbVertex
100
AcDb2dVertex
 10
267.3744362151464
 20
724.7753015208511
 30
0.0
  0
VERTEX
  5
91
330
6E
100
AcDbEntity
  8
Make2D$可见线$普通线
100
AcDbVertex
100
AcDb2dVertex
 10
266.4390240773523
 20
724.7757115610536
 30
0.0
  0
VERTEX
  5
92
330
6E
100
AcDbEntity
  8
Make2D$可见线$普通线
100
AcDbVertex
100
AcDb2dVertex
 10
266.0446936649399
 20
724.7759049906875
 30
0.0
  0
VERTEX
  5
93
330
6E
100
AcDbEntity
  8
Make2D$可见线$普通线
100
AcDbVertex
100
AcDb2dVertex
 10
265.3438560879407
 20
724.7762851045886
 30
0.0
  0
VERTEX
  5
94
330
6E
100
AcDbEntity
  8
Make2D$可见线$普通线
100
AcDbVertex
100
AcDb2dVertex
 10
264.8773703535968
 20
724.7765687730705
 30
0.0
  0
VERTEX
  5
95
330
6E
100
AcDbEntity
  8
Make2D$可见线$普通线
100
AcDbVertex
100
AcDb2dVertex
 10
264.3582580677544
 20
724.7769203376874
 30
0.0
  0
VERTEX
  5
96
330
6E
100
AcDbEntity
  8
Make2D$可见线$普通线
100
AcDbVertex
100
AcDb2dVertex
 10
263.882476666339
 20
724.7772845041079
 30
0.0
  0
VERTEX
  5
97
330
6E
100
AcDbEntity
  8
Make2D$可见线$普通线
100
AcDbVertex
100
AcDb2dVertex
 10
263.5555883635838
 20
724.7775646488923
 30
0.0
  0
VERTEX
  5
98
330
6E
100
AcDbEntity
  8
Make2D$可见线$普通线
100
AcDbVertex
100
AcDb2dVertex
 10
263.4501561874159
 20
724.7776613772717
 30
0.0
  0
VERTEX
  5
99
330
6E
100
AcDbEntity
  8
Make2D$可见线$普通线
100
AcDbVertex
100
AcDb2dVertex
 10
262.8763064949322
 20
724.7782607801663
 30
0.0
  0
VERTEX
  5
9A
330
6E
100
AcDbEntity
  8
Make2D$可见线$普通线
100
AcDbVertex
100
AcDb2dVertex
 10
262.7198687331139
 20
724.7787385744092
 30
0.0
  0
SEQEND
  5
9B
330
6E
100
AcDbEntity
  8
Make2D$可见线$普通线
  0
POLYLINE
  5
9C
330
1F
100
AcDbEntity
  8
Make2D$可见线$普通线
100
AcDb2dPolyline
 66
     1
 10
0.0
 20
0.0
 30
0.0
  0
VERTEX
  5
9D
330
9C
100
AcDbEntity
  8
Make2D$可见线$普通线
100
AcDbVertex
100
AcDb2dVertex
 10
262.2546793826945
 20
722.8073846362167
 30
0.0
 42
-0.0352118216227441
  0
VERTEX
  5
9E
330
9C
100
AcDbEntity
  8
Make2D$可见线$普通线
100
AcDbVertex
100
AcDb2dVertex
 10
262.4132509977483
 20
724.7775520769152
 30
0.0
  0
VERTEX
  5
9F
330
9C
100
AcDbEntity
  8
Make2D$可见线$普通线
100
AcDbVertex
100
AcDb2dVertex
 10
262.1856873786658
 20
724.7803934256544
 30
0.0
  0
SEQEND
  5
A0
330
9C
100
AcDbEntity
  8
Make2D$可见线$普通线
  0
POLYLINE
  5
A1
330
1F
100
AcDbEntity
  8
Make2D$可见线$普通线
100
AcDb2dPolyline
 66
     1
 10
0.0
 20
0.0
 30
0.0
  0
VERTEX
  5
A2
330
A1
100
AcDbEntity
  8
Make2D$可见线$普通线
100
AcDbVertex
100
AcDb2dVertex
 10
277.7539132441811
 20
678.3802579839241
 30
0.0
  0
VERTEX
  5
A3
330
A1
100
AcDbEntity
  8
Make2D$可见线$普通线
100
AcDbVertex
100
AcDb2dVertex
 10
278.115561002811
 20
678.3842649996
 30
0.0
  0
VERTEX
  5
A4
330
A1
100
AcDbEntity
  8
Make2D$可见线$普通线
100
AcDbVertex
100
AcDb2dVertex
 10
278.477617229499
 20
678.3959779208494
 30
0.0
  0
VERTEX
  5
A5
330
A1
100
AcDbEntity
  8
Make2D$可见线$普通线
100
AcDbVertex
100
AcDb2dVertex
 10
278.839836192325
 20
678.415422985974
 30
0.0
  0
VERTEX
  5
A6
330
A1
100
AcDbEntity
  8
Make2D$可见线$普通线
100
AcDbVertex
100
AcDb2dVertex
 10
279.2019705911205
 20
678.4426159927513
 30
0.0
  0
VERTEX
  5
A7
330
A1
100
AcDbEntity
  8
Make2D$可见线$普通线
100
AcDbVertex
100
AcDb2dVertex
 10
279.5637721122695
 20
678.4775621968085
 30
0.0
  0
VERTEX
  5
A8
330
A1
100
AcDbEntity
  8
Make2D$可见线$普通线
100
AcDbVertex
100
AcDb2dVertex
 10
279.9249919907846
 20
678.5202562454276
 30
0.0
  0
VERTEX
  5
A9
330
A1
100
AcDbEntity
  8
Make2D$可见线$普通线
100
AcDbVertex
100
AcDb2dVertex
 10
280.2853815770142
 20
678.5706821473508
 30
0.0
  0
VERTEX
  5
AA
330
A1
100
AcDbEntity
  8
Make2D$可见线$普通线
100
AcDbVertex
100
AcDb2dVertex
 10
280.6446929052845
 20
678.628813278936
 30
0.0
  0
VERTEX
  5
AB
330
A1
100
AcDbEntity
  8
Make2D$可见线$普通线
100
AcDbVertex
100
AcDb2dVertex
 10
281.0026792617574
 20
678.6946124267772
 30
0.0
  0
VERTEX
  5
AC
330
A1
100
AcDbEntity
  8
Make2D$可见线$普通线
100
AcDbVertex
100
AcDb2dVertex
 10
281.359095748776
 20
678.768031866672
 30
0.0
  0
VERTEX
  5
AD
330
A1
100
AcDbEntity
  8
Make2D$可见线$普通线
100
AcDbVertex
100
AcDb2dVertex
 10
281.7136998429909
 20
678.8490134785875
 30
0.0
  0
VERTEX
  5
AE
330
A1
100
AcDbEntity
  8
Make2D$可见线$普通线
100
AcDbVertex
100
AcDb2dVertex
 10
282.0662519445959
 20
678.937488897045
 30
0.0
  0
VERTEX
  5
AF
330
A1
100
AcDbEntity
  8
Make2D$可见线$普通线
100
AcDbVertex
100
AcDb2dVertex
 10
282.4165159150691
 20
679.033379696119
 30
0.0
  0
VERTEX
  5
B0
330
A1
100
AcDbEntity
  8
Make2D$可见线$普通线
100
AcDbVertex
100
AcDb2dVertex
 10
282.7642596008905
 20
679.136597608027
 30
0.0
  0
VERTEX
  5
B1
330
A1
100
AcDbEntity
  8
Make2D$可见线$普通线
100
AcDbVertex
100
AcDb2dVertex
 10
283.1092553408184
 20
679.2470447740824
 30
0.0
  0
VERTEX
  5
B2
330
A1
100
AcDbEntity
  8
Make2D$可见线$普通线
100
AcDbVertex
100
AcDb2dVertex
 10
283.4512804544223
 20
679.36461402658
 30
0.0
  0
VERTEX
  5
B3
330
A1
100
AcDbEntity
  8
Make2D$可见线$普通线
100
AcDbVertex
100
AcDb2dVertex
 10
283.7787931712924
 20
679.4849095230079
 30
0.0
  0
VERTEX
  5
B4
330
A1
100
AcDbEntity
  8
Make2D$可见线$普通线
100
AcDbVertex
100
AcDb2dVertex
 10
284.104099990478
 20
679.6127528061597
 30
0.0
  0
VERTEX
  5
B5
330
A1
100
AcDbEntity
  8
Make2D$可见线$普通线
100
AcDbVertex
100
AcDb2dVertex
 10
284.4269417680439
 20
679.7480837660922
 30
0.0
  0
VERTEX
  5
B6
330
A1
100
AcDbEntity
  8
Make2D$可见线$普通线
100
AcDbVertex
100
AcDb2dVertex
 10
284.7470615423471
 20
679.8908304864862
 30
0.0
  0
VERTEX
  5
B7
330
A1
100
AcDbEntity
  8
Make2D$可见线$普通线
100
AcDbVertex
100
AcDb2dVertex
 10
285.0642052041882
 20
680.0409093451801
 30
0.0
  0
VERTEX
  5
B8
330
A1
100
AcDbEntity
  8
Make2D$可见线$普通线
100
AcDbVertex
100
AcDb2dVertex
 10
285.3781221611802
 20
680.1982251602501
 30
0.0
  0
VERTEX
  5
B9
330
A1
100
AcDbEntity
  8
Make2D$可见线$普通线
100
AcDbVertex
100
AcDb2dVertex
 10
285.6885659927261
 20
680.3626713812178
 30
0.0
  0
VERTEX
  5
BA
330
A1
100
AcDbEntity
  8
Make2D$可见线$普通线
100
AcDbVertex
100
AcDb2dVertex
 10
285.99529509204
 20
680.5341303246454
 30
0.0
  0
VERTEX
  5
BB
330
A1
100
AcDbEntity
  8
Make2D$可见线$普通线
100
AcDbVertex
100
AcDb2dVertex
 10
286.2980732917121
 20
680.7124734530545
 30
0.0
  0
VERTEX
  5
BC
330
A1
100
AcDbEntity
  8
Make2D$可见线$普通线
100
AcDbVertex
100
AcDb2dVertex
 10
286.5966704694243
 20
680.8975616957865
 30
0.0
  0
VERTEX
  5
BD
330
A1
100
AcDbEntity
  8
Make2D$可见线$普通线
100
AcDbVertex
100
AcDb2dVertex
 10
286.8908631305591
 20
681.0892458101325
 30
0.0
  0
VERTEX
  5
BE
330
A1
100
AcDbEntity
  8
Make2D$可见线$普通线
100
AcDbVertex
100
AcDb2dVertex
 10
287.1804349646025
 20
681.287366780758
 30
0.0
  0
VERTEX
  5
BF
330
A1
100
AcDbEntity
  8
Make2D$可见线$普通线
100
AcDbVertex
100
AcDb2dVertex
 10
287.4651773724444
 20
681.4917562551924
 30
0.0
  0
VERTEX
  5
C0
330
A1
100
AcDbEntity
  8
Make2D$可见线$普通线
100
AcDbVertex
100
AcDb2dVertex
 10
287.7448899618898
 20
681.7022370128974
 30
0.0
  0
VERTEX
  5
C1
330
A1
100
AcDbEntity
  8
Make2D$可见线$普通线
100
AcDbVertex
100
AcDb2dVertex
 10
288.0193810089416
 20
681.9186234652092
 30
0.0
  0
VERTEX
  5
C2
330
A1
100
AcDbEntity
  8
Make2D$可见线$普通线
100
AcDbVertex
100
AcDb2dVertex
 10
288.2884678826759
 20
682.140722183252
 30
0.0
  0
VERTEX
  5
C3
330
A1
100
AcDbEntity
  8
Make2D$可见线$普通线
100
AcDbVertex
100
AcDb2dVertex
 10
288.5521368545286
 20
682.3672295373555
 30
0.0
  0
VERTEX
  5
C4
330
A1
100
AcDbEntity
  8
Make2D$可见线$普通线
100
AcDbVertex
100
AcDb2dVertex
 10
288.8105298728717
 20
682.6009329603048
 30
0.0
  0
VERTEX
  5
C5
330
A1
100
AcDbEntity
  8
Make2D$可见线$普通线
100
AcDbVertex
100
AcDb2dVertex
 10
289.0633571129104
 20
682.8416473509357
 30
0.0
  0
VERTEX
  5
C6
330
A1
100
AcDbEntity
  8
Make2D$可见线$普通线
100
AcDbVertex
100
AcDb2dVertex
 10
289.310337489616
 20
683.0891722340913
 30
0.0
  0
VERTEX
  5
C7
330
A1
100
AcDbEntity
  8
Make2D$可见线$普通线
100
AcDbVertex
100
AcDb2dVertex
 10
289.551199667511
 20
683.3432922841705
 30
0.0
  0
VERTEX
  5
C8
330
A1
100
AcDbEntity
  8
Make2D$可见线$普通线
100
AcDbVertex
100
AcDb2dVertex
 10
289.7856830320511
 20
683.6037779276605
 30
0.0
  0
VERTEX
  5
C9
330
A1
100
AcDbEntity
  8
Make2D$可见线$普通线
100
AcDbVertex
100
AcDb2dVertex
 10
290.0135386154395
 20
683.8703860212858
 30
0.0
  0
VERTEX
  5
CA
330
A1
100
AcDbEntity
  8
Make2D$可见线$普通线
100
AcDbVertex
100
AcDb2dVertex
 10
290.2345299700628
 20
684.1428606016648
 30
0.0
  0
VERTEX
  5
CB
330
A1
100
AcDbEntity
  8
Make2D$可见线$普通线
100
AcDbVertex
100
AcDb2dVertex
 10
290.4484339831637
 20
684.4209337016772
 30
0.0
  0
VERTEX
  5
CC
330
A1
100
AcDbEntity
  8
Make2D$可见线$普通线
100
AcDbVertex
100
AcDb2dVertex
 10
290.6550416268815
 20
684.7043262280873
 30
0.0
  0
VERTEX
  5
CD
330
A1
100
AcDbEntity
  8
Make2D$可见线$普通线
100
AcDbVertex
100
AcDb2dVertex
 10
290.8541586383719
 20
684.9927488944046
 30
0.0
  0
VERTEX
  5
CE
330
A1
100
AcDbEntity
  8
Make2D$可见线$普通线
100
AcDbVertex
100
AcDb2dVertex
 10
291.0456061253661
 20
685.2859032024338
 30
0.0
  0
VERTEX
  5
CF
330
A1
100
AcDbEntity
  8
Make2D$可见线$普通线
100
AcDbVertex
100
AcDb2dVertex
 10
291.2292210932295
 20
685.5834824655476
 30
0.0
  0
VERTEX
  5
D0
330
A1
100
AcDbEntity
  8
Make2D$可见线$普通线
100
AcDbVertex
100
AcDb2dVertex
 10
291.4048568903268
 20
685.8851728663569
 30
0.0
  0
VERTEX
  5
D1
330
A1
100
AcDbEntity
  8
Make2D$可见线$普通线
100
AcDbVertex
100
AcDb2dVertex
 10
291.5723835692758
 20
686.1906545412033
 30
0.0
  0
VERTEX
  5
D2
330
A1
100
AcDbEntity
  8
Make2D$可见线$普通线
100
AcDbVertex
100
AcDb2dVertex
 10
291.731688162472
 20
686.4996026837248
 30
0.0
  0
VERTEX
  5
D3
330
A1
100
AcDbEntity
  8
Make2D$可见线$普通线
100
AcDbVertex
100
AcDb2dVertex
 10
291.8866047026664
 20
686.8237396564364
 30
0.0
  0
VERTEX
  5
D4
330
A1
100
AcDbEntity
  8
Make2D$可见线$普通线
100
AcDbVertex
100
AcDb2dVertex
 10
292.0327086133498
 20
687.1530555272307
 30
0.0
  0
VERTEX
  5
D5
330
A1
100
AcDbEntity
  8
Make2D$可见线$普通线
100
AcDbVertex
100
AcDb2dVertex
 10
292.1697523673828
 20
687.4871904771006
 30
0.0
  0
VERTEX
  5
D6
330
A1
100
AcDbEntity
  8
Make2D$可见线$普通线
100
AcDbVertex
100
AcDb2dVertex
 10
292.2975081165539
 20
687.82576942595
 30
0.0
  0
VERTEX
  5
D7
330
A1
100
AcDbEntity
  8
Make2D$可见线$普通线
100
AcDbVertex
100
AcDb2dVertex
 10
292.415768839172
 20
688.1684033883544
 30
0.0
  0
VERTEX
  5
D8
330
A1
100
AcDbEntity
  8
Make2D$可见线$普通线
100
AcDbVertex
100
AcDb2dVertex
 10
292.5243493744112
 20
688.5146909308677
 30
0.0
  0
VERTEX
  5
D9
330
A1
100
AcDbEntity
  8
Make2D$可见线$普通线
100
AcDbVertex
100
AcDb2dVertex
 10
292.6230873330979
 20
688.8642197197096
 30
0.0
  0
VERTEX
  5
DA
330
A1
100
AcDbEntity
  8
Make2D$可见线$普通线
100
AcDbVertex
100
AcDb2dVertex
 10
292.7118438759063
 20
689.2165681464754
 30
0.0
  0
VERTEX
  5
DB
330
A1
100
AcDbEntity
  8
Make2D$可见线$普通线
100
AcDbVertex
100
AcDb2dVertex
 10
292.7905043513563
 20
689.5713070185176
 30
0.0
  0
VERTEX
  5
DC
330
A1
100
AcDbEntity
  8
Make2D$可见线$普通线
100
AcDbVertex
100
AcDb2dVertex
 10
292.8589787875541
 20
689.9280012998037
 30
0.0
  0
VERTEX
  5
DD
330
A1
100
AcDbEntity
  8
Make2D$可见线$普通线
100
AcDbVertex
100
AcDb2dVertex
 10
292.9172022332644
 20
690.2862118874508
 30
0.0
  0
VERTEX
  5
DE
330
A1
100
AcDbEntity
  8
Make2D$可见线$普通线
100
AcDbVertex
100
AcDb2dVertex
 10
292.9651349456184
 20
690.6454974087195
 30
0.0
  0
VERTEX
  5
DF
330
A1
100
AcDbEntity
  8
Make2D$可见线$普通线
100
AcDbVertex
100
AcDb2dVertex
 10
293.0027624235103
 20
691.0054160230726
 30
0.0
  0
VERTEX
  5
E0
330
A1
100
AcDbEntity
  8
Make2D$可见线$普通线
100
AcDbVertex
100
AcDb2dVertex
 10
293.0300952874935
 20
691.3655272139434
 30
0.0
  0
VERTEX
  5
E1
330
A1
100
AcDbEntity
  8
Make2D$可见线$普通线
100
AcDbVertex
100
AcDb2dVertex
 10
293.0471690087105
 20
691.7253935551287
 30
0.0
  0
VERTEX
  5
E2
330
A1
100
AcDbEntity
  8
Make2D$可见线$普通线
100
AcDbVertex
100
AcDb2dVertex
 10
293.0540434910642
 20
692.0845824371901
 30
0.0
  0
VERTEX
  5
E3
330
A1
100
AcDbEntity
  8
Make2D$可见线$普通线
100
AcDbVertex
100
AcDb2dVertex
 10
293.0463294291679
 20
692.4427202604294
 30
0.0
  0
VERTEX
  5
E4
330
A1
100
AcDbEntity
  8
Make2D$可见线$普通线
100
AcDbVertex
100
AcDb2dVertex
 10
293.0284332227754
 20
692.801510794965
 30
0.0
  0
VERTEX
  5
E5
330
A1
100
AcDbEntity
  8
Make2D$可见线$普通线
100
AcDbVertex
100
AcDb2dVertex
 10
293.0002959799669
 20
693.1605216326913
 30
0.0
  0
VERTEX
  5
E6
330
A1
100
AcDbEntity
  8
Make2D$可见线$普通线
100
AcDbVertex
100
AcDb2dVertex
 10
292.9618832589745
 20
693.5193156004863
 30
0.0
  0
VERTEX
  5
E7
330
A1
100
AcDbEntity
  8
Make2D$可见线$普通线
100
AcDbVertex
100
AcDb2dVertex
 10
292.9131854828942
 20
693.877452489826
 30
0.0
  0
VERTEX
  5
E8
330
A1
100
AcDbEntity
  8
Make2D$可见线$普通线
100
AcDbVertex
100
AcDb2dVertex
 10
292.8542182072007
 20
694.2344908261731
 30
0.0
  0
VERTEX
  5
E9
330
A1
100
AcDbEntity
  8
Make2D$可见线$普通线
100
AcDbVertex
100
AcDb2dVertex
 10
292.7850222358761
 20
694.5899896634708
 30
0.0
  0
VERTEX
  5
EA
330
A1
100
AcDbEntity
  8
Make2D$可见线$普通线
100
AcDbVertex
100
AcDb2dVertex
 10
292.705663583641
 20
694.943510388597
 30
0.0
  0
VERTEX
  5
EB
330
A1
100
AcDbEntity
  8
Make2D$可见线$普通线
100
AcDbVertex
100
AcDb2dVertex
 10
292.6162332835105
 20
695.29461852037
 30
0.0
  0
VERTEX
  5
EC
330
A1
100
AcDbEntity
  8
Make2D$可见线$普通线
100
AcDbVertex
100
AcDb2dVertex
 10
292.5168470406629
 20
695.6428854876522
 30
0.0
  0
VERTEX
  5
ED
330
A1
100
AcDbEntity
  8
Make2D$可见线$普通线
100
AcDbVertex
100
AcDb2dVertex
 10
292.4076447353661
 20
695.9878903713017
 30
0.0
  0
VERTEX
  5
EE
330
A1
100
AcDbEntity
  8
Make2D$可见线$普通线
100
AcDbVertex
100
AcDb2dVertex
 10
292.2887897794283
 20
696.3292215951154
 30
0.0
  0
VERTEX
  5
EF
330
A1
100
AcDbEntity
  8
Make2D$可见线$普通线
100
AcDbVertex
100
AcDb2dVertex
 10
292.1604683322925
 20
696.6664785515526
 30
0.0
  0
VERTEX
  5
F0
330
A1
100
AcDbEntity
  8
Make2D$可见线$普通线
100
AcDbVertex
100
AcDb2dVertex
 10
292.0228883844484
 20
696.9992731488479
 30
0.0
  0
VERTEX
  5
F1
330
A1
100
AcDbEntity
  8
Make2D$可见线$普通线
100
AcDbVertex
100
AcDb2dVertex
 10
291.8762787172641
 20
697.3272312671553
 30
0.0
  0
VERTEX
  5
F2
330
A1
100
AcDbEntity
  8
Make2D$可见线$普通线
100
AcDbVertex
100
AcDb2dVertex
 10
291.720887749617
 20
697.6499941125373
 30
0.0
  0
VERTEX
  5
F3
330
A1
100
AcDbEntity
  8
Make2D$可见线$普通线
100
AcDbVertex
100
AcDb2dVertex
 10
291.561249804725
 20
697.9578045973055
 30
0.0
  0
VERTEX
  5
F4
330
A1
100
AcDbEntity
  8
Make2D$可见线$普通线
100
AcDbVertex
100
AcDb2dVertex
 10
291.393462269753
 20
698.262152655618
 30
0.0
  0
VERTEX
  5
F5
330
A1
100
AcDbEntity
  8
Make2D$可见线$普通线
100
AcDbVertex
100
AcDb2dVertex
 10
291.217637654686
 20
698.5627179960874
 30
0.0
  0
VERTEX
  5
F6
330
A1
100
AcDbEntity
  8
Make2D$可见线$普通线
100
AcDbVertex
100
AcDb2dVertex
 10
291.0339051274321
 20
698.8591852371975
 30
0.0
  0
VERTEX
  5
F7
330
A1
100
AcDbEntity
  8
Make2D$可见线$普通线
100
AcDbVertex
100
AcDb2dVertex
 10
290.8424102408259
 20
699.1512449843858
 30
0.0
  0
VERTEX
  5
F8
330
A1
100
AcDbEntity
  8
Make2D$可见线$普通线
100
AcDbVertex
100
AcDb2dVertex
 10
290.6433145763917
 20
699.4385948882832
 30
0.0
  0
VERTEX
  5
F9
330
A1
100
AcDbEntity
  8
Make2D$可见线$普通线
100
AcDbVertex
100
AcDb2dVertex
 10
290.4367953064585
 20
699.7209406766257
 30
0.0
  0
VERTEX
  5
FA
330
A1
100
AcDbEntity
  8
Make2D$可见线$普通线
100
AcDbVertex
100
AcDb2dVertex
 10
290.2230446769901
 20
699.997997152524
 30
0.0
  0
VERTEX
  5
FB
330
A1
100
AcDbEntity
  8
Make2D$可见线$普通线
100
AcDbVertex
100
AcDb2dVertex
 10
290.0022694142318
 20
700.2694891520183
 30
0.0
  0
VERTEX
  5
FC
330
A1
100
AcDbEntity
  8
Make2D$可见线$普通线
100
AcDbVertex
100
AcDb2dVertex
 10
289.7746900590001
 20
700.5351524541901
 30
0.0
  0
VERTEX
  5
FD
330
A1
100
AcDbEntity
  8
Make2D$可见线$普通线
100
AcDbVertex
100
AcDb2dVertex
 10
289.5405402331085
 20
700.7947346375179
 30
0.0
  0
VERTEX
  5
FE
330
A1
100
AcDbEntity
  8
Make2D$可见线$普通线
100
AcDbVertex
100
AcDb2dVertex
 10
289.300065843047
 20
701.0479958766537
 30
0.0
  0
VERTEX
  5
FF
330
A1
100
AcDbEntity
  8
Make2D$可见线$普通线
100
AcDbVertex
100
AcDb2dVertex
 10
289.0535242265922
 20
701.2947096743594
 30
0.0
  0
VERTEX
  5
100
330
A1
100
AcDbEntity
  8
Make2D$可见线$普通线
100
AcDbVertex
100
AcDb2dVertex
 10
288.8011832485191
 20
701.5346635239639
 30
0.0
  0
VERTEX
  5
101
330
A1
100
AcDbEntity
  8
Make2D$可见线$普通线
100
AcDbVertex
100
AcDb2dVertex
 10
288.5433203519951
 20
701.7676594983643
 30
0.0
  0
VERTEX
  5
102
330
A1
100
AcDbEntity
  8
Make2D$可见线$普通线
100
AcDbVertex
100
AcDb2dVertex
 10
288.2802215725795
 20
701.9935147623112
 30
0.0
  0
VERTEX
  5
103
330
A1
100
AcDbEntity
  8
Make2D$可见线$普通线
100
AcDbVertex
100
AcDb2dVertex
 10
288.0113918686937
 20
702.2150172191042
 30
0.0
  0
VERTEX
  5
104
330
A1
100
AcDbEntity
  8
Make2D$可见线$普通线
100
AcDbVertex
100
AcDb2dVertex
 10
287.7371895708403
 20
702.4308287321346
 30
0.0
  0
VERTEX
  5
105
330
A1
100
AcDbEntity
  8
Make2D$可见线$普通线
100
AcDbVertex
100
AcDb2dVertex
 10
287.457796122446
 20
702.6407576042495
 30
0.0
  0
VERTEX
  5
106
330
A1
100
AcDbEntity
  8
Make2D$可见线$普通线
100
AcDbVertex
100
AcDb2dVertex
 10
287.173401950618
 20
702.8446199057065
 30
0.0
  0
VERTEX
  5
107
330
A1
100
AcDbEntity
  8
Make2D$可见线$普通线
100
AcDbVertex
100
AcDb2dVertex
 10
286.8842060464126
 20
703.0422399941233
 30
0.0
  0
VERTEX
  5
108
330
A1
100
AcDbEntity
  8
Make2D$可见线$普通线
100
AcDbVertex
100
AcDb2dVertex
 10
286.5904155093558
 20
703.2334510068725
 30
0.0
  0
VERTEX
  5
109
330
A1
100
AcDbEntity
  8
Make2D$可见线$普通线
100
AcDbVertex
100
AcDb2dVertex
 10
286.2922450583558
 20
703.4180953230874
 30
0.0
  0
VERTEX
  5
10A
330
A1
100
AcDbEntity
  8
Make2D$可见线$普通线
100
AcDbVertex
100
AcDb2dVertex
 10
285.9899165114047
 20
703.5960249926206
 30
0.0
  0
VERTEX
  5
10B
330
A1
100
AcDbEntity
  8
Make2D$可见线$普通线
100
AcDbVertex
100
AcDb2dVertex
 10
285.6836582366974
 20
703.7671021295362
 30
0.0
  0
VERTEX
  5
10C
330
A1
100
AcDbEntity
  8
Make2D$可见线$普通线
100
AcDbVertex
100
AcDb2dVertex
 10
285.3737045780174
 20
703.9311992679351
 30
0.0
  0
VERTEX
  5
10D
330
A1
100
AcDbEntity
  8
Make2D$可见线$普通线
100
AcDbVertex
100
AcDb2dVertex
 10
285.060295257419
 20
704.0881996781984
 30
0.0
  0
VERTEX
  5
10E
330
A1
100
AcDbEntity
  8
Make2D$可见线$普通线
100
AcDbVertex
100
AcDb2dVertex
 10
284.7436747584023
 20
704.2379976419943
 30
0.0
  0
VERTEX
  5
10F
330
A1
100
AcDbEntity
  8
Make2D$可见线$普通线
100
AcDbVertex
100
AcDb2dVertex
 10
284.424091692907
 20
704.3804986847051
 30
0.0
  0
VERTEX
  5
110
330
A1
100
AcDbEntity
  8
Make2D$可见线$普通线
100
AcDbVertex
100
AcDb2dVertex
 10
284.1017981555495
 20
704.5156197642254
 30
0.0
  0
VERTEX
  5
111
330
A1
100
AcDbEntity
  8
Make2D$可见线$普通线
100
AcDbVertex
100
AcDb2dVertex
 10
283.7770490686039
 20
704.643289415406
 30
0.0
  0
VERTEX
  5
112
330
A1
100
AcDbEntity
  8
Make2D$可见线$普通线
100
AcDbVertex
100
AcDb2dVertex
 10
283.4501015212542
 20
704.763447849728
 30
0.0
  0
VERTEX
  5
113
330
A1
100
AcDbEntity
  8
Make2D$可见线$普通线
100
AcDbVertex
100
AcDb2dVertex
 10
283.1081873565774
 20
704.8811024166207
 30
0.0
  0
VERTEX
  5
114
330
A1
100
AcDbEntity
  8
Make2D$可见线$普通线
100
AcDbVertex
100
AcDb2dVertex
 10
282.7632931249511
 20
704.9916213951891
 30
0.0
  0
VERTEX
  5
115
330
A1
100
AcDbEntity
  8
Make2D$可见线$普通线
100
AcDbVertex
100
AcDb2dVertex
 10
282.415642424558
 20
705.094897012598
 30
0.0
  0
VERTEX
  5
116
330
A1
100
AcDbEntity
  8
Make2D$可见线$普通线
100
AcDbVertex
100
AcDb2dVertex
 10
282.0654638742145
 20
705.1908308641885
 30
0.0
  0
VERTEX
  5
117
330
A1
100
AcDbEntity
  8
Make2D$可见线$普通线
100
AcDbVertex
100
AcDb2dVertex
 10
281.7129906206301
 20
705.2793341982959
 30
0.0
  0
VERTEX
  5
118
330
A1
100
AcDbEntity
  8
Make2D$可见线$普通线
100
AcDbVertex
100
AcDb2dVertex
 10
281.3584598266841
 20
705.3603281697965
 30
0.0
  0
VERTEX
  5
119
330
A1
100
AcDbEntity
  8
Make2D$可见线$普通线
100
AcDbVertex
100
AcDb2dVertex
 10
281.0021121430525
 20
705.4337440609335
 30
0.0
  0
VERTEX
  5
11A
330
A1
100
AcDbEntity
  8
Make2D$可见线$普通线
100
AcDbVertex
100
AcDb2dVertex
 10
280.6441911656376
 20
705.4995234681745
 30
0.0
  0
VERTEX
  5
11B
330
A1
100
AcDbEntity
  8
Make2D$可见线$普通线
100
AcDbVertex
100
AcDb2dVertex
 10
280.2849428813593
 20
705.5576184540635
 30
0.0
  0
VERTEX
  5
11C
330
A1
100
AcDbEntity
  8
Make2D$可见线$普通线
100
AcDbVertex
100
AcDb2dVertex
 10
279.9246151049527
 20
705.6079916632485
 30
0.0
  0
VERTEX
  5
11D
330
A1
100
AcDbEntity
  8
Make2D$可见线$普通线
100
AcDbVertex
100
AcDb2dVertex
 10
279.5634569094758
 20
705.6506164021001
 30
0.0
  0
VERTEX
  5
11E
330
A1
100
AcDbEntity
  8
Make2D$可见线$普通线
100
AcDbVertex
100
AcDb2dVertex
 10
279.2017180532741
 20
705.6854766815658
 30
0.0
  0
VERTEX
  5
11F
330
A1
100
AcDbEntity
  8
Make2D$可见线$普通线
100
AcDbVertex
100
AcDb2dVertex
 10
278.8396484061666
 20
705.7125672231416
 30
0.0
  0
VERTEX
  5
120
330
A1
100
AcDbEntity
  8
Make2D$可见线$普通线
100
AcDbVertex
100
AcDb2dVertex
 10
278.4774973776118
 20
705.7318934280814
 30
0.0
  0
VERTEX
  5
121
330
A1
100
AcDbEntity
  8
Make2D$可见线$普通线
100
AcDbVertex
100
AcDb2dVertex
 10
278.1155133495825
 20
705.7434713101969
 30
0.0
  0
VERTEX
  5
122
330
A1
100
AcDbEntity
  8
Make2D$可见线$普通线
100
AcDbVertex
100
AcDb2dVertex
 10
277.7539431168339
 20
705.747327392829
 30
0.0
  0
VERTEX
  5
123
330
A1
100
AcDbEntity
  8
Make2D$可见线$普通线
100
AcDbVertex
100
AcDb2dVertex
 10
277.3923731294803
 20
705.7434743952813
 30
0.0
  0
VERTEX
  5
124
330
A1
100
AcDbEntity
  8
Make2D$可见线$普通线
100
AcDbVertex
100
AcDb2dVertex
 10
277.0303892658392
 20
705.7318994766687
 30
0.0
  0
VERTEX
  5
125
330
A1
100
AcDbEntity
  8
Make2D$可见线$普通线
100
AcDbVertex
100
AcDb2dVertex
 10
276.6682383286077
 20
705.7125761101667
 30
0.0
  0
VERTEX
  5
126
330
A1
100
AcDbEntity
  8
Make2D$可见线$普通线
100
AcDbVertex
100
AcDb2dVertex
 10
276.3061687078993
 20
705.6854882789927
 30
0.0
  0
VERTEX
  5
127
330
A1
100
AcDbEntity
  8
Make2D$可见线$普通线
100
AcDbVertex
100
AcDb2dVertex
 10
275.9444298214743
 20
705.6506305794463
 30
0.0
  0
VERTEX
  5
128
330
A1
100
AcDbEntity
  8
Make2D$可见线$普通线
100
AcDbVertex
100
AcDb2dVertex
 10
275.5832715475784
 20
705.6080082881209
 30
0.0
  0
VERTEX
  5
129
330
A1
100
AcDbEntity
  8
Make2D$可见线$普通线
100
AcDbVertex
100
AcDb2dVertex
 10
275.2229436530694
 20
705.5576373927021
 30
0.0
  0
VERTEX
  5
12A
330
A1
100
AcDbEntity
  8
Make2D$可见线$普通线
100
AcDbVertex
100
AcDb2dVertex
 10
274.8636952195643
 20
705.4995445860002
 30
0.0
  0
VERTEX
  5
12B
330
A1
100
AcDbEntity
  8
Make2D$可见线$普通线
100
AcDbVertex
100
AcDb2dVertex
 10
274.5057740703647
 20
705.433767223097
 30
0.0
  0
VERTEX
  5
12C
330
A1
100
AcDbEntity
  8
Make2D$可见线$普通线
100
AcDbVertex
100
AcDb2dVertex
 10
274.1494262009264
 20
705.3603532417266
 30
0.0
  0
VERTEX
  5
12D
330
A1
100
AcDbEntity
  8
Make2D$可见线$普通线
100
AcDbVertex
100
AcDb2dVertex
 10
273.7948952156166
 20
705.279361046241
 30
0.0
  0
VERTEX
  5
12E
330
A1
100
AcDbEntity
  8
Make2D$可见线$普通线
100
AcDbVertex
100
AcDb2dVertex
 10
273.442421773468
 20
705.1908593557517
 30
0.0
  0
VERTEX
  5
12F
330
A1
100
AcDbEntity
  8
Make2D$可见线$普通线
100
AcDbVertex
100
AcDb2dVertex
 10
273.0922430455709
 20
705.0949270172607
 30
0.0
  0
VERTEX
  5
130
330
A1
100
AcDbEntity
  8
Make2D$可见线$普通线
100
AcDbVertex
100
AcDb2dVertex
 10
272.7445921866638
 20
704.9916527848209
 30
0.0
  0
VERTEX
  5
131
330
A1
100
AcDbEntity
  8
Make2D$可见线$普通线
100
AcDbVertex
100
AcDb2dVertex
 10
272.3996978233755
 20
704.8811350659714
 30
0.0
  0
VERTEX
  5
132
330
A1
100
AcDbEntity
  8
Make2D$可见线$普通线
100
AcDbVertex
100
AcDb2dVertex
 10
272.0577835614508
 20
704.7634816369023
 30
0.0
  0
VERTEX
  5
133
330
A1
100
AcDbEntity
  8
Make2D$可见线$普通线
100
AcDbVertex
100
AcDb2dVertex
 10
271.7308350063885
 20
704.6433212201242
 30
0.0
  0
VERTEX
  5
134
330
A1
100
AcDbEntity
  8
Make2D$可见线$普通线
100
AcDbVertex
100
AcDb2dVertex
 10
271.4060849473659
 20
704.5156495938671
 30
0.0
  0
VERTEX
  5
135
330
A1
100
AcDbEntity
  8
Make2D$可见线$普通线
100
AcDbVertex
100
AcDb2dVertex
 10
271.0837904722635
 20
704.3805265476688
 30
0.0
  0
VERTEX
  5
136
330
A1
100
AcDbEntity
  8
Make2D$可见线$普通线
100
AcDbVertex
100
AcDb2dVertex
 10
270.7642065020099
 20
704.2380235475899
 30
0.0
  0
VERTEX
  5
137
330
A1
100
AcDbEntity
  8
Make2D$可见线$普通线
100
AcDbVertex
100
AcDb2dVertex
 10
270.4475851298444
 20
704.0882236365371
 30
0.0
  0
VERTEX
  5
138
330
A1
100
AcDbEntity
  8
Make2D$可见线$普通线
100
AcDbVertex
100
AcDb2dVertex
 10
270.1341749663056
 20
703.9312212898191
 30
0.0
  0
VERTEX
  5
139
330
A1
100
AcDbEntity
  8
Make2D$可见线$普通线
100
AcDbVertex
100
AcDb2dVertex
 10
269.8242204934782
 20
703.7671222263468
 30
0.0
  0
VERTEX
  5
13A
330
A1
100
AcDbEntity
  8
Make2D$可见线$普通线
100
AcDbVertex
100
AcDb2dVertex
 10
269.517961431995
 20
703.5960431762071
 30
0.0
  0
VERTEX
  5
13B
330
A1
100
AcDbEntity
  8
Make2D$可见线$普通线
100
AcDbVertex
100
AcDb2dVertex
 10
269.215632124222
 20
703.418111605656
 30
0.0
  0
VERTEX
  5
13C
330
A1
100
AcDbEntity
  8
Make2D$可见线$普通线
100
AcDbVertex
100
AcDb2dVertex
 10
268.9174609369489
 20
703.2334654008789
 30
0.0
  0
VERTEX
  5
13D
330
A1
100
AcDbEntity
  8
Make2D$可见线$普通线
100
AcDbVertex
100
AcDb2dVertex
 10
268.6236696867827
 20
703.0422525121655
 30
0.0
  0
VERTEX
  5
13E
330
A1
100
AcDbEntity
  8
Make2D$可见线$普通线
100
AcDbVertex
100
AcDb2dVertex
 10
268.3344730912762
 20
702.8446305604226
 30
0.0
  0
VERTEX
  5
13F
330
A1
100
AcDbEntity
  8
Make2D$可见线$普通线
100
AcDbVertex
100
AcDb2dVertex
 10
268.0500782486358
 20
702.6407664082179
 30
0.0
  0
VERTEX
  5
140
330
A1
100
AcDbEntity
  8
Make2D$可见线$普通线
100
AcDbVertex
100
AcDb2dVertex
 10
267.7706841486431
 20
702.4308356977807
 30
0.0
  0
VERTEX
  5
141
330
A1
100
AcDbEntity
  8
Make2D$可见线$普通线
100
AcDbVertex
100
AcDb2dVertex
 10
267.496481217181
 20
702.2150223586102
 30
0.0
  0
VERTEX
  5
142
330
A1
100
AcDbEntity
  8
Make2D$可见线$普通线
100
AcDbVertex
100
AcDb2dVertex
 10
267.2276508965099
 20
701.9935180875331
 30
0.0
  0
VERTEX
  5
143
330
A1
100
AcDbEntity
  8
Make2D$可见线$普通线
100
AcDbVertex
100
AcDb2dVertex
 10
266.9645205264499
 20
701.7677038793014
 30
0.0
  0
VERTEX
  5
144
330
A1
100
AcDbEntity
  8
Make2D$可见线$普通线
100
AcDbVertex
100
AcDb2dVertex
 10
266.7066285730644
 20
701.5347423746383
 30
0.0
  0
VERTEX
  5
145
330
A1
100
AcDbEntity
  8
Make2D$可见线$普通线
100
AcDbVertex
100
AcDb2dVertex
 10
266.4542615620902
 20
701.2948166177104
 30
0.0
  0
VERTEX
  5
146
330
A1
100
AcDbEntity
  8
Make2D$可见线$普通线
100
AcDbVertex
100
AcDb2dVertex
 10
266.2076974113799
 20
701.0481247822572
 30
0.0
  0
VERTEX
  5
147
330
A1
100
AcDbEntity
  8
Make2D$可见线$普通线
100
AcDbVertex
100
AcDb2dVertex
 10
265.9672044416644
 20
700.7948796580366
 30
0.0
  0
VERTEX
  5
148
330
A1
100
AcDbEntity
  8
Make2D$可见线$普通线
100
AcDbVertex
100
AcDb2dVertex
 10
265.7330404248302
 20
700.5353080602421
 30
0.0
  0
VERTEX
  5
149
330
A1
100
AcDbEntity
  8
Make2D$可见线$普通线
100
AcDbVertex
100
AcDb2dVertex
 10
265.5054516766652
 20
700.2696501651674
 30
0.0
  0
VERTEX
  5
14A
330
A1
100
AcDbEntity
  8
Make2D$可见线$普通线
100
AcDbVertex
100
AcDb2dVertex
 10
265.2846722006881
 20
699.9981587761074
 30
0.0
  0
VERTEX
  5
14B
330
A1
100
AcDbEntity
  8
Make2D$可见线$普通线
100
AcDbVertex
100
AcDb2dVertex
 10
265.0709228892607
 20
699.7210985241568
 30
0.0
  0
VERTEX
  5
14C
330
A1
100
AcDbEntity
  8
Make2D$可见线$普通线
100
AcDbVertex
100
AcDb2dVertex
 10
264.8644107876892
 20
699.4387450091949
 30
0.0
  0
VERTEX
  5
14D
330
A1
100
AcDbEntity
  8
Make2D$可见线$普通线
100
AcDbVertex
100
AcDb2dVertex
 10
264.6653284264536
 20
699.1513838869005
 30
0.0
  0
VERTEX
  5
14E
330
A1
100
AcDbEntity
  8
Make2D$可见线$普通线
100
AcDbVertex
100
AcDb2dVertex
 10
264.4738532260824
 20
698.8593099081436
 30
0.0
  0
VERTEX
  5
14F
330
A1
100
AcDbEntity
  8
Make2D$可见线$普通线
100
AcDbVertex
100
AcDb2dVertex
 10
264.2901469785131
 20
698.5628259175156
 30
0.0
  0
VERTEX
  5
150
330
A1
100
AcDbEntity
  8
Make2D$可见线$普通线
100
AcDbVertex
100
AcDb2dVertex
 10
264.1143554080555
 20
698.2622418180999
 30
0.0
  0
VERTEX
  5
151
330
A1
100
AcDbEntity
  8
Make2D$可见线$普通线
100
AcDbVertex
100
AcDb2dVertex
 10
263.9466078143291
 20
697.9578735098366
 30
0.0
  0
VERTEX
  5
152
330
A1
100
AcDbEntity
  8
Make2D$可见线$普通线
100
AcDbVertex
100
AcDb2dVertex
 10
263.787016798771
 20
697.6500418089995
 30
0.0
  0
VERTEX
  5
153
330
A1
100
AcDbEntity
  8
Make2D$可见线$普通线
100
AcDbVertex
100
AcDb2dVertex
 10
263.63162267363
 20
697.3272813958437
 30
0.0
  0
VERTEX
  5
154
330
A1
100
AcDbEntity
  8
Make2D$可见线$普通线
100
AcDbVertex
100
AcDb2dVertex
 10
263.4850098678429
 20
696.999325557857
 30
0.0
  0
VERTEX
  5
155
330
A1
100
AcDbEntity
  8
Make2D$可见线$普通线
100
AcDbVertex
100
AcDb2dVertex
 10
263.347426809976
 20
696.6665330932393
 30
0.0
  0
VERTEX
  5
156
330
A1
100
AcDbEntity
  8
Make2D$可见线$普通线
100
AcDbVertex
100
AcDb2dVertex
 10
263.2191022906583
 20
696.3292781268553
 30
0.0
  0
VERTEX
  5
157
330
A1
100
AcDbEntity
  8
Make2D$可见线$普通线
100
AcDbVertex
100
AcDb2dVertex
 10
263.1002443091442
 20
695.9879487562004
 30
0.0
  0
VERTEX
  5
158
330
A1
100
AcDbEntity
  8
Make2D$可见线$普通线
100
AcDbVertex
100
AcDb2dVertex
 10
262.99103903308
 20
695.6429455952077
 30
0.0
  0
VERTEX
  5
159
330
A1
100
AcDbEntity
  8
Make2D$可见线$普通线
100
AcDbVertex
100
AcDb2dVertex
 10
262.8916498818582
 20
695.2946802270769
 30
0.0
  0
VERTEX
  5
15A
330
A1
100
AcDbEntity
  8
Make2D$可见线$普通线
100
AcDbVertex
100
AcDb2dVertex
 10
262.8022167426587
 20
694.9435735784888
 30
0.0
  0
VERTEX
  5
15B
330
A1
100
AcDbEntity
  8
Make2D$可见线$普通线
100
AcDbVertex
100
AcDb2dVertex
 10
262.7228553268549
 20
694.5900542285921
 30
0.0
  0
VERTEX
  5
15C
330
A1
100
AcDbEntity
  8
Make2D$可见线$普通线
100
AcDbVertex
100
AcDb2dVertex
 10
262.6536566729021
 20
694.2345566669815
 30
0.0
  0
VERTEX
  5
15D
330
A1
100
AcDbEntity
  8
Make2D$可见线$普通线
100
AcDbVertex
100
AcDb2dVertex
 10
262.5946868001773
 20
693.8775195155167
 30
0.0
  0
VERTEX
  5
15E
330
A1
100
AcDbEntity
  8
Make2D$可见线$普通线
100
AcDbVertex
100
AcDb2dVertex
 10
262.5459865165145
 20
693.5193837292394
 30
0.0
  0
VERTEX
  5
15F
330
A1
100
AcDbEntity
  8
Make2D$可见线$普通线
100
AcDbVertex
100
AcDb2dVertex
 10
262.5075713804223
 20
693.1605907918399
 30
0.0
  0
VERTEX
  5
160
330
A1
100
AcDbEntity
  8
Make2D$可见线$普通线
100
AcDbVertex
100
AcDb2dVertex
 10
262.4794318172097
 20
692.8015809210835
 30
0.0
  0
VERTEX
  5
161
330
A1
100
AcDbEntity
  8
Make2D$可见线$普通线
100
AcDbVertex
100
AcDb2dVertex
 10
262.4615333865048
 20
692.4427912993433
 30
0.0
  0
VERTEX
  5
162
330
A1
100
AcDbEntity
  8
Make2D$可见线$普通线
100
AcDbVertex
100
AcDb2dVertex
 10
262.4538171969805
 20
692.0846543439083
 30
0.0
  0
VERTEX
  5
163
330
A1
100
AcDbEntity
  8
Make2D$可见线$普通线
100
AcDbVertex
100
AcDb2dVertex
 10
262.4606941149859
 20
691.7254628188585
 30
0.0
  0
VERTEX
  5
164
330
A1
100
AcDbEntity
  8
Make2D$可见线$普通线
100
AcDbVertex
100
AcDb2dVertex
 10
262.4777699839434
 20
691.365593953716
 30
0.0
  0
VERTEX
  5
165
330
A1
100
AcDbEntity
  8
Make2D$可见线$普通线
100
AcDbVertex
100
AcDb2dVertex
 10
262.5051046984987
 20
691.0054803304007
 30
0.0
  0
VERTEX
  5
166
330
A1
100
AcDbEntity
  8
Make2D$可见线$普通线
100
AcDbVertex
100
AcDb2dVertex
 10
262.5427337229559
 20
690.6455593467566
 30
0.0
  0
VERTEX
  5
167
330
A1
100
AcDbEntity
  8
Make2D$可见线$普通线
100
AcDbVertex
100
AcDb2dVertex
 10
262.5906676735329
 20
690.2862714903782
 30
0.0
  0
VERTEX
  5
168
330
A1
100
AcDbEntity
  8
Make2D$可见线$普通线
100
AcDbVertex
100
AcDb2dVertex
 10
262.6488920473535
 20
689.9280585724623
 30
0.0
  0
VERTEX
  5
169
330
A1
100
AcDbEntity
  8
Make2D$可见线$普通线
100
AcDbVertex
100
AcDb2dVertex
 10
262.7173671023762
 20
689.5713619362865
 30
0.0
  0
VERTEX
  5
16A
330
A1
100
AcDbEntity
  8
Make2D$可见线$普通线
100
AcDbVertex
100
AcDb2dVertex
 10
262.7960278907997
 20
689.2166206554026
 30
0.0
  0
VERTEX
  5
16B
330
A1
100
AcDbEntity
  8
Make2D$可见线$普通线
100
AcDbVertex
100
AcDb2dVertex
 10
262.8847844467497
 20
688.8642697368931
 30
0.0
  0
VERTEX
  5
16C
330
A1
100
AcDbEntity
  8
Make2D$可见线$普通线
100
AcDbVertex
100
AcDb2dVertex
 10
262.9835221273055
 20
688.514738345087
 30
0.0
  0
VERTEX
  5
16D
330
A1
100
AcDbEntity
  8
Make2D$可见线$普通线
100
AcDbVertex
100
AcDb2dVertex
 10
263.0921021041664
 20
688.1684480609417
 30
0.0
  0
VERTEX
  5
16E
330
A1
100
AcDbEntity
  8
Make2D$可见线$普通线
100
AcDbVertex
100
AcDb2dVertex
 10
263.2103620015508
 20
687.8258111918959
 30
0.0
  0
VERTEX
  5
16F
330
A1
100
AcDbEntity
  8
Make2D$可见线$普通线
100
AcDbVertex
100
AcDb2dVertex
 10
263.3381166742687
 20
687.4872291463772
 30
0.0
  0
VERTEX
  5
170
330
A1
100
AcDbEntity
  8
Make2D$可见线$普通线
100
AcDbVertex
100
AcDb2dVertex
 10
263.475159118364
 20
687.153090886321
 30
0.0
  0
VERTEX
  5
171
330
A1
100
AcDbEntity
  8
Make2D$可见线$普通线
100
AcDbVertex
100
AcDb2dVertex
 10
263.6212615052927
 20
686.8237714700496
 30
0.0
  0
VERTEX
  5
172
330
A1
100
AcDbEntity
  8
Make2D$可见线$普通线
100
AcDbVertex
100
AcDb2dVertex
 10
263.7761763293322
 20
686.4996306966784
 30
0.0
  0
VERTEX
  5
173
330
A1
100
AcDbEntity
  8
Make2D$可见线$普通线
100
AcDbVertex
100
AcDb2dVertex
 10
263.9355193012778
 20
686.1907077740738
 30
0.0
  0
VERTEX
  5
174
330
A1
100
AcDbEntity
  8
Make2D$可见线$普通线
100
AcDbVertex
100
AcDb2dVertex
 10
264.1030773244953
 20
685.8852501938277
 30
0.0
  0
VERTEX
  5
175
330
A1
100
AcDbEntity
  8
Make2D$可见线$普通线
100
AcDbVertex
100
AcDb2dVertex
 10
264.2787375274877
 20
685.58358223583
 30
0.0
  0
VERTEX
  5
176
330
A1
100
AcDbEntity
  8
Make2D$可见线$普通线
100
AcDbVertex
100
AcDb2dVertex
 10
264.4623700994196
 20
685.2860232439184
 30
0.0
  0
VERTEX
  5
177
330
A1
100
AcDbEntity
  8
Make2D$可见线$普通线
100
AcDbVertex
100
AcDb2dVertex
 10
264.6538285651363
 20
684.9928865257772
 30
0.0
  0
VERTEX
  5
178
330
A1
100
AcDbEntity
  8
Make2D$可见线$普通线
100
AcDbVertex
100
AcDb2dVertex
 10
264.8529501455781
 20
684.7044782718674
 30
0.0
  0
VERTEX
  5
179
330
A1
100
AcDbEntity
  8
Make2D$可见线$普通线
100
AcDbVertex
100
AcDb2dVertex
 10
265.0595562019769
 20
684.4210965010944
 30
0.0
  0
VERTEX
  5
17A
330
A1
100
AcDbEntity
  8
Make2D$可见线$普通线
100
AcDbVertex
100
AcDb2dVertex
 10
265.2734527614253
 20
684.1430300407598
 30
0.0
  0
VERTEX
  5
17B
330
A1
100
AcDbEntity
  8
Make2D$可见线$普通线
100
AcDbVertex
100
AcDb2dVertex
 10
265.4944311206398
 20
683.8705575480825
 30
0.0
  0
VERTEX
  5
17C
330
A1
100
AcDbEntity
  8
Make2D$可见线$普通线
100
AcDbVertex
100
AcDb2dVertex
 10
265.7222685239942
 20
683.6039465802289
 30
0.0
  0
VERTEX
  5
17D
330
A1
100
AcDbEntity
  8
Make2D$可见线$普通线
100
AcDbVertex
100
AcDb2dVertex
 10
265.9567289112067
 20
683.3434527193625
 30
0.0
  0
VERTEX
  5
17E
330
A1
100
AcDbEntity
  8
Make2D$可见线$普通线
100
AcDbVertex
100
AcDb2dVertex
 10
266.1975637294148
 20
683.0893187587121
 30
0.0
  0
VERTEX
  5
17F
330
A1
100
AcDbEntity
  8
Make2D$可见线$普通线
100
AcDbVertex
100
AcDb2dVertex
 10
266.4445128037975
 20
682.8417739550841
 30
0.0
  0
VERTEX
  5
180
330
A1
100
AcDbEntity
  8
Make2D$可见线$普通线
100
AcDbVertex
100
AcDb2dVertex
 10
266.6973052603915
 20
682.6010333525946
 30
0.0
  0
VERTEX
  5
181
330
A1
100
AcDbEntity
  8
Make2D$可见线$普通线
100
AcDbVertex
100
AcDb2dVertex
 10
266.9556604943201
 20
682.3672971817177
 30
0.0
  0
VERTEX
  5
182
330
A1
100
AcDbEntity
  8
Make2D$可见线$普通线
100
AcDbVertex
100
AcDb2dVertex
 10
267.2192891763091
 20
682.1407503369996
 30
0.0
  0
VERTEX
  5
183
330
A1
100
AcDbEntity
  8
Make2D$可见线$普通线
100
AcDbVertex
100
AcDb2dVertex
 10
267.4883869131372
 20
681.9186464331
 30
0.0
  0
VERTEX
  5
184
330
A1
100
AcDbEntity
  8
Make2D$可见线$普通线
100
AcDbVertex
100
AcDb2dVertex
 10
267.762888873189
 20
681.7022549544403
 30
0.0
  0
VERTEX
  5
185
330
A1
100
AcDbEntity
  8
Make2D$可见线$普通线
100
AcDbVertex
100
AcDb2dVertex
 10
268.0426124227204
 20
681.4917693289531
 30
0.0
  0
VERTEX
  5
186
330
A1
100
AcDbEntity
  8
Make2D$可见线$普通线
100
AcDbVertex
100
AcDb2dVertex
 10
268.3273658350869
 20
681.2873751443368
 30
0.0
  0
VERTEX
  5
187
330
A1
100
AcDbEntity
  8
Make2D$可见线$普通线
100
AcDbVertex
100
AcDb2dVertex
 10
268.6169487156145
 20
681.08924962016
 30
0.0
  0
VERTEX
  5
188
330
A1
100
AcDbEntity
  8
Make2D$可见线$普通线
100
AcDbVertex
100
AcDb2dVertex
 10
268.9111524628769
 20
680.8975611079362
 30
0.0
  0
VERTEX
  5
189
330
A1
100
AcDbEntity
  8
Make2D$可见线$普通线
100
AcDbVertex
100
AcDb2dVertex
 10
269.2097607641988
 20
680.7124686220709
 30
0.0
  0
VERTEX
  5
18A
330
A1
100
AcDbEntity
  8
Make2D$可见线$普通线
100
AcDbVertex
100
AcDb2dVertex
 10
269.5125501229467
 20
680.5341214043881
 30
0.0
  0
VERTEX
  5
18B
330
A1
100
AcDbEntity
  8
Make2D$可见线$普通线
100
AcDbVertex
100
AcDb2dVertex
 10
269.8192904149225
 20
680.3626585247177
 30
0.0
  0
VERTEX
  5
18C
330
A1
100
AcDbEntity
  8
Make2D$可见线$普通线
100
AcDbVertex
100
AcDb2dVertex
 10
270.1297454709588
 20
680.1982085197811
 30
0.0
  0
VERTEX
  5
18D
330
A1
100
AcDbEntity
  8
Make2D$可见线$普通线
100
AcDbVertex
100
AcDb2dVertex
 10
270.4436736826221
 20
680.0408890723384
 30
0.0
  0
VERTEX
  5
18E
330
A1
100
AcDbEntity
  8
Make2D$可见线$普通线
100
AcDbVertex
100
AcDb2dVertex
 10
270.7608286277643
 20
679.8908067322819
 30
0.0
  0
VERTEX
  5
18F
330
A1
100
AcDbEntity
  8
Make2D$可见线$普通线
100
AcDbVertex
100
AcDb2dVertex
 10
271.0809597125281
 20
679.748056681048
 30
0.0
  0
VERTEX
  5
190
330
A1
100
AcDbEntity
  8
Make2D$可见线$普通线
100
AcDbVertex
100
AcDb2dVertex
 10
271.4038128263097
 20
679.6127225404155
 30
0.0
  0
VERTEX
  5
191
330
A1
100
AcDbEntity
  8
Make2D$可见线$普通线
100
AcDbVertex
100
AcDb2dVertex
 10
271.7291310061113
 20
679.484876226431
 30
0.0
  0
VERTEX
  5
192
330
A1
100
AcDbEntity
  8
Make2D$可见线$普通线
100
AcDbVertex
100
AcDb2dVertex
 10
272.0566551066767
 20
679.3645778488766
 30
0.0
  0
VERTEX
  5
193
330
A1
100
AcDbEntity
  8
Make2D$可见线$普通线
100
AcDbVertex
100
AcDb2dVertex
 10
272.3986780972016
 20
679.2470247293105
 30
0.0
  0
VERTEX
  5
194
330
A1
100
AcDbEntity
  8
Make2D$可见线$普通线
100
AcDbVertex
100
AcDb2dVertex
 10
272.7436705681157
 20
679.1365920557995
 30
0.0
  0
VERTEX
  5
195
330
A1
100
AcDbEntity
  8
Make2D$可见线$普通线
100
AcDbVertex
100
AcDb2dVertex
 10
273.0914099401573
 20
679.0333869287934
 30
0.0
  0
VERTEX
  5
196
330
A1
100
AcDbEntity
  8
Make2D$可见线$普通线
100
AcDbVertex
100
AcDb2dVertex
 10
273.4416686575661
 20
678.9375071460464
 30
0.0
  0
VERTEX
  5
197
330
A1
100
AcDbEntity
  8
Make2D$可见线$普通线
100
AcDbVertex
100
AcDb2dVertex
 10
273.7942146761733
 20
678.8490409210394
 30
0.0
  0
VERTEX
  5
198
330
A1
100
AcDbEntity
  8
Make2D$可见线$普通线
100
AcDbVertex
100
AcDb2dVertex
 10
274.1488119702108
 20
678.7680666323055
 30
0.0
  0
VERTEX
  5
199
330
A1
100
AcDbEntity
  8
Make2D$可见线$普通线
100
AcDbVertex
100
AcDb2dVertex
 10
274.5052210555401
 20
678.6946526050759
 30
0.0
  0
VERTEX
  5
19A
330
A1
100
AcDbEntity
  8
Make2D$可见线$普通线
100
AcDbVertex
100
AcDb2dVertex
 10
274.8631995268846
 20
678.6288569264815
 30
0.0
  0
VERTEX
  5
19B
330
A1
100
AcDbEntity
  8
Make2D$可见线$普通线
100
AcDbVertex
100
AcDb2dVertex
 10
275.2225026065428
 20
678.5707272953258
 30
0.0
  0
VERTEX
  5
19C
330
A1
100
AcDbEntity
  8
Make2D$可见线$普通线
100
AcDbVertex
100
AcDb2dVertex
 10
275.5828837019809
 20
678.5203009072358
 30
0.0
  0
VERTEX
  5
19D
330
A1
100
AcDbEntity
  8
Make2D$可见线$普通线
100
AcDbVertex
100
AcDb2dVertex
 10
275.9440949696358
 20
678.4776043757661
 30
0.0
  0
VERTEX
  5
19E
330
A1
100
AcDbEntity
  8
Make2D$可见线$普通线
100
AcDbVertex
100
AcDb2dVertex
 10
276.3058878822279
 20
678.4426536898103
 30
0.0
  0
VERTEX
  5
19F
330
A1
100
AcDbEntity
  8
Make2D$可见线$普通线
100
AcDbVertex
100
AcDb2dVertex
 10
276.6680137968582
 20
678.4154542074305
 30
0.0
  0
VERTEX
  5
1A0
330
A1
100
AcDbEntity
  8
Make2D$可见线$普通线
100
AcDbVertex
100
AcDb2dVertex
 10
277.0302245211744
 20
678.3960006859947
 30
0.0
  0
VERTEX
  5
1A1
330
A1
100
AcDbEntity
  8
Make2D$可见线$普通线
100
AcDbVertex
100
AcDb2dVertex
 10
277.3922728749134
 20
678.3842773482734
 30
0.0
  0
VERTEX
  5
1A2
330
A1
100
AcDbEntity
  8
Make2D$可见线$普通线
100
AcDbVertex
100
AcDb2dVertex
 10
277.7539132441811
 20
678.3802579839241
 30
0.0
  0
SEQEND
  5
1A3
330
A1
100
AcDbEntity
  8
Make2D$可见线$普通线
  0
POLYLINE
  5
1A4
330
1F
100
AcDbEntity
  8
Make2D$可见线$普通线
100
AcDb2dPolyline
 66
     1
 10
0.0
 20
0.0
 30
0.0
  0
VERTEX
  5
1A5
330
1A4
100
AcDbEntity
  8
Make2D$可见线$普通线
100
AcDbVertex
100
AcDb2dVertex
 10
290.1939172442947
 20
696.6118155194725
 30
0.0
 42
-0.1372373658733457
  0
VERTEX
  5
1A6
330
1A4
100
AcDbEntity
  8
Make2D$可见线$普通线
100
AcDbVertex
100
AcDb2dVertex
 10
291.214793665054
 20
691.0329664810695
 30
0.0
  0
VERTEX
  5
1A7
330
1A4
100
AcDbEntity
  8
Make2D$可见线$普通线
100
AcDbVertex
100
AcDb2dVertex
 10
291.1833032692861
 20
690.7225327244091
 30
0.0
  0
VERTEX
  5
1A8
330
1A4
100
AcDbEntity
  8
Make2D$可见线$普通线
100
AcDbVertex
100
AcDb2dVertex
 10
291.1456170902825
 20
690.4318956304721
 30
0.0
  0
VERTEX
  5
1A9
330
1A4
100
AcDbEntity
  8
Make2D$可见线$普通线
100
AcDbVertex
100
AcDb2dVertex
 10
291.1186148003292
 20
690.2543506856657
 30
0.0
 42
-0.035901626092546
  0
VERTEX
  5
1AA
330
1A4
100
AcDbEntity
  8
Make2D$可见线$普通线
100
AcDbVertex
100
AcDb2dVertex
 10
290.780520075219
 20
688.812774635152
 30
0.0
 42
-0.0212784732027454
  0
VERTEX
  5
1AB
330
1A4
100
AcDbEntity
  8
Make2D$可见线$普通线
100
AcDbVertex
100
AcDb2dVertex
 10
290.4916083902119
 20
688.0102582428406
 30
0.0
 42
-0.0415950202691777
  0
VERTEX
  5
1AC
330
1A4
100
AcDbEntity
  8
Make2D$可见线$普通线
100
AcDbVertex
100
AcDb2dVertex
 10
289.6129563959791
 20
686.2999455120802
 30
0.0
 42
-0.0202659079663179
  0
VERTEX
  5
1AD
330
1A4
100
AcDbEntity
  8
Make2D$可见线$普通线
100
AcDbVertex
100
AcDb2dVertex
 10
289.0509880223008
 20
685.4680672216673
 30
0.0
 42
-0.022624641515316
  0
VERTEX
  5
1AE
330
1A4
100
AcDbEntity
  8
Make2D$可见线$普通线
100
AcDbVertex
100
AcDb2dVertex
 10
288.4159940236442
 20
684.6826646503531
 30
0.0
  0
VERTEX
  5
1AF
330
1A4
100
AcDbEntity
  8
Make2D$可见线$普通线
100
AcDbVertex
100
AcDb2dVertex
 10
288.1758732603659
 20
684.4174162886268
 30
0.0
  0
VERTEX
  5
1B0
330
1A4
100
AcDbEntity
  8
Make2D$可见线$普通线
100
AcDbVertex
100
AcDb2dVertex
 10
287.9284893544982
 20
684.159127804552
 30
0.0
  0
VERTEX
  5
1B1
330
1A4
100
AcDbEntity
  8
Make2D$可见线$普通线
100
AcDbVertex
100
AcDb2dVertex
 10
287.6740310178278
 20
683.9079686619009
 30
0.0
  0
VERTEX
  5
1B2
330
1A4
100
AcDbEntity
  8
Make2D$可见线$普通线
100
AcDbVertex
100
AcDb2dVertex
 10
287.4126869621413
 20
683.6641083244456
 30
0.0
  0
VERTEX
  5
1B3
330
1A4
100
AcDbEntity
  8
Make2D$可见线$普通线
100
AcDbVertex
100
AcDb2dVertex
 10
287.1446458992253
 20
683.4277162559583
 30
0.0
  0
VERTEX
  5
1B4
330
1A4
100
AcDbEntity
  8
Make2D$可见线$普通线
100
AcDbVertex
100
AcDb2dVertex
 10
286.8700965408668
 20
683.1989619202114
 30
0.0
  0
VERTEX
  5
1B5
330
1A4
100
AcDbEntity
  8
Make2D$可见线$普通线
100
AcDbVertex
100
AcDb2dVertex
 10
286.5892275988523
 20
682.9780147809768
 30
0.0
  0
VERTEX
  5
1B6
330
1A4
100
AcDbEntity
  8
Make2D$可见线$普通线
100
AcDbVertex
100
AcDb2dVertex
 10
286.3022277849685
 20
682.7650443020268
 30
0.0
  0
VERTEX
  5
1B7
330
1A4
100
AcDbEntity
  8
Make2D$可见线$普通线
100
AcDbVertex
100
AcDb2dVertex
 10
285.9946624732518
 20
682.5502655991074
 30
0.0
  0
VERTEX
  5
1B8
330
1A4
100
AcDbEntity
  8
Make2D$可见线$普通线
100
AcDbVertex
100
AcDb2dVertex
 10
285.6809122467913
 20
682.344455255608
 30
0.0
  0
VERTEX
  5
1B9
330
1A4
100
AcDbEntity
  8
Make2D$可见线$普通线
100
AcDbVertex
100
AcDb2dVertex
 10
285.361336988069
 20
682.1476093499282
 30
0.0
  0
VERTEX
  5
1BA
330
1A4
100
AcDbEntity
  8
Make2D$可见线$普通线
100
AcDbVertex
100
AcDb2dVertex
 10
285.0362965795669
 20
681.9597239604685
 30
0.0
  0
VERTEX
  5
1BB
330
1A4
100
AcDbEntity
  8
Make2D$可见线$普通线
100
AcDbVertex
100
AcDb2dVertex
 10
284.7061509037666
 20
681.780795165629
 30
0.0
  0
VERTEX
  5
1BC
330
1A4
100
AcDbEntity
  8
Make2D$可见线$普通线
100
AcDbVertex
100
AcDb2dVertex
 10
284.3712598431503
 20
681.6108190438098
 30
0.0
  0
VERTEX
  5
1BD
330
1A4
100
AcDbEntity
  8
Make2D$可见线$普通线
100
AcDbVertex
100
AcDb2dVertex
 10
284.0319832801995
 20
681.449791673411
 30
0.0
  0
VERTEX
  5
1BE
330
1A4
100
AcDbEntity
  8
Make2D$可见线$普通线
100
AcDbVertex
100
AcDb2dVertex
 10
283.6886810973964
 20
681.2977091328329
 30
0.0
  0
VERTEX
  5
1BF
330
1A4
100
AcDbEntity
  8
Make2D$可见线$普通线
100
AcDbVertex
100
AcDb2dVertex
 10
283.3377760570521
 20
681.1530156004026
 30
0.0
  0
VERTEX
  5
1C0
330
1A4
100
AcDbEntity
  8
Make2D$可见线$普通线
100
AcDbVertex
100
AcDb2dVertex
 10
282.9833526132287
 20
681.0174838623066
 30
0.0
  0
VERTEX
  5
1C1
330
1A4
100
AcDbEntity
  8
Make2D$可见线$普通线
100
AcDbVertex
100
AcDb2dVertex
 10
282.6256408424789
 20
680.8911329913627
 30
0.0
  0
VERTEX
  5
1C2
330
1A4
100
AcDbEntity
  8
Make2D$可见线$普通线
100
AcDbVertex
100
AcDb2dVertex
 10
282.2648708213557
 20
680.7739820603884
 30
0.0
  0
VERTEX
  5
1C3
330
1A4
100
AcDbEntity
  8
Make2D$可见线$普通线
100
AcDbVertex
100
AcDb2dVertex
 10
281.9012726264117
 20
680.6660501422014
 30
0.0
  0
VERTEX
  5
1C4
330
1A4
100
AcDbEntity
  8
Make2D$可见线$普通线
100
AcDbVertex
100
AcDb2dVertex
 10
281.5350763341997
 20
680.567356309619
 30
0.0
  0
VERTEX
  5
1C5
330
1A4
100
AcDbEntity
  8
Make2D$可见线$普通线
100
AcDbVertex
100
AcDb2dVertex
 10
281.1665120212726
 20
680.477919635459
 30
0.0
  0
VERTEX
  5
1C6
330
1A4
100
AcDbEntity
  8
Make2D$可见线$普通线
100
AcDbVertex
100
AcDb2dVertex
 10
280.7958097641832
 20
680.3977591925391
 30
0.0
  0
VERTEX
  5
1C7
330
1A4
100
AcDbEntity
  8
Make2D$可见线$普通线
100
AcDbVertex
100
AcDb2dVertex
 10
280.4231996394841
 20
680.3268940536767
 30
0.0
  0
VERTEX
  5
1C8
330
1A4
100
AcDbEntity
  8
Make2D$可见线$普通线
100
AcDbVertex
100
AcDb2dVertex
 10
280.0489117237283
 20
680.2653432916896
 30
0.0
  0
VERTEX
  5
1C9
330
1A4
100
AcDbEntity
  8
Make2D$可见线$普通线
100
AcDbVertex
100
AcDb2dVertex
 10
279.6731760934686
 20
680.2131259793954
 30
0.0
  0
VERTEX
  5
1CA
330
1A4
100
AcDbEntity
  8
Make2D$可见线$普通线
100
AcDbVertex
100
AcDb2dVertex
 10
279.2962228252575
 20
680.1702611896116
 30
0.0
  0
VERTEX
  5
1CB
330
1A4
100
AcDbEntity
  8
Make2D$可见线$普通线
100
AcDbVertex
100
AcDb2dVertex
 10
278.9182819956482
 20
680.1367679951558
 30
0.0
  0
VERTEX
  5
1CC
330
1A4
100
AcDbEntity
  8
Make2D$可见线$普通线
100
AcDbVertex
100
AcDb2dVertex
 10
278.5395836811932
 20
680.1126654688455
 30
0.0
  0
VERTEX
  5
1CD
330
1A4
100
AcDbEntity
  8
Make2D$可见线$普通线
100
AcDbVertex
100
AcDb2dVertex
 10
278.1603579584454
 20
680.0979726834986
 30
0.0
  0
VERTEX
  5
1CE
330
1A4
100
AcDbEntity
  8
Make2D$可见线$普通线
100
AcDbVertex
100
AcDb2dVertex
 10
277.7808349039576
 20
680.0927087119325
 30
0.0
  0
VERTEX
  5
1CF
330
1A4
100
AcDbEntity
  8
Make2D$可见线$普通线
100
AcDbVertex
100
AcDb2dVertex
 10
277.3898799448841
 20
680.0971557299083
 30
0.0
  0
VERTEX
  5
1D0
330
1A4
100
AcDbEntity
  8
Make2D$可见线$普通线
100
AcDbVertex
100
AcDb2dVertex
 10
276.9991255820746
 20
680.1115970660944
 30
0.0
  0
VERTEX
  5
1D1
330
1A4
100
AcDbEntity
  8
Make2D$可见线$普通线
100
AcDbVertex
100
AcDb2dVertex
 10
276.6088437561538
 20
680.1360047124614
 30
0.0
  0
VERTEX
  5
1D2
330
1A4
100
AcDbEntity
  8
Make2D$可见线$普通线
100
AcDbVertex
100
AcDb2dVertex
 10
276.2193064077461
 20
680.1703506609801
 30
0.0
  0
VERTEX
  5
1D3
330
1A4
100
AcDbEntity
  8
Make2D$可见线$普通线
100
AcDbVertex
100
AcDb2dVertex
 10
275.8307854774762
 20
680.2146069036213
 30
0.0
  0
VERTEX
  5
1D4
330
1A4
100
AcDbEntity
  8
Make2D$可见线$普通线
100
AcDbVertex
100
AcDb2dVertex
 10
275.4435529059685
 20
680.2687454323557
 30
0.0
  0
VERTEX
  5
1D5
330
1A4
100
AcDbEntity
  8
Make2D$可见线$普通线
100
AcDbVertex
100
AcDb2dVertex
 10
275.0578806338477
 20
680.3327382391537
 30
0.0
  0
VERTEX
  5
1D6
330
1A4
100
AcDbEntity
  8
Make2D$可见线$普通线
100
AcDbVertex
100
AcDb2dVertex
 10
274.6740406017384
 20
680.4065573159864
 30
0.0
  0
VERTEX
  5
1D7
330
1A4
100
AcDbEntity
  8
Make2D$可见线$普通线
100
AcDbVertex
100
AcDb2dVertex
 10
274.3038129905766
 20
680.4875118101422
 30
0.0
  0
VERTEX
  5
1D8
330
1A4
100
AcDbEntity
  8
Make2D$可见线$普通线
100
AcDbVertex
100
AcDb2dVertex
 10
273.935809191714
 20
680.5777082745096
 30
0.0
  0
VERTEX
  5
1D9
330
1A4
100
AcDbEntity
  8
Make2D$可见线$普通线
100
AcDbVertex
100
AcDb2dVertex
 10
273.5702741577062
 20
680.6771739826604
 30
0.0
  0
VERTEX
  5
1DA
330
1A4
100
AcDbEntity
  8
Make2D$可见线$普通线
100
AcDbVertex
100
AcDb2dVertex
 10
273.2074528411089
 20
680.7859362081651
 30
0.0
  0
VERTEX
  5
1DB
330
1A4
100
AcDbEntity
  8
Make2D$可见线$普通线
100
AcDbVertex
100
AcDb2dVertex
 10
272.8475901944777
 20
680.9040222245953
 30
0.0
  0
VERTEX
  5
1DC
330
1A4
100
AcDbEntity
  8
Make2D$可见线$普通线
100
AcDbVertex
100
AcDb2dVertex
 10
272.4909311703684
 20
681.0314593055217
 30
0.0
  0
VERTEX
  5
1DD
330
1A4
100
AcDbEntity
  8
Make2D$可见线$普通线
100
AcDbVertex
100
AcDb2dVertex
 10
272.1377207213367
 20
681.1682747245156
 30
0.0
  0
VERTEX
  5
1DE
330
1A4
100
AcDbEntity
  8
Make2D$可见线$普通线
100
AcDbVertex
100
AcDb2dVertex
 10
271.7882037999381
 20
681.3144957551481
 30
0.0
  0
VERTEX
  5
1DF
330
1A4
100
AcDbEntity
  8
Make2D$可见线$普通线
100
AcDbVertex
100
AcDb2dVertex
 10
271.4494575959307
 20
681.4669446738295
 30
0.0
  0
VERTEX
  5
1E0
330
1A4
100
AcDbEntity
  8
Make2D$可见线$普通线
100
AcDbVertex
100
AcDb2dVertex
 10
271.1147737981564
 20
681.6283533792433
 30
0.0
  0
VERTEX
  5
1E1
330
1A4
100
AcDbEntity
  8
Make2D$可见线$普通线
100
AcDbVertex
100
AcDb2dVertex
 10
270.7844312364498
 20
681.798619776345
 30
0.0
  0
VERTEX
  5
1E2
330
1A4
100
AcDbEntity
  8
Make2D$可见线$普通线
100
AcDbVertex
100
AcDb2dVertex
 10
270.4587087406456
 20
681.9776417700909
 30
0.0
  0
VERTEX
  5
1E3
330
1A4
100
AcDbEntity
  8
Make2D$可见线$普通线
100
AcDbVertex
100
AcDb2dVertex
 10
270.1378851405785
 20
682.1653172654367
 30
0.0
  0
VERTEX
  5
1E4
330
1A4
100
AcDbEntity
  8
Make2D$可见线$普通线
100
AcDbVertex
100
AcDb2dVertex
 10
269.8222392660828
 20
682.3615441673384
 30
0.0
  0
VERTEX
  5
1E5
330
1A4
100
AcDbEntity
  8
Make2D$可见线$普通线
100
AcDbVertex
100
AcDb2dVertex
 10
269.5120499469933
 20
682.5662203807519
 30
0.0
  0
VERTEX
  5
1E6
330
1A4
100
AcDbEntity
  8
Make2D$可见线$普通线
100
AcDbVertex
100
AcDb2dVertex
 10
269.2075960131445
 20
682.7792438106333
 30
0.0
  0
VERTEX
  5
1E7
330
1A4
100
AcDbEntity
  8
Make2D$可见线$普通线
100
AcDbVertex
100
AcDb2dVertex
 10
268.909156294371
 20
683.0005123619383
 30
0.0
  0
VERTEX
  5
1E8
330
1A4
100
AcDbEntity
  8
Make2D$可见线$普通线
100
AcDbVertex
100
AcDb2dVertex
 10
268.6170096205076
 20
683.2299239396232
 30
0.0
  0
VERTEX
  5
1E9
330
1A4
100
AcDbEntity
  8
Make2D$可见线$普通线
100
AcDbVertex
100
AcDb2dVertex
 10
268.3314348213887
 20
683.4673764486437
 30
0.0
  0
VERTEX
  5
1EA
330
1A4
100
AcDbEntity
  8
Make2D$可见线$普通线
100
AcDbVertex
100
AcDb2dVertex
 10
268.052710726849
 20
683.7127677939557
 30
0.0
  0
VERTEX
  5
1EB
330
1A4
100
AcDbEntity
  8
Make2D$可见线$普通线
100
AcDbVertex
100
AcDb2dVertex
 10
267.781116166723
 20
683.9659958805153
 30
0.0
  0
VERTEX
  5
1EC
330
1A4
100
AcDbEntity
  8
Make2D$可见线$普通线
100
AcDbVertex
100
AcDb2dVertex
 10
267.5169299708455
 20
684.2269586132782
 30
0.0
  0
VERTEX
  5
1ED
330
1A4
100
AcDbEntity
  8
Make2D$可见线$普通线
100
AcDbVertex
100
AcDb2dVertex
 10
267.2604309690508
 20
684.4955538972005
 30
0.0
  0
VERTEX
  5
1EE
330
1A4
100
AcDbEntity
  8
Make2D$可见线$普通线
100
AcDbVertex
100
AcDb2dVertex
 10
267.0118979911737
 20
684.7716796372381
 30
0.0
 42
-0.0365419266494968
  0
VERTEX
  5
1EF
330
1A4
100
AcDbEntity
  8
Make2D$可见线$普通线
100
AcDbVertex
100
AcDb2dVertex
 10
265.9542506378249
 20
686.2048587582904
 30
0.0
  0
VERTEX
  5
1F0
330
1A4
100
AcDbEntity
  8
Make2D$可见线$普通线
100
AcDbVertex
100
AcDb2dVertex
 10
265.6578718953064
 20
686.698593702946
 30
0.0
 42
-0.019142045739296
  0
VERTEX
  5
1F1
330
1A4
100
AcDbEntity
  8
Make2D$可见线$普通线
100
AcDbVertex
100
AcDb2dVertex
 10
265.2436487953372
 20
687.4931807513303
 30
0.0
 42
-0.0195952836823913
  0
VERTEX
  5
1F2
330
1A4
100
AcDbEntity
  8
Make2D$可见线$普通线
100
AcDbVertex
100
AcDb2dVertex
 10
264.9264390141164
 20
688.238067294838
 30
0.0
 42
-0.0454091116462802
  0
VERTEX
  5
1F3
330
1A4
100
AcDbEntity
  8
Make2D$可见线$普通线
100
AcDbVertex
100
AcDb2dVertex
 10
264.4287550921459
 20
690.0254941892545
 30
0.0
  0
VERTEX
  5
1F4
330
1A4
100
AcDbEntity
  8
Make2D$可见线$普通线
100
AcDbVertex
100
AcDb2dVertex
 10
264.3697767964794
 20
690.3807050744128
 30
0.0
 42
-0.0370701545354956
  0
VERTEX
  5
1F5
330
1A4
100
AcDbEntity
  8
Make2D$可见线$普通线
100
AcDbVertex
100
AcDb2dVertex
 10
264.2521902014206
 20
691.9916793966688
 30
0.0
  0
VERTEX
  5
1F6
330
1A4
100
AcDbEntity
  8
Make2D$可见线$普通线
100
AcDbVertex
100
AcDb2dVertex
 10
264.267999667511
 20
692.5726879084718
 30
0.0
  0
VERTEX
  5
1F7
330
1A4
100
AcDbEntity
  8
Make2D$可见线$普通线
100
AcDbVertex
100
AcDb2dVertex
 10
264.2959936111016
 20
692.964013047875
 30
0.0
 42
-0.0424668645712109
  0
VERTEX
  5
1F8
330
1A4
100
AcDbEntity
  8
Make2D$可见线$普通线
100
AcDbVertex
100
AcDb2dVertex
 10
264.6028483536156
 20
694.7162394060026
 30
0.0
  0
VERTEX
  5
1F9
330
1A4
100
AcDbEntity
  8
Make2D$可见线$普通线
100
AcDbVertex
100
AcDb2dVertex
 10
264.6455685357298
 20
694.8724447989521
 30
0.0
 42
-0.049373220801579
  0
VERTEX
  5
1FA
330
1A4
100
AcDbEntity
  8
Make2D$可见线$普通线
100
AcDbVertex
100
AcDb2dVertex
 10
265.3819570801002
 20
696.7469538293042
 30
0.0
  0
VERTEX
  5
1FB
330
1A4
100
AcDbEntity
  8
Make2D$可见线$普通线
100
AcDbVertex
100
AcDb2dVertex
 10
265.4539412339194
 20
696.8864618603412
 30
0.0
  0
VERTEX
  5
1FC
330
1A4
100
AcDbEntity
  8
Make2D$可见线$普通线
100
AcDbVertex
100
AcDb2dVertex
 10
265.6413814897193
 20
697.2283155771011
 30
0.0
  0
VERTEX
  5
1FD
330
1A4
100
AcDbEntity
  8
Make2D$可见线$普通线
100
AcDbVertex
100
AcDb2dVertex
 10
265.8381799071904
 20
697.5654020282375
 30
0.0
  0
VERTEX
  5
1FE
330
1A4
100
AcDbEntity
  8
Make2D$可见线$普通线
100
AcDbVertex
100
AcDb2dVertex
 10
266.0449968359588
 20
697.8965638617473
 30
0.0
  0
VERTEX
  5
1FF
330
1A4
100
AcDbEntity
  8
Make2D$可见线$普通线
100
AcDbVertex
100
AcDb2dVertex
 10
266.2624926256509
 20
698.220643725627
 30
0.0
  0
VERTEX
  5
200
330
1A4
100
AcDbEntity
  8
Make2D$可见线$普通线
100
AcDbVertex
100
AcDb2dVertex
 10
266.4760174576971
 20
698.516505326829
 30
0.0
  0
VERTEX
  5
201
330
1A4
100
AcDbEntity
  8
Make2D$可见线$普通线
100
AcDbVertex
100
AcDb2dVertex
 10
266.6989969364706
 20
698.8051611248494
 30
0.0
  0
VERTEX
  5
202
330
1A4
100
AcDbEntity
  8
Make2D$可见线$普通线
100
AcDbVertex
100
AcDb2dVertex
 10
266.9309645792312
 20
699.086614229004
 30
0.0
  0
VERTEX
  5
203
330
1A4
100
AcDbEntity
  8
Make2D$可见线$普通线
100
AcDbVertex
100
AcDb2dVertex
 10
267.1714539032388
 20
699.3608677486085
 30
0.0
  0
VERTEX
  5
204
330
1A4
100
AcDbEntity
  8
Make2D$可见线$普通线
100
AcDbVertex
100
AcDb2dVertex
 10
267.4419786842093
 20
699.6507466572198
 30
0.0
  0
VERTEX
  5
205
330
1A4
100
AcDbEntity
  8
Make2D$可见线$普通线
100
AcDbVertex
100
AcDb2dVertex
 10
267.7216256042072
 20
699.9319656601238
 30
0.0
  0
VERTEX
  5
206
330
1A4
100
AcDbEntity
  8
Make2D$可见线$普通线
100
AcDbVertex
100
AcDb2dVertex
 10
268.0100020062105
 20
700.2043653242044
 30
0.0
  0
VERTEX
  5
207
330
1A4
100
AcDbEntity
  8
Make2D$可见线$普通线
100
AcDbVertex
100
AcDb2dVertex
 10
268.3067152331972
 20
700.4677862163459
 30
0.0
  0
VERTEX
  5
208
330
1A4
100
AcDbEntity
  8
Make2D$可见线$普通线
100
AcDbVertex
100
AcDb2dVertex
 10
268.6113726281453
 20
700.722068903432
 30
0.0
  0
VERTEX
  5
209
330
1A4
100
AcDbEntity
  8
Make2D$可见线$普通线
100
AcDbVertex
100
AcDb2dVertex
 10
268.9235815340327
 20
700.9670539523469
 30
0.0
  0
VERTEX
  5
20A
330
1A4
100
AcDbEntity
  8
Make2D$可见线$普通线
100
AcDbVertex
100
AcDb2dVertex
 10
269.2429492938375
 20
701.2025819299745
 30
0.0
  0
VERTEX
  5
20B
330
1A4
100
AcDbEntity
  8
Make2D$可见线$普通线
100
AcDbVertex
100
AcDb2dVertex
 10
269.5690832505376
 20
701.4284934031988
 30
0.0
  0
VERTEX
  5
20C
330
1A4
100
AcDbEntity
  8
Make2D$可见线$普通线
100
AcDbVertex
100
AcDb2dVertex
 10
269.9097241730055
 20
701.6497556057087
 30
0.0
  0
VERTEX
  5
20D
330
1A4
100
AcDbEntity
  8
Make2D$可见线$普通线
100
AcDbVertex
100
AcDb2dVertex
 10
270.2567203661348
 20
701.8607198693234
 30
0.0
  0
VERTEX
  5
20E
330
1A4
100
AcDbEntity
  8
Make2D$可见线$普通线
100
AcDbVertex
100
AcDb2dVertex
 10
270.6097415126145
 20
702.0613428219337
 30
0.0
  0
VERTEX
  5
20F
330
1A4
100
AcDbEntity
  8
Make2D$可见线$普通线
100
AcDbVertex
100
AcDb2dVertex
 10
270.9684572951336
 20
702.251581091431
 30
0.0
  0
VERTEX
  5
210
330
1A4
100
AcDbEntity
  8
Make2D$可见线$普通线
100
AcDbVertex
100
AcDb2dVertex
 10
271.3325373963813
 20
702.4313913057063
 30
0.0
  0
VERTEX
  5
211
330
1A4
100
AcDbEntity
  8
Make2D$可见线$普通线
100
AcDbVertex
100
AcDb2dVertex
 10
271.7016514990466
 20
702.6007300926503
 30
0.0
  0
VERTEX
  5
212
330
1A4
100
AcDbEntity
  8
Make2D$可见线$普通线
100
AcDbVertex
100
AcDb2dVertex
 10
272.0754692858187
 20
702.7595540801542
 30
0.0
  0
VERTEX
  5
213
330
1A4
100
AcDbEntity
  8
Make2D$可见线$普通线
100
AcDbVertex
100
AcDb2dVertex
 10
272.4536604393866
 20
702.9078198961093
 30
0.0
  0
VERTEX
  5
214
330
1A4
100
AcDbEntity
  8
Make2D$可见线$普通线
100
AcDbVertex
100
AcDb2dVertex
 10
272.8358946424394
 20
703.0454841684063
 30
0.0
  0
VERTEX
  5
215
330
1A4
100
AcDbEntity
  8
Make2D$可见线$普通线
100
AcDbVertex
100
AcDb2dVertex
 10
273.2218415776662
 20
703.1725035249365
 30
0.0
  0
VERTEX
  5
216
330
1A4
100
AcDbEntity
  8
Make2D$可见线$普通线
100
AcDbVertex
100
AcDb2dVertex
 10
273.611170927756
 20
703.2888345935905
 30
0.0
  0
VERTEX
  5
217
330
1A4
100
AcDbEntity
  8
Make2D$可见线$普通线
100
AcDbVertex
100
AcDb2dVertex
 10
274.0035523753981
 20
703.3944340022596
 30
0.0
  0
VERTEX
  5
218
330
1A4
100
AcDbEntity
  8
Make2D$可见线$普通线
100
AcDbVertex
100
AcDb2dVertex
 10
274.3986556032814
 20
703.4892583788348
 30
0.0
  0
VERTEX
  5
219
330
1A4
100
AcDbEntity
  8
Make2D$可见线$普通线
100
AcDbVertex
100
AcDb2dVertex
 10
274.796150294095
 20
703.5732643512072
 30
0.0
  0
VERTEX
  5
21A
330
1A4
100
AcDbEntity
  8
Make2D$可见线$普通线
100
AcDbVertex
100
AcDb2dVertex
 10
275.1957061305281
 20
703.6464085472678
 30
0.0
  0
VERTEX
  5
21B
330
1A4
100
AcDbEntity
  8
Make2D$可见线$普通线
100
AcDbVertex
100
AcDb2dVertex
 10
275.5969927952697
 20
703.7086475949077
 30
0.0
  0
VERTEX
  5
21C
330
1A4
100
AcDbEntity
  8
Make2D$可见线$普通线
100
AcDbVertex
100
AcDb2dVertex
 10
275.7996637280821
 20
703.7417356754611
 30
0.0
  0
VERTEX
  5
21D
330
1A4
100
AcDbEntity
  8
Make2D$可见线$普通线
100
AcDbVertex
100
AcDb2dVertex
 10
276.0492873982265
 20
703.7861278485896
 30
0.0
  0
VERTEX
  5
21E
330
1A4
100
AcDbEntity
  8
Make2D$可见线$普通线
100
AcDbVertex
100
AcDb2dVertex
 10
276.1577363796689
 20
703.8034574729783
 30
0.0
 42
-0.0368731934165955
  0
VERTEX
  5
21F
330
1A4
100
AcDbEntity
  8
Make2D$可见线$普通线
100
AcDbVertex
100
AcDb2dVertex
 10
277.7539471813308
 20
703.8628288423998
 30
0.0
  0
VERTEX
  5
220
330
1A4
100
AcDbEntity
  8
Make2D$可见线$普通线
100
AcDbVertex
100
AcDb2dVertex
 10
278.0723395808174
 20
703.8639595417592
 30
0.0
  0
VERTEX
  5
221
330
1A4
100
AcDbEntity
  8
Make2D$可见线$普通线
100
AcDbVertex
100
AcDb2dVertex
 10
278.5475421403725
 20
703.8616437968926
 30
0.0
 42
-0.0312064390036601
  0
VERTEX
  5
222
330
1A4
100
AcDbEntity
  8
Make2D$可见线$普通线
100
AcDbVertex
100
AcDb2dVertex
 10
279.3390205742052
 20
703.8037848331194
 30
0.0
  0
VERTEX
  5
223
330
1A4
100
AcDbEntity
  8
Make2D$可见线$普通线
100
AcDbVertex
100
AcDb2dVertex
 10
279.5564606234108
 20
703.7682663734602
 30
0.0
  0
VERTEX
  5
224
330
1A4
100
AcDbEntity
  8
Make2D$可见线$普通线
100
AcDbVertex
100
AcDb2dVertex
 10
279.6590232194798
 20
703.7501198106343
 30
0.0
  0
VERTEX
  5
225
330
1A4
100
AcDbEntity
  8
Make2D$可见线$普通线
100
AcDbVertex
100
AcDb2dVertex
 10
279.911749339999
 20
703.7085100470986
 30
0.0
 42
-0.1598473187014524
  0
VERTEX
  5
226
330
1A4
100
AcDbEntity
  8
Make2D$可见线$普通线
100
AcDbVertex
100
AcDb2dVertex
 10
287.8269297282701
 20
699.8947730118268
 30
0.0
  0
VERTEX
  5
227
330
1A4
100
AcDbEntity
  8
Make2D$可见线$普通线
100
AcDbVertex
100
AcDb2dVertex
 10
288.1309760675313
 20
699.5858811544318
 30
0.0
 42
-0.0726893242093459
  0
VERTEX
  5
228
330
1A4
100
AcDbEntity
  8
Make2D$可见线$普通线
100
AcDbVertex
100
AcDb2dVertex
 10
290.15190775509
 20
696.6964711525139
 30
0.0
  0
SEQEND
  5
229
330
1A4
100
AcDbEntity
  8
Make2D$可见线$普通线
  0
POLYLINE
  5
22A
330
1F
100
AcDbEntity
  8
Make2D$可见线$普通线
100
AcDb2dPolyline
 66
     1
 10
0.0
 20
0.0
 30
0.0
  0
VERTEX
  5
22B
330
22A
100
AcDbEntity
  8
Make2D$可见线$普通线
100
AcDbVertex
100
AcDb2dVertex
 10
294.2539360049843
 20
701.72661280138
 30
0.0
  0
VERTEX
  5
22C
330
22A
100
AcDbEntity
  8
Make2D$可见线$普通线
100
AcDbVertex
100
AcDb2dVertex
 10
294.2539360048992
 20
722.8073846361701
 30
0.0
  0
VERTEX
  5
22D
330
22A
100
AcDbEntity
  8
Make2D$可见线$普通线
100
AcDbVertex
100
AcDb2dVertex
 10
261.2539360050652
 20
722.8073846361701
 30
0.0
  0
VERTEX
  5
22E
330
22A
100
AcDbEntity
  8
Make2D$可见线$普通线
100
AcDbVertex
100
AcDb2dVertex
 10
261.2539360049821
 20
701.7268212132053
 30
0.0
  0
SEQEND
  5
22F
330
22A
100
AcDbEntity
  8
Make2D$可见线$普通线
  0
POLYLINE
  5
230
330
1F
100
AcDbEntity
  8
Make2D$可见线$普通线
100
AcDb2dPolyline
 66
     1
 10
0.0
 20
0.0
 30
0.0
  0
VERTEX
  5
231
330
230
100
AcDbEntity
  8
Make2D$可见线$普通线
100
AcDbVertex
100
AcDb2dVertex
 10
261.2539360049821
 20
682.2343198791639
 30
0.0
  0
VERTEX
  5
232
330
230
100
AcDbEntity
  8
Make2D$可见线$普通线
100
AcDbVertex
100
AcDb2dVertex
 10
261.253936004981
 20
536.3615409395907
 30
0.0
  0
VERTEX
  5
233
330
230
100
AcDbEntity
  8
Make2D$可见线$普通线
100
AcDbVertex
100
AcDb2dVertex
 10
261.2557998245728
 20
534.9031103230587
 30
0.0
  0
VERTEX
  5
234
330
230
100
AcDbEntity
  8
Make2D$可见线$普通线
100
AcDbVertex
100
AcDb2dVertex
 10
261.237690081298
 20
533.4446545286827
 30
0.0
  0
VERTEX
  5
235
330
230
100
AcDbEntity
  8
Make2D$可见线$普通线
100
AcDbVertex
100
AcDb2dVertex
 10
261.1996090603678
 20
531.9865838555532
 30
0.0
  0
VERTEX
  5
236
330
230
100
AcDbEntity
  8
Make2D$可见线$普通线
100
AcDbVertex
100
AcDb2dVertex
 10
261.1415702823236
 20
530.5293083861026
 30
0.0
  0
VERTEX
  5
237
330
230
100
AcDbEntity
  8
Make2D$可见线$普通线
100
AcDbVertex
100
AcDb2dVertex
 10
261.1007830421905
 20
529.8472616710418
 30
0.0
  0
VERTEX
  5
238
330
230
100
AcDbEntity
  8
Make2D$可见线$普通线
100
AcDbVertex
100
AcDb2dVertex
 10
261.0497489753379
 20
529.1656734760159
 30
0.0
  0
VERTEX
  5
239
330
230
100
AcDbEntity
  8
Make2D$可见线$普通线
100
AcDbVertex
100
AcDb2dVertex
 10
260.9884766750249
 20
528.4847746274058
 30
0.0
  0
VERTEX
  5
23A
330
230
100
AcDbEntity
  8
Make2D$可见线$普通线
100
AcDbVertex
100
AcDb2dVertex
 10
260.916981665557
 20
527.8047956935625
 30
0.0
  0
VERTEX
  5
23B
330
230
100
AcDbEntity
  8
Make2D$可见线$普通线
100
AcDbVertex
100
AcDb2dVertex
 10
260.8352863906498
 20
527.1259667247438
 30
0.0
  0
VERTEX
  5
23C
330
230
100
AcDbEntity
  8
Make2D$可见线$普通线
100
AcDbVertex
100
AcDb2dVertex
 10
260.7434201900887
 20
526.4485169937537
 30
0.0
  0
VERTEX
  5
23D
330
230
100
AcDbEntity
  8
Make2D$可见线$普通线
100
AcDbVertex
100
AcDb2dVertex
 10
260.6414192647372
 20
525.772674737894
 30
0.0
  0
VERTEX
  5
23E
330
230
100
AcDbEntity
  8
Make2D$可见线$普通线
100
AcDbVertex
100
AcDb2dVertex
 10
260.5293266299789
 20
525.0986669028387
 30
0.0
  0
VERTEX
  5
23F
330
230
100
AcDbEntity
  8
Make2D$可见线$普通线
100
AcDbVertex
100
AcDb2dVertex
 10
260.3479902468354
 20
524.1641676688398
 30
0.0
  0
VERTEX
  5
240
330
230
100
AcDbEntity
  8
Make2D$可见线$普通线
100
AcDbVertex
100
AcDb2dVertex
 10
260.1481019471938
 20
523.2328889746195
 30
0.0
  0
VERTEX
  5
241
330
230
100
AcDbEntity
  8
Make2D$可见线$普通线
100
AcDbVertex
100
AcDb2dVertex
 10
259.9297518492793
 20
522.3053822603368
 30
0.0
  0
VERTEX
  5
242
330
230
100
AcDbEntity
  8
Make2D$可见线$普通线
100
AcDbVertex
100
AcDb2dVertex
 10
259.6930518907817
 20
521.3821954003402
 30
0.0
  0
VERTEX
  5
243
330
230
100
AcDbEntity
  8
Make2D$可见线$普通线
100
AcDbVertex
100
AcDb2dVertex
 10
259.438135641833
 20
520.463871625822
 30
0.0
  0
VERTEX
  5
244
330
230
100
AcDbEntity
  8
Make2D$可见线$普通线
100
AcDbVertex
100
AcDb2dVertex
 10
259.165158054286
 20
519.5509484598349
 30
0.0
  0
VERTEX
  5
245
330
230
100
AcDbEntity
  8
Make2D$可见线$普通线
100
AcDbVertex
100
AcDb2dVertex
 10
258.874295148281
 20
518.643956669049
 30
0.0
  0
VERTEX
  5
246
330
230
100
AcDbEntity
  8
Make2D$可见线$普通线
100
AcDbVertex
100
AcDb2dVertex
 10
258.5657436374291
 20
517.7434192365417
 30
0.0
 42
-0.0062714750148994
  0
VERTEX
  5
247
330
230
100
AcDbEntity
  8
Make2D$可见线$普通线
100
AcDbVertex
100
AcDb2dVertex
 10
256.1803886416993
 20
511.4054226335244
 30
0.0
 42
0.0398767356391007
  0
VERTEX
  5
248
330
230
100
AcDbEntity
  8
Make2D$可见线$普通线
100
AcDbVertex
100
AcDb2dVertex
 10
254.5953189853271
 20
506.1666587220294
 30
0.0
 42
0.0494108346704008
  0
VERTEX
  5
249
330
230
100
AcDbEntity
  8
Make2D$可见线$普通线
100
AcDbVertex
100
AcDb2dVertex
 10
254.2539360049805
 20
502.096322443271
 30
0.0
  0
VERTEX
  5
24A
330
230
100
AcDbEntity
  8
Make2D$可见线$普通线
100
AcDbVertex
100
AcDb2dVertex
 10
254.2674978906831
 20
493.5963224432705
 30
0.0
  0
VERTEX
  5
24B
330
230
100
AcDbEntity
  8
Make2D$可见线$普通线
100
AcDbVertex
100
AcDb2dVertex
 10
301.2422566336431
 20
493.5963224432704
 30
0.0
  0
VERTEX
  5
24C
330
230
100
AcDbEntity
  8
Make2D$可见线$普通线
100
AcDbVertex
100
AcDb2dVertex
 10
301.2539360049832
 20
502.096322443271
 30
0.0
 42
0.0494108346703714
  0
VERTEX
  5
24D
330
230
100
AcDbEntity
  8
Make2D$可见线$普通线
100
AcDbVertex
100
AcDb2dVertex
 10
300.9125530246365
 20
506.1666587220294
 30
0.0
 42
0.039876735639091
  0
VERTEX
  5
24E
330
230
100
AcDbEntity
  8
Make2D$可见线$普通线
100
AcDbVertex
100
AcDb2dVertex
 10
299.3274833682642
 20
511.4054226335244
 30
0.0
 42
-0.0062714750148535
  0
VERTEX
  5
24F
330
230
100
AcDbEntity
  8
Make2D$可见线$普通线
100
AcDbVertex
100
AcDb2dVertex
 10
296.9421283725344
 20
517.7434192365417
 30
0.0
  0
VERTEX
  5
250
330
230
100
AcDbEntity
  8
Make2D$可见线$普通线
100
AcDbVertex
100
AcDb2dVertex
 10
296.633576825146
 20
518.6439568665136
 30
0.0
  0
VERTEX
  5
251
330
230
100
AcDbEntity
  8
Make2D$可见线$普通线
100
AcDbVertex
100
AcDb2dVertex
 10
296.3427138931955
 20
519.5509487980107
 30
0.0
  0
VERTEX
  5
252
330
230
100
AcDbEntity
  8
Make2D$可见线$普通线
100
AcDbVertex
100
AcDb2dVertex
 10
296.0697362902211
 20
520.4638720480355
 30
0.0
  0
VERTEX
  5
253
330
230
100
AcDbEntity
  8
Make2D$可见线$普通线
100
AcDbVertex
100
AcDb2dVertex
 10
295.8148200362874
 20
521.3821958500682
 30
0.0
  0
VERTEX
  5
254
330
230
100
AcDbEntity
  8
Make2D$可见线$普通线
100
AcDbVertex
100
AcDb2dVertex
 10
295.5781200831692
 20
522.305382681277
 30
0.0
  0
VERTEX
  5
255
330
230
100
AcDbEntity
  8
Make2D$可见线$普通线
100
AcDbVertex
100
AcDb2dVertex
 10
295.3597700009184
 20
523.2328893107593
 30
0.0
  0
VERTEX
  5
256
330
230
100
AcDbEntity
  8
Make2D$可见线$普通线
100
AcDbVertex
100
AcDb2dVertex
 10
295.1598817271429
 20
524.1641678645248
 30
0.0
  0
VERTEX
  5
257
330
230
100
AcDbEntity
  8
Make2D$可见线$普通线
100
AcDbVertex
100
AcDb2dVertex
 10
294.9785453799846
 20
525.0986669028387
 30
0.0
  0
VERTEX
  5
258
330
230
100
AcDbEntity
  8
Make2D$可见线$普通线
100
AcDbVertex
100
AcDb2dVertex
 10
294.8664527452263
 20
525.7726747378939
 30
0.0
  0
VERTEX
  5
259
330
230
100
AcDbEntity
  8
Make2D$可见线$普通线
100
AcDbVertex
100
AcDb2dVertex
 10
294.7644518198748
 20
526.4485169937536
 30
0.0
  0
VERTEX
  5
25A
330
230
100
AcDbEntity
  8
Make2D$可见线$普通线
100
AcDbVertex
100
AcDb2dVertex
 10
294.6725856193137
 20
527.1259667247438
 30
0.0
  0
VERTEX
  5
25B
330
230
100
AcDbEntity
  8
Make2D$可见线$普通线
100
AcDbVertex
100
AcDb2dVertex
 10
294.5908903444064
 20
527.8047956935625
 30
0.0
  0
VERTEX
  5
25C
330
230
100
AcDbEntity
  8
Make2D$可见线$普通线
100
AcDbVertex
100
AcDb2dVertex
 10
294.5193953349385
 20
528.484774627406
 30
0.0
  0
VERTEX
  5
25D
330
230
100
AcDbEntity
  8
Make2D$可见线$普通线
100
AcDbVertex
100
AcDb2dVertex
 10
294.4581230346255
 20
529.1656734760159
 30
0.0
  0
VERTEX
  5
25E
330
230
100
AcDbEntity
  8
Make2D$可见线$普通线
100
AcDbVertex
100
AcDb2dVertex
 10
294.407088967773
 20
529.8472616710417
 30
0.0
  0
VERTEX
  5
25F
330
230
100
AcDbEntity
  8
Make2D$可见线$普通线
100
AcDbVertex
100
AcDb2dVertex
 10
294.3663017276399
 20
530.5293083861026
 30
0.0
  0
VERTEX
  5
260
330
230
100
AcDbEntity
  8
Make2D$可见线$普通线
100
AcDbVertex
100
AcDb2dVertex
 10
294.3082629374302
 20
531.9865841161734
 30
0.0
  0
VERTEX
  5
261
330
230
100
AcDbEntity
  8
Make2D$可见线$普通线
100
AcDbVertex
100
AcDb2dVertex
 10
294.2701819124427
 20
533.4446548763226
 30
0.0
  0
VERTEX
  5
262
330
230
100
AcDbEntity
  8
Make2D$可见线$普通线
100
AcDbVertex
100
AcDb2dVertex
 10
294.2520721732244
 20
534.9031105838744
 30
0.0
  0
VERTEX
  5
263
330
230
100
AcDbEntity
  8
Make2D$可见线$普通线
100
AcDbVertex
100
AcDb2dVertex
 10
294.2539360049831
 20
536.3615409395907
 30
0.0
  0
VERTEX
  5
264
330
230
100
AcDbEntity
  8
Make2D$可见线$普通线
100
AcDbVertex
100
AcDb2dVertex
 10
294.2539360049841
 20
682.2343155590073
 30
0.0
  0
SEQEND
  5
265
330
230
100
AcDbEntity
  8
Make2D$可见线$普通线
  0
POLYLINE
  5
266
330
1F
100
AcDbEntity
  8
Make2D$可见线$普通线
100
AcDb2dPolyline
 66
     1
 10
0.0
 20
0.0
 30
0.0
  0
VERTEX
  5
267
330
266
100
AcDbEntity
  8
Make2D$可见线$普通线
100
AcDbVertex
100
AcDb2dVertex
 10
264.7109465730924
 20
684.4713042836703
 30
0.0
  0
VERTEX
  5
268
330
266
100
AcDbEntity
  8
Make2D$可见线$普通线
100
AcDbVertex
100
AcDb2dVertex
 10
265.10003536444
 20
683.955479274344
 30
0.0
  0
VERTEX
  5
269
330
266
100
AcDbEntity
  8
Make2D$可见线$普通线
100
AcDbVertex
100
AcDb2dVertex
 10
265.1407340592063
 20
683.904323122602
 30
0.0
 42
0.0217845713412721
  0
VERTEX
  5
26A
330
266
100
AcDbEntity
  8
Make2D$可见线$普通线
100
AcDbVertex
100
AcDb2dVertex
 10
265.9527249427036
 20
682.9751789990083
 30
0.0
  0
VERTEX
  5
26B
330
266
100
AcDbEntity
  8
Make2D$可见线$普通线
100
AcDbVertex
100
AcDb2dVertex
 10
266.0396341124337
 20
682.8848090943291
 30
0.0
 42
0.0244984677713176
  0
VERTEX
  5
26C
330
266
100
AcDbEntity
  8
Make2D$可见线$普通线
100
AcDbVertex
100
AcDb2dVertex
 10
267.0899174066899
 20
681.9037361902647
 30
0.0
  0
VERTEX
  5
26D
330
266
100
AcDbEntity
  8
Make2D$可见线$普通线
100
AcDbVertex
100
AcDb2dVertex
 10
267.1558168120875
 20
681.8480556073141
 30
0.0
 42
0.0443527679498524
  0
VERTEX
  5
26E
330
266
100
AcDbEntity
  8
Make2D$可见线$普通线
100
AcDbVertex
100
AcDb2dVertex
 10
269.3935622165573
 20
680.2873432531665
 30
0.0
  0
VERTEX
  5
26F
330
266
100
AcDbEntity
  8
Make2D$可见线$普通线
100
AcDbVertex
100
AcDb2dVertex
 10
270.1251418852206
 20
679.8924127092023
 30
0.0
 42
0.0706922669633879
  0
VERTEX
  5
270
330
266
100
AcDbEntity
  8
Make2D$可见线$普通线
100
AcDbVertex
100
AcDb2dVertex
 10
274.570208648688
 20
678.3939747900279
 30
0.0
 42
0.0230766874962493
  0
VERTEX
  5
271
330
266
100
AcDbEntity
  8
Make2D$可见线$普通线
100
AcDbVertex
100
AcDb2dVertex
 10
276.1535342647659
 20
678.1710657978673
 30
0.0
  0
VERTEX
  5
272
330
266
100
AcDbEntity
  8
Make2D$可见线$普通线
100
AcDbVertex
100
AcDb2dVertex
 10
276.2685549331773
 20
678.160648106151
 30
0.0
  0
VERTEX
  5
273
330
266
100
AcDbEntity
  8
Make2D$可见线$普通线
100
AcDbVertex
100
AcDb2dVertex
 10
276.6857448290648
 20
678.1293679427935
 30
0.0
 42
0.0156494524568227
  0
VERTEX
  5
274
330
266
100
AcDbEntity
  8
Make2D$可见线$普通线
100
AcDbVertex
100
AcDb2dVertex
 10
277.753920232696
 20
678.0957594324672
 30
0.0
 42
0.0308892597055584
  0
VERTEX
  5
275
330
266
100
AcDbEntity
  8
Make2D$可见线$普通线
100
AcDbVertex
100
AcDb2dVertex
 10
279.8765388225939
 20
678.2281552152571
 30
0.0
  0
VERTEX
  5
276
330
266
100
AcDbEntity
  8
Make2D$可见线$普通线
100
AcDbVertex
100
AcDb2dVertex
 10
280.6875776441927
 20
678.3487546387693
 30
0.0
  0
VERTEX
  5
277
330
266
100
AcDbEntity
  8
Make2D$可见线$普通线
100
AcDbVertex
100
AcDb2dVertex
 10
280.8394262969356
 20
678.3757227955745
 30
0.0
  0
VERTEX
  5
278
330
266
100
AcDbEntity
  8
Make2D$可见线$普通线
100
AcDbVertex
100
AcDb2dVertex
 10
281.7905840411113
 20
678.5768701159269
 30
0.0
 42
0.0487091772461492
  0
VERTEX
  5
279
330
266
100
AcDbEntity
  8
Make2D$可见线$普通线
100
AcDbVertex
100
AcDb2dVertex
 10
284.8475646609133
 20
679.6336816176342
 30
0.0
 42
0.0223472483175523
  0
VERTEX
  5
27A
330
266
100
AcDbEntity
  8
Make2D$可见线$普通线
100
AcDbVertex
100
AcDb2dVertex
 10
286.1142952733633
 20
680.2873508105813
 30
0.0
 42
0.0443467310255396
  0
VERTEX
  5
27B
330
266
100
AcDbEntity
  8
Make2D$可见线$普通线
100
AcDbVertex
100
AcDb2dVertex
 10
288.3517206261434
 20
681.8478299018659
 30
0.0
  0
VERTEX
  5
27C
330
266
100
AcDbEntity
  8
Make2D$可见线$普通线
100
AcDbVertex
100
AcDb2dVertex
 10
288.4178547938084
 20
681.9037081705646
 30
0.0
 42
0.023235841403984
  0
VERTEX
  5
27D
330
266
100
AcDbEntity
  8
Make2D$可见线$普通线
100
AcDbVertex
100
AcDb2dVertex
 10
289.4299398763031
 20
682.8457849348964
 30
0.0
 42
0.0225233309256849
  0
VERTEX
  5
27E
330
266
100
AcDbEntity
  8
Make2D$可见线$普通线
100
AcDbVertex
100
AcDb2dVertex
 10
290.2811141586419
 20
683.7974516762536
 30
0.0
 42
0.0221589158100948
  0
VERTEX
  5
27F
330
266
100
AcDbEntity
  8
Make2D$可见线$普通线
100
AcDbVertex
100
AcDb2dVertex
 10
291.0024785571291
 20
684.7659653493965
 30
0.0
  0
VERTEX
  5
280
330
266
100
AcDbEntity
  8
Make2D$可见线$普通线
100
AcDbVertex
100
AcDb2dVertex
 10
291.1990562980591
 20
685.0645064384144
 30
0.0
  0
VERTEX
  5
281
330
266
100
AcDbEntity
  8
Make2D$可见线$普通线
100
AcDbVertex
100
AcDb2dVertex
 10
291.4354031487446
 20
685.4483674538961
 30
0.0
  0
VERTEX
  5
282
330
266
100
AcDbEntity
  8
Make2D$可见线$普通线
100
AcDbVertex
100
AcDb2dVertex
 10
291.7988644256858
 20
686.1042601703679
 30
0.0
  0
VERTEX
  5
283
330
266
100
AcDbEntity
  8
Make2D$可见线$普通线
100
AcDbVertex
100
AcDb2dVertex
 10
291.9111016248419
 20
686.3267102103109
 30
0.0
  0
VERTEX
  5
284
330
266
100
AcDbEntity
  8
Make2D$可见线$普通线
100
AcDbVertex
100
AcDb2dVertex
 10
292.0528612249714
 20
686.6248449623981
 30
0.0
 42
0.0397142482143439
  0
VERTEX
  5
285
330
266
100
AcDbEntity
  8
Make2D$可见线$普通线
100
AcDbVertex
100
AcDb2dVertex
 10
292.7872455525331
 20
688.6247307155368
 30
0.0
  0
VERTEX
  5
286
330
266
100
AcDbEntity
  8
Make2D$可见线$普通线
100
AcDbVertex
100
AcDb2dVertex
 10
292.8969644295703
 20
689.0464819573043
 30
0.0
  0
VERTEX
  5
287
330
266
100
AcDbEntity
  8
Make2D$可见线$普通线
100
AcDbVertex
100
AcDb2dVertex
 10
292.9818835342429
 20
689.4211877184568
 30
0.0
  0
VERTEX
  5
288
330
266
100
AcDbEntity
  8
Make2D$可见线$普通线
100
AcDbVertex
100
AcDb2dVertex
 10
293.1137714058231
 20
690.1500782400726
 30
0.0
 42
0.0373696979855099
  0
VERTEX
  5
289
330
266
100
AcDbEntity
  8
Make2D$可见线$普通线
100
AcDbVertex
100
AcDb2dVertex
 10
293.2540507784703
 20
692.0003564887585
 30
0.0
  0
VERTEX
  5
28A
330
266
100
AcDbEntity
  8
Make2D$可见线$普通线
100
AcDbVertex
100
AcDb2dVertex
 10
293.2292340032244
 20
692.745496061928
 30
0.0
 42
0.0431601864152081
  0
VERTEX
  5
28B
330
266
100
AcDbEntity
  8
Make2D$可见线$普通线
100
AcDbVertex
100
AcDb2dVertex
 10
292.9033002520505
 20
694.892610390765
 30
0.0
  0
VERTEX
  5
28C
330
266
100
AcDbEntity
  8
Make2D$可见线$普通线
100
AcDbVertex
100
AcDb2dVertex
 10
292.8003451769192
 20
695.2921046513202
 30
0.0
 42
0.1253169288420963
  0
VERTEX
  5
28D
330
266
100
AcDbEntity
  8
Make2D$可见线$普通线
100
AcDbVertex
100
AcDb2dVertex
 10
289.5364083426815
 20
701.0024276515043
 30
0.0
  0
VERTEX
  5
28E
330
266
100
AcDbEntity
  8
Make2D$可见线$普通线
100
AcDbVertex
100
AcDb2dVertex
 10
289.4578863048144
 20
701.0838599925182
 30
0.0
 42
0.0174841458353538
  0
VERTEX
  5
28F
330
266
100
AcDbEntity
  8
Make2D$可见线$普通线
100
AcDbVertex
100
AcDb2dVertex
 10
288.7205874318312
 20
701.791086020661
 30
0.0
  0
VERTEX
  5
290
330
266
100
AcDbEntity
  8
Make2D$可见线$普通线
100
AcDbVertex
100
AcDb2dVertex
 10
288.4094986758363
 20
702.0616247605496
 30
0.0
 42
0.0161495960386265
  0
VERTEX
  5
291
330
266
100
AcDbEntity
  8
Make2D$可见线$普通线
100
AcDbVertex
100
AcDb2dVertex
 10
287.6482331366384
 20
702.666251710886
 30
0.0
  0
VERTEX
  5
292
330
266
100
AcDbEntity
  8
Make2D$可见线$普通线
100
AcDbVertex
100
AcDb2dVertex
 10
287.3008480393907
 20
702.9169232611473
 30
0.0
 42
0.0429475295705683
  0
VERTEX
  5
293
330
266
100
AcDbEntity
  8
Make2D$可见线$普通线
100
AcDbVertex
100
AcDb2dVertex
 10
284.9543382403007
 20
704.2748333078752
 30
0.0
 42
0.024087670373713
  0
VERTEX
  5
294
330
266
100
AcDbEntity
  8
Make2D$可见线$普通线
100
AcDbVertex
100
AcDb2dVertex
 10
283.5174943238869
 20
704.8672554869858
 30
0.0
 42
0.0191341856814777
  0
VERTEX
  5
295
330
266
100
AcDbEntity
  8
Make2D$可见线$普通线
100
AcDbVertex
100
AcDb2dVertex
 10
282.2903880367672
 20
705.2537714470318
 30
0.0
  0
VERTEX
  5
296
330
266
100
AcDbEntity
  8
Make2D$可见线$普通线
100
AcDbVertex
100
AcDb2dVertex
 10
282.1213500052864
 20
705.2990784064663
 30
0.0
 42
0.037067394164745
  0
VERTEX
  5
297
330
266
100
AcDbEntity
  8
Make2D$可见线$普通线
100
AcDbVertex
100
AcDb2dVertex
 10
279.6133480286386
 20
705.7616636506726
 30
0.0
  0
VERTEX
  5
298
330
266
100
AcDbEntity
  8
Make2D$可见线$普通线
100
AcDbVertex
100
AcDb2dVertex
 10
279.2271412623805
 20
705.7993137610315
 30
0.0
 42
0.0430339646271241
  0
VERTEX
  5
299
330
266
100
AcDbEntity
  8
Make2D$可见线$普通线
100
AcDbVertex
100
AcDb2dVertex
 10
276.2807689282006
 20
705.7993232364265
 30
0.0
  0
VERTEX
  5
29A
330
266
100
AcDbEntity
  8
Make2D$可见线$普通线
100
AcDbVertex
100
AcDb2dVertex
 10
275.8933812722149
 20
705.7615478936929
 30
0.0
 42
0.0370510626768043
  0
VERTEX
  5
29B
330
266
100
AcDbEntity
  8
Make2D$可见线$普通线
100
AcDbVertex
100
AcDb2dVertex
 10
273.38655684233
 20
705.2991116258138
 30
0.0
  0
VERTEX
  5
29C
330
266
100
AcDbEntity
  8
Make2D$可见线$普通线
100
AcDbVertex
100
AcDb2dVertex
 10
273.2208054735731
 20
705.2547042824806
 30
0.0
 42
0.0191861419644962
  0
VERTEX
  5
29D
330
266
100
AcDbEntity
  8
Make2D$可见线$普通线
100
AcDbVertex
100
AcDb2dVertex
 10
271.990405553594
 20
704.8672892036163
 30
0.0
 42
0.0240676251713701
  0
VERTEX
  5
29E
330
266
100
AcDbEntity
  8
Make2D$可见线$普通线
100
AcDbVertex
100
AcDb2dVertex
 10
270.5547458389578
 20
704.2754176477918
 30
0.0
 42
0.0429676841561458
  0
VERTEX
  5
29F
330
266
100
AcDbEntity
  8
Make2D$可见线$普通线
100
AcDbVertex
100
AcDb2dVertex
 10
268.2070440993302
 20
702.9169343427712
 30
0.0
  0
VERTEX
  5
2A0
330
266
100
AcDbEntity
  8
Make2D$可见线$普通线
100
AcDbVertex
100
AcDb2dVertex
 10
267.8596056145839
 20
702.6662215616975
 30
0.0
 42
0.0388911920526991
  0
VERTEX
  5
2A1
330
266
100
AcDbEntity
  8
Make2D$可见线$普通线
100
AcDbVertex
100
AcDb2dVertex
 10
266.0888437392708
 20
701.1234422481209
 30
0.0
 42
0.0214625997218918
  0
VERTEX
  5
2A2
330
266
100
AcDbEntity
  8
Make2D$可见线$普通线
100
AcDbVertex
100
AcDb2dVertex
 10
265.273532758462
 20
700.2173975711002
 30
0.0
 42
0.0282283395678933
  0
VERTEX
  5
2A3
330
266
100
AcDbEntity
  8
Make2D$可见线$普通线
100
AcDbVertex
100
AcDb2dVertex
 10
264.3632598332018
 20
698.9776958472246
 30
0.0
  0
VERTEX
  5
2A4
330
266
100
AcDbEntity
  8
Make2D$可见线$普通线
100
AcDbVertex
100
AcDb2dVertex
 10
264.1449754968393
 20
698.6304264784656
 30
0.0
 42
0.0214343097107626
  0
VERTEX
  5
2A5
330
266
100
AcDbEntity
  8
Make2D$可见线$普通线
100
AcDbVertex
100
AcDb2dVertex
 10
263.6078492231851
 20
697.6544043409407
 30
0.0
  0
VERTEX
  5
2A6
330
266
100
AcDbEntity
  8
Make2D$可见线$普通线
100
AcDbVertex
100
AcDb2dVertex
 10
263.4579428950487
 20
697.3408363276517
 30
0.0
 42
0.0211304603475943
  0
VERTEX
  5
2A7
330
266
100
AcDbEntity
  8
Make2D$可见线$普通线
100
AcDbVertex
100
AcDb2dVertex
 10
263.0277747524509
 20
696.2970930311518
 30
0.0
  0
VERTEX
  5
2A8
330
266
100
AcDbEntity
  8
Make2D$可见线$普通线
100
AcDbVertex
100
AcDb2dVertex
 10
262.9207685269677
 20
695.9909787757476
 30
0.0
 42
0.0219324981225137
  0
VERTEX
  5
2A9
330
266
100
AcDbEntity
  8
Make2D$可见线$普通线
100
AcDbVertex
100
AcDb2dVertex
 10
262.6045930094219
 20
694.8926654180785
 30
0.0
  0
VERTEX
  5
2AA
330
266
100
AcDbEntity
  8
Make2D$可见线$普通线
100
AcDbVertex
100
AcDb2dVertex
 10
262.5328820673379
 20
694.5774792949138
 30
0.0
 42
0.022483749332933
  0
VERTEX
  5
2AB
330
266
100
AcDbEntity
  8
Make2D$可见线$普通线
100
AcDbVertex
100
AcDb2dVertex
 10
262.344533279295
 20
693.4556067097127
 30
0.0
  0
VERTEX
  5
2AC
330
266
100
AcDbEntity
  8
Make2D$可见线$普通线
100
AcDbVertex
100
AcDb2dVertex
 10
262.3210075718309
 20
693.2479820279187
 30
0.0
  0
VERTEX
  5
2AD
330
266
100
AcDbEntity
  8
Make2D$可见线$普通线
100
AcDbVertex
100
AcDb2dVertex
 10
262.2785225807017
 20
692.7436658440199
 30
0.0
  0
VERTEX
  5
2AE
330
266
100
AcDbEntity
  8
Make2D$可见线$普通线
100
AcDbVertex
100
AcDb2dVertex
 10
262.2538248968718
 20
692.0004285925016
 30
0.0
  0
VERTEX
  5
2AF
330
266
100
AcDbEntity
  8
Make2D$可见线$普通线
100
AcDbVertex
100
AcDb2dVertex
 10
262.2541229546112
 20
691.9210257397333
 30
0.0
 42
0.0279251130995533
  0
VERTEX
  5
2B0
330
266
100
AcDbEntity
  8
Make2D$可见线$普通线
100
AcDbVertex
100
AcDb2dVertex
 10
262.3413287339617
 20
690.5407414393628
 30
0.0
  0
VERTEX
  5
2B1
330
266
100
AcDbEntity
  8
Make2D$可见线$普通线
100
AcDbVertex
100
AcDb2dVertex
 10
262.3944009424206
 20
690.1482139312802
 30
0.0
  0
VERTEX
  5
2B2
330
266
100
AcDbEntity
  8
Make2D$可见线$普通线
100
AcDbVertex
100
AcDb2dVertex
 10
262.5264230669501
 20
689.4192464500367
 30
0.0
  0
VERTEX
  5
2B3
330
266
100
AcDbEntity
  8
Make2D$可见线$普通线
100
AcDbVertex
100
AcDb2dVertex
 10
262.5983420703362
 20
689.0989274623532
 30
0.0
  0
VERTEX
  5
2B4
330
266
100
AcDbEntity
  8
Make2D$可见线$普通线
100
AcDbVertex
100
AcDb2dVertex
 10
262.6109156957122
 20
689.0465622736148
 30
0.0
  0
VERTEX
  5
2B5
330
266
100
AcDbEntity
  8
Make2D$可见线$普通线
100
AcDbVertex
100
AcDb2dVertex
 10
262.7206558894727
 20
688.6247332450101
 30
0.0
 42
0.0186359083894591
  0
VERTEX
  5
2B6
330
266
100
AcDbEntity
  8
Make2D$可见线$普通线
100
AcDbVertex
100
AcDb2dVertex
 10
263.018837726004
 20
687.6894293881007
 30
0.0
  0
VERTEX
  5
2B7
330
266
100
AcDbEntity
  8
Make2D$可见线$普通线
100
AcDbVertex
100
AcDb2dVertex
 10
263.1610483999833
 20
687.3126596323102
 30
0.0
  0
VERTEX
  5
2B8
330
266
100
AcDbEntity
  8
Make2D$可见线$普通线
100
AcDbVertex
100
AcDb2dVertex
 10
263.4555203203455
 20
686.6237911273258
 30
0.0
  0
VERTEX
  5
2B9
330
266
100
AcDbEntity
  8
Make2D$可见线$普通线
100
AcDbVertex
100
AcDb2dVertex
 10
263.5967764680534
 20
686.3267410023211
 30
0.0
  0
VERTEX
  5
2BA
330
266
100
AcDbEntity
  8
Make2D$可见线$普通线
100
AcDbVertex
100
AcDb2dVertex
 10
263.641735090023
 20
686.236150987637
 30
0.0
  0
VERTEX
  5
2BB
330
266
100
AcDbEntity
  8
Make2D$可见线$普通线
100
AcDbVertex
100
AcDb2dVertex
 10
263.9394697884343
 20
685.6775148739318
 30
0.0
  0
VERTEX
  5
2BC
330
266
100
AcDbEntity
  8
Make2D$可见线$普通线
100
AcDbVertex
100
AcDb2dVertex
 10
264.2820954291196
 20
685.1060229708531
 30
0.0
  0
VERTEX
  5
2BD
330
266
100
AcDbEntity
  8
Make2D$可见线$普通线
100
AcDbVertex
100
AcDb2dVertex
 10
264.3098389872168
 20
685.0624945168177
 30
0.0
  0
VERTEX
  5
2BE
330
266
100
AcDbEntity
  8
Make2D$可见线$普通线
100
AcDbVertex
100
AcDb2dVertex
 10
264.6572655133635
 20
684.5466185574443
 30
0.0
  0
VERTEX
  5
2BF
330
266
100
AcDbEntity
  8
Make2D$可见线$普通线
100
AcDbVertex
100
AcDb2dVertex
 10
265.1000353633136
 20
683.9554792744028
 30
0.0
  0
SEQEND
  5
2C0
330
266
100
AcDbEntity
  8
Make2D$可见线$普通线
  0
POLYLINE
  5
2C1
330
1F
100
AcDbEntity
  8
Make2D$可见线$普通线
100
AcDb2dPolyline
 66
     1
 10
0.0
 20
0.0
 30
0.0
  0
VERTEX
  5
2C2
330
2C1
100
AcDbEntity
  8
Make2D$可见线$普通线
100
AcDbVertex
100
AcDb2dVertex
 10
294.2528841280068
 20
725.278135235498
 30
0.0
  0
VERTEX
  5
2C3
330
2C1
100
AcDbEntity
  8
Make2D$可见线$普通线
100
AcDbVertex
100
AcDb2dVertex
 10
294.254983935144
 20
779.3504352678065
 30
0.0
 42
0.3706001439203452
  0
VERTEX
  5
2C4
330
2C1
100
AcDbEntity
  8
Make2D$可见线$普通线
100
AcDbVertex
100
AcDb2dVertex
 10
293.8305620879902
 20
779.8448131290352
 30
0.0
  0
VERTEX
  5
2C5
330
2C1
100
AcDbEntity
  8
Make2D$可见线$普通线
100
AcDbVertex
100
AcDb2dVertex
 10
261.6784157505976
 20
779.8408223161978
 30
0.0
 42
0.3691190346161434
  0
VERTEX
  5
2C6
330
2C1
100
AcDbEntity
  8
Make2D$可见线$普通线
100
AcDbVertex
100
AcDb2dVertex
 10
261.2529588219346
 20
779.3461706241737
 30
0.0
  0
SEQEND
  5
2C7
330
2C1
100
AcDbEntity
  8
Make2D$可见线$普通线
  0
POLYLINE
  5
2C8
330
1F
100
AcDbEntity
  8
Make2D$可见线$普通线
100
AcDb2dPolyline
 66
     1
 10
0.0
 20
0.0
 30
0.0
  0
VERTEX
  5
2C9
330
2C8
100
AcDbEntity
  8
Make2D$可见线$普通线
100
AcDbVertex
100
AcDb2dVertex
 10
277.7539360049814
 20
715.1127021170705
 30
0.0
  0
VERTEX
  5
2CA
330
2C8
100
AcDbEntity
  8
Make2D$可见线$普通线
100
AcDbVertex
100
AcDb2dVertex
 10
278.8642360365216
 20
715.0967808159221
 30
0.0
  0
VERTEX
  5
2CB
330
2C8
100
AcDbEntity
  8
Make2D$可见线$普通线
100
AcDbVertex
100
AcDb2dVertex
 10
279.9773076504763
 20
715.0465257266324
 30
0.0
  0
VERTEX
  5
2CC
330
2C8
100
AcDbEntity
  8
Make2D$可见线$普通线
100
AcDbVertex
100
AcDb2dVertex
 10
281.0892699948586
 20
714.9610755823942
 30
0.0
  0
VERTEX
  5
2CD
330
2C8
100
AcDbEntity
  8
Make2D$可见线$普通线
100
AcDbVertex
100
AcDb2dVertex
 10
282.1962422176811
 20
714.8395691164009
 30
0.0
  0
VERTEX
  5
2CE
330
2C8
100
AcDbEntity
  8
Make2D$可见线$普通线
100
AcDbVertex
100
AcDb2dVertex
 10
283.1140063475655
 20
714.709495238517
 30
0.0
  0
VERTEX
  5
2CF
330
2C8
100
AcDbEntity
  8
Make2D$可见线$普通线
100
AcDbVertex
100
AcDb2dVertex
 10
284.0258555476939
 20
714.5506609349395
 30
0.0
  0
VERTEX
  5
2D0
330
2C8
100
AcDbEntity
  8
Make2D$可见线$普通线
100
AcDbVertex
100
AcDb2dVertex
 10
284.4796450053532
 20
714.4595086189581
 30
0.0
  0
VERTEX
  5
2D1
330
2C8
100
AcDbEntity
  8
Make2D$可见线$普通线
100
AcDbVertex
100
AcDb2dVertex
 10
284.9320552780775
 20
714.3600261910843
 30
0.0
  0
VERTEX
  5
2D2
330
2C8
100
AcDbEntity
  8
Make2D$可见线$普通线
100
AcDbVertex
100
AcDb2dVertex
 10
285.3831195483684
 20
714.2518336494951
 30
0.0
  0
VERTEX
  5
2D3
330
2C8
100
AcDbEntity
  8
Make2D$可见线$普通线
100
AcDbVertex
100
AcDb2dVertex
 10
285.8328709987271
 20
714.1345509923675
 30
0.0
  0
VERTEX
  5
2D4
330
2C8
100
AcDbEntity
  8
Make2D$可见线$普通线
100
AcDbVertex
100
AcDb2dVertex
 10
286.1877964873881
 20
714.0350049117967
 30
0.0
  0
VERTEX
  5
2D5
330
2C8
100
AcDbEntity
  8
Make2D$可见线$普通线
100
AcDbVertex
100
AcDb2dVertex
 10
286.541392424632
 20
713.9291189093933
 30
0.0
  0
VERTEX
  5
2D6
330
2C8
100
AcDbEntity
  8
Make2D$可见线$普通线
100
AcDbVertex
100
AcDb2dVertex
 10
286.8931306761764
 20
713.816484051383
 30
0.0
  0
VERTEX
  5
2D7
330
2C8
100
AcDbEntity
  8
Make2D$可见线$普通线
100
AcDbVertex
100
AcDb2dVertex
 10
287.242483107739
 20
713.696691403991
 30
0.0
  0
VERTEX
  5
2D8
330
2C8
100
AcDbEntity
  8
Make2D$可见线$普通线
100
AcDbVertex
100
AcDb2dVertex
 10
287.5889215850371
 20
713.5693320334431
 30
0.0
  0
VERTEX
  5
2D9
330
2C8
100
AcDbEntity
  8
Make2D$可见线$普通线
100
AcDbVertex
100
AcDb2dVertex
 10
287.9319179737884
 20
713.4339970059643
 30
0.0
  0
VERTEX
  5
2DA
330
2C8
100
AcDbEntity
  8
Make2D$可见线$普通线
100
AcDbVertex
100
AcDb2dVertex
 10
288.2709441397103
 20
713.2902773877802
 30
0.0
  0
VERTEX
  5
2DB
330
2C8
100
AcDbEntity
  8
Make2D$可见线$普通线
100
AcDbVertex
100
AcDb2dVertex
 10
288.6054719485204
 20
713.1377642451164
 30
0.0
  0
VERTEX
  5
2DC
330
2C8
100
AcDbEntity
  8
Make2D$可见线$普通线
100
AcDbVertex
100
AcDb2dVertex
 10
288.9349732659364
 20
712.976048644198
 30
0.0
  0
VERTEX
  5
2DD
330
2C8
100
AcDbEntity
  8
Make2D$可见线$普通线
100
AcDbVertex
100
AcDb2dVertex
 10
289.2589199576756
 20
712.8047216512507
 30
0.0
  0
VERTEX
  5
2DE
330
2C8
100
AcDbEntity
  8
Make2D$可见线$普通线
100
AcDbVertex
100
AcDb2dVertex
 10
289.5767838894558
 20
712.6233743324997
 30
0.0
  0
VERTEX
  5
2DF
330
2C8
100
AcDbEntity
  8
Make2D$可见线$普通线
100
AcDbVertex
100
AcDb2dVertex
 10
289.8880369269943
 20
712.4315977541705
 30
0.0
  0
VERTEX
  5
2E0
330
2C8
100
AcDbEntity
  8
Make2D$可见线$普通线
100
AcDbVertex
100
AcDb2dVertex
 10
290.0410193184597
 20
712.3316707008596
 30
0.0
  0
VERTEX
  5
2E1
330
2C8
100
AcDbEntity
  8
Make2D$可见线$普通线
100
AcDbVertex
100
AcDb2dVertex
 10
290.1921509360088
 20
712.2289829824887
 30
0.0
  0
VERTEX
  5
2E2
330
2C8
100
AcDbEntity
  8
Make2D$可见线$普通线
100
AcDbVertex
100
AcDb2dVertex
 10
290.3413657628562
 20
712.1234834823358
 30
0.0
  0
VERTEX
  5
2E3
330
2C8
100
AcDbEntity
  8
Make2D$可见线$普通线
100
AcDbVertex
100
AcDb2dVertex
 10
290.4885977822168
 20
712.0151210836793
 30
0.0
  0
VERTEX
  5
2E4
330
2C8
100
AcDbEntity
  8
Make2D$可见线$普通线
100
AcDbVertex
100
AcDb2dVertex
 10
290.6337809773051
 20
711.9038446697974
 30
0.0
  0
VERTEX
  5
2E5
330
2C8
100
AcDbEntity
  8
Make2D$可见线$普通线
100
AcDbVertex
100
AcDb2dVertex
 10
290.7768493313358
 20
711.7896031239682
 30
0.0
  0
VERTEX
  5
2E6
330
2C8
100
AcDbEntity
  8
Make2D$可见线$普通线
100
AcDbVertex
100
AcDb2dVertex
 10
290.9177368275238
 20
711.6723453294699
 30
0.0
  0
VERTEX
  5
2E7
330
2C8
100
AcDbEntity
  8
Make2D$可见线$普通线
100
AcDbVertex
100
AcDb2dVertex
 10
291.0563774490835
 20
711.5520201695805
 30
0.0
  0
VERTEX
  5
2E8
330
2C8
100
AcDbEntity
  8
Make2D$可见线$普通线
100
AcDbVertex
100
AcDb2dVertex
 10
291.2778562946582
 20
711.3487573433998
 30
0.0
  0
VERTEX
  5
2E9
330
2C8
100
AcDbEntity
  8
Make2D$可见线$普通线
100
AcDbVertex
100
AcDb2dVertex
 10
291.3860880887834
 20
711.2440918376899
 30
0.0
  0
VERTEX
  5
2EA
330
2C8
100
AcDbEntity
  8
Make2D$可见线$普通线
100
AcDbVertex
100
AcDb2dVertex
 10
291.4925458114154
 20
711.1374506887839
 30
0.0
  0
VERTEX
  5
2EB
330
2C8
100
AcDbEntity
  8
Make2D$可见线$普通线
100
AcDbVertex
100
AcDb2dVertex
 10
291.5971527232658
 20
711.0288692105944
 30
0.0
  0
VERTEX
  5
2EC
330
2C8
100
AcDbEntity
  8
Make2D$可见线$普通线
100
AcDbVertex
100
AcDb2dVertex
 10
291.6998320850457
 20
710.9183827170338
 30
0.0
  0
VERTEX
  5
2ED
330
2C8
100
AcDbEntity
  8
Make2D$可见线$普通线
100
AcDbVertex
100
AcDb2dVertex
 10
291.8005071574665
 20
710.8060265220149
 30
0.0
  0
VERTEX
  5
2EE
330
2C8
100
AcDbEntity
  8
Make2D$可见线$普通线
100
AcDbVertex
100
AcDb2dVertex
 10
291.8991012012397
 20
710.6918359394506
 30
0.0
  0
VERTEX
  5
2EF
330
2C8
100
AcDbEntity
  8
Make2D$可见线$普通线
100
AcDbVertex
100
AcDb2dVertex
 10
291.9955374770764
 20
710.5758462832534
 30
0.0
  0
VERTEX
  5
2F0
330
2C8
100
AcDbEntity
  8
Make2D$可见线$普通线
100
AcDbVertex
100
AcDb2dVertex
 10
292.0897392456878
 20
710.4580928673358
 30
0.0
  0
VERTEX
  5
2F1
330
2C8
100
AcDbEntity
  8
Make2D$可见线$普通线
100
AcDbVertex
100
AcDb2dVertex
 10
292.1816297677856
 20
710.3386110056106
 30
0.0
  0
VERTEX
  5
2F2
330
2C8
100
AcDbEntity
  8
Make2D$可见线$普通线
100
AcDbVertex
100
AcDb2dVertex
 10
292.2711323040808
 20
710.2174360119903
 30
0.0
  0
VERTEX
  5
2F3
330
2C8
100
AcDbEntity
  8
Make2D$可见线$普通线
100
AcDbVertex
100
AcDb2dVertex
 10
292.3581701152848
 20
710.0946032003877
 30
0.0
  0
VERTEX
  5
2F4
330
2C8
100
AcDbEntity
  8
Make2D$可见线$普通线
100
AcDbVertex
100
AcDb2dVertex
 10
292.4426664621091
 20
709.9701478847155
 30
0.0
  0
VERTEX
  5
2F5
330
2C8
100
AcDbEntity
  8
Make2D$可见线$普通线
100
AcDbVertex
100
AcDb2dVertex
 10
292.5245446052649
 20
709.8441053788863
 30
0.0
  0
VERTEX
  5
2F6
330
2C8
100
AcDbEntity
  8
Make2D$可见线$普通线
100
AcDbVertex
100
AcDb2dVertex
 10
292.6037278054633
 20
709.7165109968125
 30
0.0
  0
VERTEX
  5
2F7
330
2C8
100
AcDbEntity
  8
Make2D$可见线$普通线
100
AcDbVertex
100
AcDb2dVertex
 10
292.6825537085489
 20
709.5832664847169
 30
0.0
  0
VERTEX
  5
2F8
330
2C8
100
AcDbEntity
  8
Make2D$可见线$普通线
100
AcDbVertex
100
AcDb2dVertex
 10
292.7584984067306
 20
709.4484790912857
 30
0.0
  0
VERTEX
  5
2F9
330
2C8
100
AcDbEntity
  8
Make2D$可见线$普通线
100
AcDbVertex
100
AcDb2dVertex
 10
292.8316318495424
 20
709.3122206980812
 30
0.0
  0
VERTEX
  5
2FA
330
2C8
100
AcDbEntity
  8
Make2D$可见线$普通线
100
AcDbVertex
100
AcDb2dVertex
 10
292.902023986518
 20
709.1745631866658
 30
0.0
  0
VERTEX
  5
2FB
330
2C8
100
AcDbEntity
  8
Make2D$可见线$普通线
100
AcDbVertex
100
AcDb2dVertex
 10
292.9697447671912
 20
709.0355784386014
 30
0.0
  0
VERTEX
  5
2FC
330
2C8
100
AcDbEntity
  8
Make2D$可见线$普通线
100
AcDbVertex
100
AcDb2dVertex
 10
293.0348641410956
 20
708.8953383354506
 30
0.0
  0
VERTEX
  5
2FD
330
2C8
100
AcDbEntity
  8
Make2D$可见线$普通线
100
AcDbVertex
100
AcDb2dVertex
 10
293.0974520577652
 20
708.7539147587754
 30
0.0
  0
VERTEX
  5
2FE
330
2C8
100
AcDbEntity
  8
Make2D$可见线$普通线
100
AcDbVertex
100
AcDb2dVertex
 10
293.1575784667335
 20
708.611379590138
 30
0.0
  0
VERTEX
  5
2FF
330
2C8
100
AcDbEntity
  8
Make2D$可见线$普通线
100
AcDbVertex
100
AcDb2dVertex
 10
293.2707265597018
 20
708.3232620032258
 30
0.0
  0
VERTEX
  5
300
330
2C8
100
AcDbEntity
  8
Make2D$可见线$普通线
100
AcDbVertex
100
AcDb2dVertex
 10
293.3748680162702
 20
708.0315606272118
 30
0.0
  0
VERTEX
  5
301
330
2C8
100
AcDbEntity
  8
Make2D$可见线$普通线
100
AcDbVertex
100
AcDb2dVertex
 10
293.4705624327089
 20
707.736850514594
 30
0.0
  0
VERTEX
  5
302
330
2C8
100
AcDbEntity
  8
Make2D$可见线$普通线
100
AcDbVertex
100
AcDb2dVertex
 10
293.5583694052878
 20
707.4397067178702
 30
0.0
  0
VERTEX
  5
303
330
2C8
100
AcDbEntity
  8
Make2D$可见线$普通线
100
AcDbVertex
100
AcDb2dVertex
 10
293.6596079852509
 20
707.0584739316718
 30
0.0
  0
VERTEX
  5
304
330
2C8
100
AcDbEntity
  8
Make2D$可见线$普通线
100
AcDbVertex
100
AcDb2dVertex
 10
293.7497233246048
 20
706.6745632497352
 30
0.0
  0
VERTEX
  5
305
330
2C8
100
AcDbEntity
  8
Make2D$可见线$普通线
100
AcDbVertex
100
AcDb2dVertex
 10
293.8294804584646
 20
706.2883121126479
 30
0.0
  0
VERTEX
  5
306
330
2C8
100
AcDbEntity
  8
Make2D$可见线$普通线
100
AcDbVertex
100
AcDb2dVertex
 10
293.8996444219448
 20
705.9000579609974
 30
0.0
  0
VERTEX
  5
307
330
2C8
100
AcDbEntity
  8
Make2D$可见线$普通线
100
AcDbVertex
100
AcDb2dVertex
 10
293.9609802501603
 20
705.5101382353716
 30
0.0
  0
VERTEX
  5
308
330
2C8
100
AcDbEntity
  8
Make2D$可见线$普通线
100
AcDbVertex
100
AcDb2dVertex
 10
294.0142529782257
 20
705.1188903763576
 30
0.0
  0
VERTEX
  5
309
330
2C8
100
AcDbEntity
  8
Make2D$可见线$普通线
100
AcDbVertex
100
AcDb2dVertex
 10
294.0996692743654
 20
704.333760020516
 30
0.0
  0
VERTEX
  5
30A
330
2C8
100
AcDbEntity
  8
Make2D$可见线$普通线
100
AcDbVertex
100
AcDb2dVertex
 10
294.1446089986987
 20
703.7916258944488
 30
0.0
  0
VERTEX
  5
30B
330
2C8
100
AcDbEntity
  8
Make2D$可见线$普通线
100
AcDbVertex
100
AcDb2dVertex
 10
294.1798238749036
 20
703.2489000359938
 30
0.0
  0
VERTEX
  5
30C
330
2C8
100
AcDbEntity
  8
Make2D$可见线$普通线
100
AcDbVertex
100
AcDb2dVertex
 10
294.2260126243506
 20
702.1617061512065
 30
0.0
  0
VERTEX
  5
30D
330
2C8
100
AcDbEntity
  8
Make2D$可见线$普通线
100
AcDbVertex
100
AcDb2dVertex
 10
294.248102605551
 20
701.0722444247267
 30
0.0
  0
VERTEX
  5
30E
330
2C8
100
AcDbEntity
  8
Make2D$可见线$普通线
100
AcDbVertex
100
AcDb2dVertex
 10
294.2559609013499
 20
699.9805809151269
 30
0.0
  0
VERTEX
  5
30F
330
2C8
100
AcDbEntity
  8
Make2D$可见线$普通线
100
AcDbVertex
100
AcDb2dVertex
 10
294.2559234644897
 20
683.9886999927025
 30
0.0
  0
VERTEX
  5
310
330
2C8
100
AcDbEntity
  8
Make2D$可见线$普通线
100
AcDbVertex
100
AcDb2dVertex
 10
294.2478224891036
 20
682.8913026659874
 30
0.0
  0
VERTEX
  5
311
330
2C8
100
AcDbEntity
  8
Make2D$可见线$普通线
100
AcDbVertex
100
AcDb2dVertex
 10
294.2258604319051
 20
681.7962773524259
 30
0.0
  0
VERTEX
  5
312
330
2C8
100
AcDbEntity
  8
Make2D$可见线$普通线
100
AcDbVertex
100
AcDb2dVertex
 10
294.179667668414
 20
680.7035070460355
 30
0.0
  0
VERTEX
  5
313
330
2C8
100
AcDbEntity
  8
Make2D$可见线$普通线
100
AcDbVertex
100
AcDb2dVertex
 10
294.1442442641588
 20
680.1579309561597
 30
0.0
  0
VERTEX
  5
314
330
2C8
100
AcDbEntity
  8
Make2D$可见线$普通线
100
AcDbVertex
100
AcDb2dVertex
 10
294.0988745741504
 20
679.6128747408331
 30
0.0
  0
VERTEX
  5
315
330
2C8
100
AcDbEntity
  8
Make2D$可见线$普通线
100
AcDbVertex
100
AcDb2dVertex
 10
294.0131437460743
 20
678.829685689321
 30
0.0
  0
VERTEX
  5
316
330
2C8
100
AcDbEntity
  8
Make2D$可见线$普通线
100
AcDbVertex
100
AcDb2dVertex
 10
293.9596723357504
 20
678.4393900209761
 30
0.0
  0
VERTEX
  5
317
330
2C8
100
AcDbEntity
  8
Make2D$可见线$普通线
100
AcDbVertex
100
AcDb2dVertex
 10
293.8981324377282
 20
678.0504436144896
 30
0.0
  0
VERTEX
  5
318
330
2C8
100
AcDbEntity
  8
Make2D$可见线$普通线
100
AcDbVertex
100
AcDb2dVertex
 10
293.8277756843771
 20
677.6632089875491
 30
0.0
  0
VERTEX
  5
319
330
2C8
100
AcDbEntity
  8
Make2D$可见线$普通线
100
AcDbVertex
100
AcDb2dVertex
 10
293.7478537080661
 20
677.2780486578429
 30
0.0
  0
VERTEX
  5
31A
330
2C8
100
AcDbEntity
  8
Make2D$可见线$普通线
100
AcDbVertex
100
AcDb2dVertex
 10
293.6576181411647
 20
676.8953251430585
 30
0.0
  0
VERTEX
  5
31B
330
2C8
100
AcDbEntity
  8
Make2D$可见线$普通线
100
AcDbVertex
100
AcDb2dVertex
 10
293.5563206160419
 20
676.5154009608841
 30
0.0
  0
VERTEX
  5
31C
330
2C8
100
AcDbEntity
  8
Make2D$可见线$普通线
100
AcDbVertex
100
AcDb2dVertex
 10
293.4685361121514
 20
676.2194309571778
 30
0.0
  0
VERTEX
  5
31D
330
2C8
100
AcDbEntity
  8
Make2D$可见线$普通线
100
AcDbVertex
100
AcDb2dVertex
 10
293.3729135156576
 20
675.925945932034
 30
0.0
  0
VERTEX
  5
31E
330
2C8
100
AcDbEntity
  8
Make2D$可见线$普通线
100
AcDbVertex
100
AcDb2dVertex
 10
293.2688918999545
 20
675.6354826273822
 30
0.0
  0
VERTEX
  5
31F
330
2C8
100
AcDbEntity
  8
Make2D$可见线$普通线
100
AcDbVertex
100
AcDb2dVertex
 10
293.1559103384362
 20
675.3485777851517
 30
0.0
  0
VERTEX
  5
320
330
2C8
100
AcDbEntity
  8
Make2D$可见线$普通线
100
AcDbVertex
100
AcDb2dVertex
 10
293.0334079044968
 20
675.0657681472718
 30
0.0
  0
VERTEX
  5
321
330
2C8
100
AcDbEntity
  8
Make2D$可见线$普通线
100
AcDbVertex
100
AcDb2dVertex
 10
292.9684110708047
 20
674.9260667618162
 30
0.0
  0
VERTEX
  5
322
330
2C8
100
AcDbEntity
  8
Make2D$可见线$普通线
100
AcDbVertex
100
AcDb2dVertex
 10
292.90082367153
 20
674.7875904556718
 30
0.0
  0
VERTEX
  5
323
330
2C8
100
AcDbEntity
  8
Make2D$可见线$普通线
100
AcDbVertex
100
AcDb2dVertex
 10
292.8305755908471
 20
674.6504063215796
 30
0.0
  0
VERTEX
  5
324
330
2C8
100
AcDbEntity
  8
Make2D$可见线$普通线
100
AcDbVertex
100
AcDb2dVertex
 10
292.7575967129301
 20
674.5145814522808
 30
0.0
  0
VERTEX
  5
325
330
2C8
100
AcDbEntity
  8
Make2D$可见线$普通线
100
AcDbVertex
100
AcDb2dVertex
 10
292.6818169219533
 20
674.3801829405168
 30
0.0
  0
VERTEX
  5
326
330
2C8
100
AcDbEntity
  8
Make2D$可见线$普通线
100
AcDbVertex
100
AcDb2dVertex
 10
292.603166102091
 20
674.2472778790286
 30
0.0
  0
VERTEX
  5
327
330
2C8
100
AcDbEntity
  8
Make2D$可见线$普通线
100
AcDbVertex
100
AcDb2dVertex
 10
292.5239498865942
 20
674.1196276568123
 30
0.0
  0
VERTEX
  5
328
330
2C8
100
AcDbEntity
  8
Make2D$可见线$普通线
100
AcDbVertex
100
AcDb2dVertex
 10
292.442035051546
 20
673.993490728759
 30
0.0
  0
VERTEX
  5
329
330
2C8
100
AcDbEntity
  8
Make2D$可见线$普通线
100
AcDbVertex
100
AcDb2dVertex
 10
292.3574998810944
 20
673.868906990711
 30
0.0
  0
VERTEX
  5
32A
330
2C8
100
AcDbEntity
  8
Make2D$可见线$普通线
100
AcDbVertex
100
AcDb2dVertex
 10
292.2704226593878
 20
673.7459163385112
 30
0.0
  0
VERTEX
  5
32B
330
2C8
100
AcDbEntity
  8
Make2D$可见线$普通线
100
AcDbVertex
100
AcDb2dVertex
 10
292.1808816705741
 20
673.6245586680021
 30
0.0
  0
VERTEX
  5
32C
330
2C8
100
AcDbEntity
  8
Make2D$可见线$普通线
100
AcDbVertex
100
AcDb2dVertex
 10
292.0889551988016
 20
673.5048738750265
 30
0.0
  0
VERTEX
  5
32D
330
2C8
100
AcDbEntity
  8
Make2D$可见线$普通线
100
AcDbVertex
100
AcDb2dVertex
 10
291.9947215282183
 20
673.3869018554269
 30
0.0
  0
VERTEX
  5
32E
330
2C8
100
AcDbEntity
  8
Make2D$可见线$普通线
100
AcDbVertex
100
AcDb2dVertex
 10
291.8982589429725
 20
673.2706825050459
 30
0.0
  0
VERTEX
  5
32F
330
2C8
100
AcDbEntity
  8
Make2D$可见线$普通线
100
AcDbVertex
100
AcDb2dVertex
 10
291.7996457272121
 20
673.1562557197263
 30
0.0
  0
VERTEX
  5
330
330
2C8
100
AcDbEntity
  8
Make2D$可见线$普通线
100
AcDbVertex
100
AcDb2dVertex
 10
291.6989601650855
 20
673.0436613953107
 30
0.0
  0
VERTEX
  5
331
330
2C8
100
AcDbEntity
  8
Make2D$可见线$普通线
100
AcDbVertex
100
AcDb2dVertex
 10
291.5962805407407
 20
672.9329394276417
 30
0.0
  0
VERTEX
  5
332
330
2C8
100
AcDbEntity
  8
Make2D$可见线$普通线
100
AcDbVertex
100
AcDb2dVertex
 10
291.4916851383258
 20
672.824129712562
 30
0.0
  0
VERTEX
  5
333
330
2C8
100
AcDbEntity
  8
Make2D$可见线$普通线
100
AcDbVertex
100
AcDb2dVertex
 10
291.385252241989
 20
672.7172721459141
 30
0.0
  0
VERTEX
  5
334
330
2C8
100
AcDbEntity
  8
Make2D$可见线$普通线
100
AcDbVertex
100
AcDb2dVertex
 10
291.2770601358785
 20
672.6124066235409
 30
0.0
  0
VERTEX
  5
335
330
2C8
100
AcDbEntity
  8
Make2D$可见线$普通线
100
AcDbVertex
100
AcDb2dVertex
 10
291.0557114309285
 20
672.4088112949885
 30
0.0
  0
VERTEX
  5
336
330
2C8
100
AcDbEntity
  8
Make2D$可见线$普通线
100
AcDbVertex
100
AcDb2dVertex
 10
290.9171093478563
 20
672.2882715471909
 30
0.0
  0
VERTEX
  5
337
330
2C8
100
AcDbEntity
  8
Make2D$可见线$普通线
100
AcDbVertex
100
AcDb2dVertex
 10
290.7762848109839
 20
672.1708448237575
 30
0.0
  0
VERTEX
  5
338
330
2C8
100
AcDbEntity
  8
Make2D$可见线$普通线
100
AcDbVertex
100
AcDb2dVertex
 10
290.633301599261
 20
672.0564769714405
 30
0.0
  0
VERTEX
  5
339
330
2C8
100
AcDbEntity
  8
Make2D$可见线$普通线
100
AcDbVertex
100
AcDb2dVertex
 10
290.4882234916374
 20
671.9451138369923
 30
0.0
  0
VERTEX
  5
33A
330
2C8
100
AcDbEntity
  8
Make2D$可见线$普通线
100
AcDbVertex
100
AcDb2dVertex
 10
290.3411142670628
 20
671.8367012671652
 30
0.0
  0
VERTEX
  5
33B
330
2C8
100
AcDbEntity
  8
Make2D$可见线$普通线
100
AcDbVertex
100
AcDb2dVertex
 10
290.1920377044871
 20
671.7311851087118
 30
0.0
  0
VERTEX
  5
33C
330
2C8
100
AcDbEntity
  8
Make2D$可见线$普通线
100
AcDbVertex
100
AcDb2dVertex
 10
290.0410575828599
 20
671.628511208384
 30
0.0
  0
VERTEX
  5
33D
330
2C8
100
AcDbEntity
  8
Make2D$可见线$普通线
100
AcDbVertex
100
AcDb2dVertex
 10
289.888237681131
 20
671.5286254129345
 30
0.0
  0
VERTEX
  5
33E
330
2C8
100
AcDbEntity
  8
Make2D$可见线$普通线
100
AcDbVertex
100
AcDb2dVertex
 10
289.5773336531671
 20
671.3370015236794
 30
0.0
  0
VERTEX
  5
33F
330
2C8
100
AcDbEntity
  8
Make2D$可见线$普通线
100
AcDbVertex
100
AcDb2dVertex
 10
289.2598358521935
 20
671.1558802149654
 30
0.0
  0
VERTEX
  5
340
330
2C8
100
AcDbEntity
  8
Make2D$可见线$普通线
100
AcDbVertex
100
AcDb2dVertex
 10
288.9362545098081
 20
670.9848282608109
 30
0.0
  0
VERTEX
  5
341
330
2C8
100
AcDbEntity
  8
Make2D$可见线$普通线
100
AcDbVertex
100
AcDb2dVertex
 10
288.6070998576091
 20
670.823412435235
 30
0.0
  0
VERTEX
  5
342
330
2C8
100
AcDbEntity
  8
Make2D$可见线$普通线
100
AcDbVertex
100
AcDb2dVertex
 10
288.2728821271945
 20
670.6711995122564
 30
0.0
  0
VERTEX
  5
343
330
2C8
100
AcDbEntity
  8
Make2D$可见线$普通线
100
AcDbVertex
100
AcDb2dVertex
 10
287.9341115501621
 20
670.5277562658937
 30
0.0
  0
VERTEX
  5
344
330
2C8
100
AcDbEntity
  8
Make2D$可见线$普通线
100
AcDbVertex
100
AcDb2dVertex
 10
287.5912983581101
 20
670.3926494701658
 30
0.0
  0
VERTEX
  5
345
330
2C8
100
AcDbEntity
  8
Make2D$可见线$普通线
100
AcDbVertex
100
AcDb2dVertex
 10
287.2449527826365
 20
670.2654458990913
 30
0.0
  0
VERTEX
  5
346
330
2C8
100
AcDbEntity
  8
Make2D$可见线$普通线
100
AcDbVertex
100
AcDb2dVertex
 10
286.8955850553393
 20
670.1457123266892
 30
0.0
  0
VERTEX
  5
347
330
2C8
100
AcDbEntity
  8
Make2D$可见线$普通线
100
AcDbVertex
100
AcDb2dVertex
 10
286.5437054078165
 20
670.0330155269783
 30
0.0
  0
VERTEX
  5
348
330
2C8
100
AcDbEntity
  8
Make2D$可见线$普通线
100
AcDbVertex
100
AcDb2dVertex
 10
285.8344512784864
 20
669.8269993417048
 30
0.0
  0
VERTEX
  5
349
330
2C8
100
AcDbEntity
  8
Make2D$可见线$普通线
100
AcDbVertex
100
AcDb2dVertex
 10
285.3393165782981
 20
669.6978180194408
 30
0.0
  0
VERTEX
  5
34A
330
2C8
100
AcDbEntity
  8
Make2D$可见线$普通线
100
AcDbVertex
100
AcDb2dVertex
 10
284.8423912759235
 20
669.5793415718251
 30
0.0
  0
VERTEX
  5
34B
330
2C8
100
AcDbEntity
  8
Make2D$可见线$普通线
100
AcDbVertex
100
AcDb2dVertex
 10
284.3437762859816
 20
669.4712154260228
 30
0.0
  0
VERTEX
  5
34C
330
2C8
100
AcDbEntity
  8
Make2D$可见线$普通线
100
AcDbVertex
100
AcDb2dVertex
 10
283.8435725230916
 20
669.3730850091993
 30
0.0
  0
VERTEX
  5
34D
330
2C8
100
AcDbEntity
  8
Make2D$可见线$普通线
100
AcDbVertex
100
AcDb2dVertex
 10
283.3418809018723
 20
669.2845957485192
 30
0.0
  0
VERTEX
  5
34E
330
2C8
100
AcDbEntity
  8
Make2D$可见线$普通线
100
AcDbVertex
100
AcDb2dVertex
 10
282.8388023369431
 20
669.2053930711479
 30
0.0
  0
VERTEX
  5
34F
330
2C8
100
AcDbEntity
  8
Make2D$可见线$普通线
100
AcDbVertex
100
AcDb2dVertex
 10
281.8288880344307
 20
669.0734291749923
 30
0.0
  0
VERTEX
  5
350
330
2C8
100
AcDbEntity
  8
Make2D$可见线$普通线
100
AcDbVertex
100
AcDb2dVertex
 10
280.8146369325069
 20
668.9743567380528
 30
0.0
  0
VERTEX
  5
351
330
2C8
100
AcDbEntity
  8
Make2D$可见线$普通线
100
AcDbVertex
100
AcDb2dVertex
 10
279.7968563481242
 20
668.9053391776504
 30
0.0
  0
VERTEX
  5
352
330
2C8
100
AcDbEntity
  8
Make2D$可见线$普通线
100
AcDbVertex
100
AcDb2dVertex
 10
278.7763535982352
 20
668.8635399111058
 30
0.0
  0
VERTEX
  5
353
330
2C8
100
AcDbEntity
  8
Make2D$可见线$普通线
100
AcDbVertex
100
AcDb2dVertex
 10
277.7539359997924
 20
668.8461223557399
 30
0.0
  0
VERTEX
  5
354
330
2C8
100
AcDbEntity
  8
Make2D$可见线$普通线
100
AcDbVertex
100
AcDb2dVertex
 10
276.643454527333
 20
668.8620009668598
 30
0.0
  0
VERTEX
  5
355
330
2C8
100
AcDbEntity
  8
Make2D$可见线$普通线
100
AcDbVertex
100
AcDb2dVertex
 10
275.5302032648423
 20
668.912474504837
 30
0.0
  0
VERTEX
  5
356
330
2C8
100
AcDbEntity
  8
Make2D$可见线$普通线
100
AcDbVertex
100
AcDb2dVertex
 10
274.4180719988195
 20
668.998277256813
 30
0.0
  0
VERTEX
  5
357
330
2C8
100
AcDbEntity
  8
Make2D$可见线$普通线
100
AcDbVertex
100
AcDb2dVertex
 10
273.310950515764
 20
669.1201435099297
 30
0.0
  0
VERTEX
  5
358
330
2C8
100
AcDbEntity
  8
Make2D$可见线$普通线
100
AcDbVertex
100
AcDb2dVertex
 10
272.3933431465013
 20
669.2504052901701
 30
0.0
  0
VERTEX
  5
359
330
2C8
100
AcDbEntity
  8
Make2D$可见线$普通线
100
AcDbVertex
100
AcDb2dVertex
 10
271.4816505341847
 20
669.4093456536322
 30
0.0
  0
VERTEX
  5
35A
330
2C8
100
AcDbEntity
  8
Make2D$可见线$普通线
100
AcDbVertex
100
AcDb2dVertex
 10
271.0279341416977
 20
669.5005254296497
 30
0.0
  0
VERTEX
  5
35B
330
2C8
100
AcDbEntity
  8
Make2D$可见线$普通线
100
AcDbVertex
100
AcDb2dVertex
 10
270.575590694227
 20
669.6000210021663
 30
0.0
  0
VERTEX
  5
35C
330
2C8
100
AcDbEntity
  8
Make2D$可见线$普通线
100
AcDbVertex
100
AcDb2dVertex
 10
270.1245849436991
 20
669.7082144214135
 30
0.0
  0
VERTEX
  5
35D
330
2C8
100
AcDbEntity
  8
Make2D$可见线$普通线
100
AcDbVertex
100
AcDb2dVertex
 10
269.6748816420405
 20
669.8254877376227
 30
0.0
  0
VERTEX
  5
35E
330
2C8
100
AcDbEntity
  8
Make2D$可见线$普通线
100
AcDbVertex
100
AcDb2dVertex
 10
269.319846834978
 20
669.9250610423273
 30
0.0
  0
VERTEX
  5
35F
330
2C8
100
AcDbEntity
  8
Make2D$可见线$普通线
100
AcDbVertex
100
AcDb2dVertex
 10
268.966137645489
 20
670.0309762403602
 30
0.0
  0
VERTEX
  5
360
330
2C8
100
AcDbEntity
  8
Make2D$可见线$普通线
100
AcDbVertex
100
AcDb2dVertex
 10
268.614285438678
 20
670.143644693014
 30
0.0
  0
VERTEX
  5
361
330
2C8
100
AcDbEntity
  8
Make2D$可见线$普通线
100
AcDbVertex
100
AcDb2dVertex
 10
268.2648215796501
 20
670.2634777615813
 30
0.0
  0
VERTEX
  5
362
330
2C8
100
AcDbEntity
  8
Make2D$可见线$普通线
100
AcDbVertex
100
AcDb2dVertex
 10
267.91827743351
 20
670.3908868073553
 30
0.0
  0
VERTEX
  5
363
330
2C8
100
AcDbEntity
  8
Make2D$可见线$普通线
100
AcDbVertex
100
AcDb2dVertex
 10
267.5751843653625
 20
670.5262831916285
 30
0.0
  0
VERTEX
  5
364
330
2C8
100
AcDbEntity
  8
Make2D$可见线$普通线
100
AcDbVertex
100
AcDb2dVertex
 10
267.2360737403125
 20
670.670078275694
 30
0.0
  0
VERTEX
  5
365
330
2C8
100
AcDbEntity
  8
Make2D$可见线$普通线
100
AcDbVertex
100
AcDb2dVertex
 10
266.9014769234647
 20
670.8226834208444
 30
0.0
  0
VERTEX
  5
366
330
2C8
100
AcDbEntity
  8
Make2D$可见线$普通线
100
AcDbVertex
100
AcDb2dVertex
 10
266.571925279924
 20
670.9845099883726
 30
0.0
  0
VERTEX
  5
367
330
2C8
100
AcDbEntity
  8
Make2D$可见线$普通线
100
AcDbVertex
100
AcDb2dVertex
 10
266.2479501747953
 20
671.1559693395715
 30
0.0
  0
VERTEX
  5
368
330
2C8
100
AcDbEntity
  8
Make2D$可见线$普通线
100
AcDbVertex
100
AcDb2dVertex
 10
265.9300829731832
 20
671.3374728357338
 30
0.0
  0
VERTEX
  5
369
330
2C8
100
AcDbEntity
  8
Make2D$可见线$普通线
100
AcDbVertex
100
AcDb2dVertex
 10
265.6188550401928
 20
671.5294318381524
 30
0.0
  0
VERTEX
  5
36A
330
2C8
100
AcDbEntity
  8
Make2D$可见线$普通线
100
AcDbVertex
100
AcDb2dVertex
 10
265.4658968510259
 20
671.6294607046118
 30
0.0
  0
VERTEX
  5
36B
330
2C8
100
AcDbEntity
  8
Make2D$可见线$普通线
100
AcDbVertex
100
AcDb2dVertex
 10
265.3147977409287
 20
671.73225770812
 30
0.0
  0
VERTEX
  5
36C
330
2C8
100
AcDbEntity
  8
Make2D$可见线$普通线
100
AcDbVertex
100
AcDb2dVertex
 10
265.1656241305393
 20
671.8378742688387
 30
0.0
  0
VERTEX
  5
36D
330
2C8
100
AcDbEntity
  8
Make2D$可见线$普通线
100
AcDbVertex
100
AcDb2dVertex
 10
265.0184424404958
 20
671.9463618069296
 30
0.0
  0
VERTEX
  5
36E
330
2C8
100
AcDbEntity
  8
Make2D$可见线$普通线
100
AcDbVertex
100
AcDb2dVertex
 10
264.8733190914364
 20
672.0577717425542
 30
0.0
  0
VERTEX
  5
36F
330
2C8
100
AcDbEntity
  8
Make2D$可见线$普通线
100
AcDbVertex
100
AcDb2dVertex
 10
264.730320503999
 20
672.172155495874
 30
0.0
  0
VERTEX
  5
370
330
2C8
100
AcDbEntity
  8
Make2D$可见线$普通线
100
AcDbVertex
100
AcDb2dVertex
 10
264.5895130988218
 20
672.2895644870507
 30
0.0
  0
VERTEX
  5
371
330
2C8
100
AcDbEntity
  8
Make2D$可见线$普通线
100
AcDbVertex
100
AcDb2dVertex
 10
264.4509632965429
 20
672.4100501362459
 30
0.0
  0
VERTEX
  5
372
330
2C8
100
AcDbEntity
  8
Make2D$可见线$普通线
100
AcDbVertex
100
AcDb2dVertex
 10
264.2297762179996
 20
672.613478232438
 30
0.0
  0
VERTEX
  5
373
330
2C8
100
AcDbEntity
  8
Make2D$可见线$普通线
100
AcDbVertex
100
AcDb2dVertex
 10
264.1216946289764
 20
672.7182294059959
 30
0.0
  0
VERTEX
  5
374
330
2C8
100
AcDbEntity
  8
Make2D$可见线$普通线
100
AcDbVertex
100
AcDb2dVertex
 10
264.0153877369518
 20
672.8249566008974
 30
0.0
  0
VERTEX
  5
375
330
2C8
100
AcDbEntity
  8
Make2D$可见线$普通线
100
AcDbVertex
100
AcDb2dVertex
 10
263.9109305895505
 20
672.9336232704195
 30
0.0
  0
VERTEX
  5
376
330
2C8
100
AcDbEntity
  8
Make2D$可见线$普通线
100
AcDbVertex
100
AcDb2dVertex
 10
263.8083982343973
 20
673.0441928678388
 30
0.0
  0
VERTEX
  5
377
330
2C8
100
AcDbEntity
  8
Make2D$可见线$普通线
100
AcDbVertex
100
AcDb2dVertex
 10
263.7078657191169
 20
673.1566288464323
 30
0.0
  0
VERTEX
  5
378
330
2C8
100
AcDbEntity
  8
Make2D$可见线$普通线
100
AcDbVertex
100
AcDb2dVertex
 10
263.609408091334
 20
673.2708946594769
 30
0.0
  0
VERTEX
  5
379
330
2C8
100
AcDbEntity
  8
Make2D$可见线$普通线
100
AcDbVertex
100
AcDb2dVertex
 10
263.5131003986735
 20
673.3869537602491
 30
0.0
  0
VERTEX
  5
37A
330
2C8
100
AcDbEntity
  8
Make2D$可见线$普通线
100
AcDbVertex
100
AcDb2dVertex
 10
263.4190176887599
 20
673.504769602026
 30
0.0
  0
VERTEX
  5
37B
330
2C8
100
AcDbEntity
  8
Make2D$可见线$普通线
100
AcDbVertex
100
AcDb2dVertex
 10
263.3272350092179
 20
673.6243056380846
 30
0.0
  0
VERTEX
  5
37C
330
2C8
100
AcDbEntity
  8
Make2D$可见线$普通线
100
AcDbVertex
100
AcDb2dVertex
 10
263.2378274076725
 20
673.7455253217014
 30
0.0
  0
VERTEX
  5
37D
330
2C8
100
AcDbEntity
  8
Make2D$可见线$普通线
100
AcDbVertex
100
AcDb2dVertex
 10
263.1508699317482
 20
673.8683921061534
 30
0.0
  0
VERTEX
  5
37E
330
2C8
100
AcDbEntity
  8
Make2D$可见线$普通线
100
AcDbVertex
100
AcDb2dVertex
 10
263.0664376290698
 20
673.9928694447174
 30
0.0
  0
VERTEX
  5
37F
330
2C8
100
AcDbEntity
  8
Make2D$可见线$普通线
100
AcDbVertex
100
AcDb2dVertex
 10
262.984605547262
 20
674.1189207906701
 30
0.0
  0
VERTEX
  5
380
330
2C8
100
AcDbEntity
  8
Make2D$可见线$普通线
100
AcDbVertex
100
AcDb2dVertex
 10
262.9054487339497
 20
674.2465095972887
 30
0.0
  0
VERTEX
  5
381
330
2C8
100
AcDbEntity
  8
Make2D$可见线$普通线
100
AcDbVertex
100
AcDb2dVertex
 10
262.8268321721719
 20
674.3793793491278
 30
0.0
  0
VERTEX
  5
382
330
2C8
100
AcDbEntity
  8
Make2D$可见线$普通线
100
AcDbVertex
100
AcDb2dVertex
 10
262.7510611814801
 20
674.5137689109089
 30
0.0
  0
VERTEX
  5
383
330
2C8
100
AcDbEntity
  8
Make2D$可见线$普通线
100
AcDbVertex
100
AcDb2dVertex
 10
262.6780683394301
 20
674.6496084016387
 30
0.0
  0
VERTEX
  5
384
330
2C8
100
AcDbEntity
  8
Make2D$可见线$普通线
100
AcDbVertex
100
AcDb2dVertex
 10
262.6077862235779
 20
674.7868279403243
 30
0.0
  0
VERTEX
  5
385
330
2C8
100
AcDbEntity
  8
Make2D$可见线$普通线
100
AcDbVertex
100
AcDb2dVertex
 10
262.5401474114797
 20
674.9253576459728
 30
0.0
  0
VERTEX
  5
386
330
2C8
100
AcDbEntity
  8
Make2D$可见线$普通线
100
AcDbVertex
100
AcDb2dVertex
 10
262.4750844806914
 20
675.0651276375914
 30
0.0
  0
VERTEX
  5
387
330
2C8
100
AcDbEntity
  8
Make2D$可见线$普通线
100
AcDbVertex
100
AcDb2dVertex
 10
262.3524165732688
 20
675.3481089547671
 30
0.0
  0
VERTEX
  5
388
330
2C8
100
AcDbEntity
  8
Make2D$可见线$普通线
100
AcDbVertex
100
AcDb2dVertex
 10
262.2392431217582
 20
675.6352128439079
 30
0.0
  0
VERTEX
  5
389
330
2C8
100
AcDbEntity
  8
Make2D$可见线$普通线
100
AcDbVertex
100
AcDb2dVertex
 10
262.1350247466079
 20
675.9258802570707
 30
0.0
  0
VERTEX
  5
38A
330
2C8
100
AcDbEntity
  8
Make2D$可见线$普通线
100
AcDbVertex
100
AcDb2dVertex
 10
262.0392220682661
 20
676.2195521463123
 30
0.0
  0
VERTEX
  5
38B
330
2C8
100
AcDbEntity
  8
Make2D$可见线$普通线
100
AcDbVertex
100
AcDb2dVertex
 10
261.951295707181
 20
676.5156694636889
 30
0.0
  0
VERTEX
  5
38C
330
2C8
100
AcDbEntity
  8
Make2D$可见线$普通线
100
AcDbVertex
100
AcDb2dVertex
 10
261.8498964384627
 20
676.8956998311515
 30
0.0
  0
VERTEX
  5
38D
330
2C8
100
AcDbEntity
  8
Make2D$可见线$普通线
100
AcDbVertex
100
AcDb2dVertex
 10
261.7596384902757
 20
677.2784474214502
 30
0.0
  0
VERTEX
  5
38E
330
2C8
100
AcDbEntity
  8
Make2D$可见线$普通线
100
AcDbVertex
100
AcDb2dVertex
 10
261.6797558314782
 20
677.6635679904656
 30
0.0
  0
VERTEX
  5
38F
330
2C8
100
AcDbEntity
  8
Make2D$可见线$普通线
100
AcDbVertex
100
AcDb2dVertex
 10
261.6094824309287
 20
678.0507172940787
 30
0.0
  0
VERTEX
  5
390
330
2C8
100
AcDbEntity
  8
Make2D$可见线$普通线
100
AcDbVertex
100
AcDb2dVertex
 10
261.5480522574857
 20
678.4395510881703
 30
0.0
  0
VERTEX
  5
391
330
2C8
100
AcDbEntity
  8
Make2D$可见线$普通线
100
AcDbVertex
100
AcDb2dVertex
 10
261.4946992800074
 20
678.8297251286211
 30
0.0
  0
VERTEX
  5
392
330
2C8
100
AcDbEntity
  8
Make2D$可见线$普通线
100
AcDbVertex
100
AcDb2dVertex
 10
261.4091607883788
 20
679.6127169721242
 30
0.0
  0
VERTEX
  5
393
330
2C8
100
AcDbEntity
  8
Make2D$可见线$普通线
100
AcDbVertex
100
AcDb2dVertex
 10
261.363840498283
 20
680.1577226782122
 30
0.0
  0
VERTEX
  5
394
330
2C8
100
AcDbEntity
  8
Make2D$可见线$普通线
100
AcDbVertex
100
AcDb2dVertex
 10
261.3284028339534
 20
680.7033139971534
 30
0.0
  0
VERTEX
  5
395
330
2C8
100
AcDbEntity
  8
Make2D$可见线$普通线
100
AcDbVertex
100
AcDb2dVertex
 10
261.2820779987039
 20
681.7962212137064
 30
0.0
  0
VERTEX
  5
396
330
2C8
100
AcDbEntity
  8
Make2D$可见线$普通线
100
AcDbVertex
100
AcDb2dVertex
 10
261.2599915148526
 20
682.8913741020056
 30
0.0
  0
VERTEX
  5
397
330
2C8
100
AcDbEntity
  8
Make2D$可见线$普通线
100
AcDbVertex
100
AcDb2dVertex
 10
261.251948614622
 20
683.9887081422733
 30
0.0
  0
VERTEX
  5
398
330
2C8
100
AcDbEntity
  8
Make2D$可见线$普通线
100
AcDbVertex
100
AcDb2dVertex
 10
261.2519150305874
 20
699.9805430705003
 30
0.0
  0
VERTEX
  5
399
330
2C8
100
AcDbEntity
  8
Make2D$可见线$普通线
100
AcDbVertex
100
AcDb2dVertex
 10
261.2598222189667
 20
701.0722872025697
 30
0.0
  0
VERTEX
  5
39A
330
2C8
100
AcDbEntity
  8
Make2D$可见线$普通线
100
AcDbVertex
100
AcDb2dVertex
 10
261.281810702993
 20
702.1616752676457
 30
0.0
  0
VERTEX
  5
39B
330
2C8
100
AcDbEntity
  8
Make2D$可见线$普通线
100
AcDbVertex
100
AcDb2dVertex
 10
261.3279346757847
 20
703.2487920150222
 30
0.0
  0
VERTEX
  5
39C
330
2C8
100
AcDbEntity
  8
Make2D$可见线$普通线
100
AcDbVertex
100
AcDb2dVertex
 10
261.3631894058173
 20
703.7915251287275
 30
0.0
  0
VERTEX
  5
39D
330
2C8
100
AcDbEntity
  8
Make2D$可见线$普通线
100
AcDbVertex
100
AcDb2dVertex
 10
261.4082483304606
 20
704.333722193993
 30
0.0
  0
VERTEX
  5
39E
330
2C8
100
AcDbEntity
  8
Make2D$可见线$普通线
100
AcDbVertex
100
AcDb2dVertex
 10
261.4939885271554
 20
705.1190850166588
 30
0.0
  0
VERTEX
  5
39F
330
2C8
100
AcDbEntity
  8
Make2D$可见线$普通线
100
AcDbVertex
100
AcDb2dVertex
 10
261.5474483869629
 20
705.5104693774763
 30
0.0
  0
VERTEX
  5
3A0
330
2C8
100
AcDbEntity
  8
Make2D$可见线$普通线
100
AcDbVertex
100
AcDb2dVertex
 10
261.6089579039612
 20
705.9005185601083
 30
0.0
  0
VERTEX
  5
3A1
330
2C8
100
AcDbEntity
  8
Make2D$可见线$普通线
100
AcDbVertex
100
AcDb2dVertex
 10
261.6792594403136
 20
706.2888797061732
 30
0.0
  0
VERTEX
  5
3A2
330
2C8
100
AcDbEntity
  8
Make2D$可见线$普通线
100
AcDbVertex
100
AcDb2dVertex
 10
261.7590953581831
 20
706.67519995729
 30
0.0
  0
VERTEX
  5
3A3
330
2C8
100
AcDbEntity
  8
Make2D$可见线$普通线
100
AcDbVertex
100
AcDb2dVertex
 10
261.8492080197329
 20
707.0591264550767
 30
0.0
  0
VERTEX
  5
3A4
330
2C8
100
AcDbEntity
  8
Make2D$可见线$普通线
100
AcDbVertex
100
AcDb2dVertex
 10
261.9503397871262
 20
707.4403063411523
 30
0.0
  0
VERTEX
  5
3A5
330
2C8
100
AcDbEntity
  8
Make2D$可见线$普通线
100
AcDbVertex
100
AcDb2dVertex
 10
262.0379491860825
 20
707.7372505610476
 30
0.0
  0
VERTEX
  5
3A6
330
2C8
100
AcDbEntity
  8
Make2D$可见线$普通线
100
AcDbVertex
100
AcDb2dVertex
 10
262.133388632083
 20
708.0317303232999
 30
0.0
  0
VERTEX
  5
3A7
330
2C8
100
AcDbEntity
  8
Make2D$可见线$普通线
100
AcDbVertex
100
AcDb2dVertex
 10
262.2372435975606
 20
708.3231903147991
 30
0.0
  0
VERTEX
  5
3A8
330
2C8
100
AcDbEntity
  8
Make2D$可见线$普通线
100
AcDbVertex
100
AcDb2dVertex
 10
262.3500995549481
 20
708.6110752224351
 30
0.0
  0
VERTEX
  5
3A9
330
2C8
100
AcDbEntity
  8
Make2D$可见线$普通线
100
AcDbVertex
100
AcDb2dVertex
 10
262.4100858657434
 20
708.7535034844574
 30
0.0
  0
VERTEX
  5
3AA
330
2C8
100
AcDbEntity
  8
Make2D$可见线$普通线
100
AcDbVertex
100
AcDb2dVertex
 10
262.4725419766785
 20
708.8948297330976
 30
0.0
  0
VERTEX
  5
3AB
330
2C8
100
AcDbEntity
  8
Make2D$可见线$普通线
100
AcDbVertex
100
AcDb2dVertex
 10
262.5375410718076
 20
709.0349845542169
 30
0.0
  0
VERTEX
  5
3AC
330
2C8
100
AcDbEntity
  8
Make2D$可见线$普通线
100
AcDbVertex
100
AcDb2dVertex
 10
262.6051563351847
 20
709.1738985336764
 30
0.0
  0
VERTEX
  5
3AD
330
2C8
100
AcDbEntity
  8
Make2D$可见线$普通线
100
AcDbVertex
100
AcDb2dVertex
 10
262.675460950864
 20
709.3115022573375
 30
0.0
  0
VERTEX
  5
3AE
330
2C8
100
AcDbEntity
  8
Make2D$可见线$普通线
100
AcDbVertex
100
AcDb2dVertex
 10
262.7485281028996
 20
709.4477263110614
 30
0.0
  0
VERTEX
  5
3AF
330
2C8
100
AcDbEntity
  8
Make2D$可见线$普通线
100
AcDbVertex
100
AcDb2dVertex
 10
262.8244309753455
 20
709.5825012807093
 30
0.0
  0
VERTEX
  5
3B0
330
2C8
100
AcDbEntity
  8
Make2D$可见线$普通线
100
AcDbVertex
100
AcDb2dVertex
 10
262.903242752256
 20
709.7157577521424
 30
0.0
  0
VERTEX
  5
3B1
330
2C8
100
AcDbEntity
  8
Make2D$可见线$普通线
100
AcDbVertex
100
AcDb2dVertex
 10
262.9824467989887
 20
709.843398063126
 30
0.0
  0
VERTEX
  5
3B2
330
2C8
100
AcDbEntity
  8
Make2D$可见线$普通线
100
AcDbVertex
100
AcDb2dVertex
 10
263.0643718161919
 20
709.9695084132072
 30
0.0
  0
VERTEX
  5
3B3
330
2C8
100
AcDbEntity
  8
Make2D$可见线$普通线
100
AcDbVertex
100
AcDb2dVertex
 10
263.1489376140917
 20
710.0940504125515
 30
0.0
  0
VERTEX
  5
3B4
330
2C8
100
AcDbEntity
  8
Make2D$可见线$普通线
100
AcDbVertex
100
AcDb2dVertex
 10
263.2360640029144
 20
710.2169856713242
 30
0.0
  0
VERTEX
  5
3B5
330
2C8
100
AcDbEntity
  8
Make2D$可见线$普通线
100
AcDbVertex
100
AcDb2dVertex
 10
263.3256707928862
 20
710.338275799691
 30
0.0
  0
VERTEX
  5
3B6
330
2C8
100
AcDbEntity
  8
Make2D$可见线$普通线
100
AcDbVertex
100
AcDb2dVertex
 10
263.417677794233
 20
710.4578824078171
 30
0.0
  0
VERTEX
  5
3B7
330
2C8
100
AcDbEntity
  8
Make2D$可见线$普通线
100
AcDbVertex
100
AcDb2dVertex
 10
263.5120048171811
 20
710.5757671058684
 30
0.0
  0
VERTEX
  5
3B8
330
2C8
100
AcDbEntity
  8
Make2D$可见线$普通线
100
AcDbVertex
100
AcDb2dVertex
 10
263.6085716719567
 20
710.6918915040098
 30
0.0
  0
VERTEX
  5
3B9
330
2C8
100
AcDbEntity
  8
Make2D$可见线$普通线
100
AcDbVertex
100
AcDb2dVertex
 10
263.707298168786
 20
710.8062172124072
 30
0.0
  0
VERTEX
  5
3BA
330
2C8
100
AcDbEntity
  8
Make2D$可见线$普通线
100
AcDbVertex
100
AcDb2dVertex
 10
263.808104117895
 20
710.9187058412259
 30
0.0
  0
VERTEX
  5
3BB
330
2C8
100
AcDbEntity
  8
Make2D$可见线$普通线
100
AcDbVertex
100
AcDb2dVertex
 10
263.9109093295099
 20
711.0293190006314
 30
0.0
  0
VERTEX
  5
3BC
330
2C8
100
AcDbEntity
  8
Make2D$可见线$普通线
100
AcDbVertex
100
AcDb2dVertex
 10
264.0156336138568
 20
711.1380183007891
 30
0.0
  0
VERTEX
  5
3BD
330
2C8
100
AcDbEntity
  8
Make2D$可见线$普通线
100
AcDbVertex
100
AcDb2dVertex
 10
264.122196781162
 20
711.2447653518645
 30
0.0
  0
VERTEX
  5
3BE
330
2C8
100
AcDbEntity
  8
Make2D$可见线$普通线
100
AcDbVertex
100
AcDb2dVertex
 10
264.2305186416517
 20
711.3495217640233
 30
0.0
  0
VERTEX
  5
3BF
330
2C8
100
AcDbEntity
  8
Make2D$可见线$普通线
100
AcDbVertex
100
AcDb2dVertex
 10
264.4521176830887
 20
711.5529091122521
 30
0.0
  0
VERTEX
  5
3C0
330
2C8
100
AcDbEntity
  8
Make2D$可见线$普通线
100
AcDbVertex
100
AcDb2dVertex
 10
264.5908277996081
 20
711.6733025473424
 30
0.0
  0
VERTEX
  5
3C1
330
2C8
100
AcDbEntity
  8
Make2D$可见线$普通线
100
AcDbVertex
100
AcDb2dVertex
 10
264.7317502657928
 20
711.7905930143745
 30
0.0
  0
VERTEX
  5
3C2
330
2C8
100
AcDbEntity
  8
Make2D$可见线$普通线
100
AcDbVertex
100
AcDb2dVertex
 10
264.8748216725165
 20
711.9048342785079
 30
0.0
  0
VERTEX
  5
3C3
330
2C8
100
AcDbEntity
  8
Make2D$可见线$普通线
100
AcDbVertex
100
AcDb2dVertex
 10
265.0199786106529
 20
712.016080104902
 30
0.0
  0
VERTEX
  5
3C4
330
2C8
100
AcDbEntity
  8
Make2D$可见线$普通线
100
AcDbVertex
100
AcDb2dVertex
 10
265.1671576710757
 20
712.124384258716
 30
0.0
  0
VERTEX
  5
3C5
330
2C8
100
AcDbEntity
  8
Make2D$可见线$普通线
100
AcDbVertex
100
AcDb2dVertex
 10
265.3162954446586
 20
712.2298005051093
 30
0.0
  0
VERTEX
  5
3C6
330
2C8
100
AcDbEntity
  8
Make2D$可见线$普通线
100
AcDbVertex
100
AcDb2dVertex
 10
265.4673285222754
 20
712.332382609241
 30
0.0
  0
VERTEX
  5
3C7
330
2C8
100
AcDbEntity
  8
Make2D$可见线$普通线
100
AcDbVertex
100
AcDb2dVertex
 10
265.6201934947997
 20
712.4321843362707
 30
0.0
  0
VERTEX
  5
3C8
330
2C8
100
AcDbEntity
  8
Make2D$可见线$普通线
100
AcDbVertex
100
AcDb2dVertex
 10
265.931165488066
 20
712.6236617196612
 30
0.0
  0
VERTEX
  5
3C9
330
2C8
100
AcDbEntity
  8
Make2D$可见线$普通线
100
AcDbVertex
100
AcDb2dVertex
 10
266.248704151447
 20
712.8046627765552
 30
0.0
  0
VERTEX
  5
3CA
330
2C8
100
AcDbEntity
  8
Make2D$可见线$普通线
100
AcDbVertex
100
AcDb2dVertex
 10
266.5723022119328
 20
712.9756176282273
 30
0.0
  0
VERTEX
  5
3CB
330
2C8
100
AcDbEntity
  8
Make2D$可见线$普通线
100
AcDbVertex
100
AcDb2dVertex
 10
266.9014523965129
 20
713.1369563959522
 30
0.0
  0
VERTEX
  5
3CC
330
2C8
100
AcDbEntity
  8
Make2D$可见线$普通线
100
AcDbVertex
100
AcDb2dVertex
 10
267.2356474321772
 20
713.2891092010046
 30
0.0
  0
VERTEX
  5
3CD
330
2C8
100
AcDbEntity
  8
Make2D$可见线$普通线
100
AcDbVertex
100
AcDb2dVertex
 10
267.5743800459153
 20
713.4325061646589
 30
0.0
  0
VERTEX
  5
3CE
330
2C8
100
AcDbEntity
  8
Make2D$可见线$普通线
100
AcDbVertex
100
AcDb2dVertex
 10
267.9171429647171
 20
713.5675774081899
 30
0.0
  0
VERTEX
  5
3CF
330
2C8
100
AcDbEntity
  8
Make2D$可见线$普通线
100
AcDbVertex
100
AcDb2dVertex
 10
268.2634289155723
 20
713.6947530528721
 30
0.0
  0
VERTEX
  5
3D0
330
2C8
100
AcDbEntity
  8
Make2D$可见线$普通线
100
AcDbVertex
100
AcDb2dVertex
 10
268.6127306254706
 20
713.8144632199802
 30
0.0
  0
VERTEX
  5
3D1
330
2C8
100
AcDbEntity
  8
Make2D$可见线$普通线
100
AcDbVertex
100
AcDb2dVertex
 10
268.9645408214018
 20
713.9271380307888
 30
0.0
  0
VERTEX
  5
3D2
330
2C8
100
AcDbEntity
  8
Make2D$可见线$普通线
100
AcDbVertex
100
AcDb2dVertex
 10
269.6736575793219
 20
714.1331020686059
 30
0.0
  0
VERTEX
  5
3D3
330
2C8
100
AcDbEntity
  8
Make2D$可见线$普通线
100
AcDbVertex
100
AcDb2dVertex
 10
270.1687559482103
 20
714.2622440941888
 30
0.0
  0
VERTEX
  5
3D4
330
2C8
100
AcDbEntity
  8
Make2D$可见线$普通线
100
AcDbVertex
100
AcDb2dVertex
 10
270.665654375248
 20
714.3806659444278
 30
0.0
  0
VERTEX
  5
3D5
330
2C8
100
AcDbEntity
  8
Make2D$可见线$普通线
100
AcDbVertex
100
AcDb2dVertex
 10
271.1642505346232
 20
714.4887243133954
 30
0.0
  0
VERTEX
  5
3D6
330
2C8
100
AcDbEntity
  8
Make2D$可见线$普通线
100
AcDbVertex
100
AcDb2dVertex
 10
271.6644421005245
 20
714.5867758951636
 30
0.0
  0
VERTEX
  5
3D7
330
2C8
100
AcDbEntity
  8
Make2D$可见线$普通线
100
AcDbVertex
100
AcDb2dVertex
 10
272.1661267471404
 20
714.6751773838043
 30
0.0
  0
VERTEX
  5
3D8
330
2C8
100
AcDbEntity
  8
Make2D$可见线$普通线
100
AcDbVertex
100
AcDb2dVertex
 10
272.6692021486592
 20
714.7542854733899
 30
0.0
  0
VERTEX
  5
3D9
330
2C8
100
AcDbEntity
  8
Make2D$可见线$普通线
100
AcDbVertex
100
AcDb2dVertex
 10
273.67911591316
 20
714.8860482316836
 30
0.0
  0
VERTEX
  5
3DA
330
2C8
100
AcDbEntity
  8
Make2D$可见线$普通线
100
AcDbVertex
100
AcDb2dVertex
 10
274.6933647875348
 20
714.9849177226216
 30
0.0
  0
VERTEX
  5
3DB
330
2C8
100
AcDbEntity
  8
Make2D$可见线$普通线
100
AcDbVertex
100
AcDb2dVertex
 10
275.7111301652914
 20
715.0537474987808
 30
0.0
  0
VERTEX
  5
3DC
330
2C8
100
AcDbEntity
  8
Make2D$可见线$普通线
100
AcDbVertex
100
AcDb2dVertex
 10
276.7315934399376
 20
715.0953911127381
 30
0.0
  0
VERTEX
  5
3DD
330
2C8
100
AcDbEntity
  8
Make2D$可见线$普通线
100
AcDbVertex
100
AcDb2dVertex
 10
277.7539360049814
 20
715.1127021170705
 30
0.0
  0
SEQEND
  5
3DE
330
2C8
100
AcDbEntity
  8
Make2D$可见线$普通线
  0
POLYLINE
  5
3DF
330
1F
100
AcDbEntity
  8
Make2D$可见线$普通线
100
AcDb2dPolyline
 66
     1
 10
0.0
 20
0.0
 30
0.0
  0
VERTEX
  5
3E0
330
3DF
100
AcDbEntity
  8
Make2D$可见线$普通线
100
AcDbVertex
100
AcDb2dVertex
 10
277.7539425265026
 20
704.1473273943076
 30
0.0
 42
-0.0607252464149627
  0
VERTEX
  5
3E1
330
3DF
100
AcDbEntity
  8
Make2D$可见线$普通线
100
AcDbVertex
100
AcDb2dVertex
 10
279.9401235879433
 20
703.9909845506497
 30
0.0
  0
VERTEX
  5
3E2
330
3DF
100
AcDbEntity
  8
Make2D$可见线$普通线
100
AcDbVertex
100
AcDb2dVertex
 10
280.2338889188826
 20
703.9461613871763
 30
0.0
  0
VERTEX
  5
3E3
330
3DF
100
AcDbEntity
  8
Make2D$可见线$普通线
100
AcDbVertex
100
AcDb2dVertex
 10
280.5268240719035
 20
703.8956757732815
 30
0.0
  0
VERTEX
  5
3E4
330
3DF
100
AcDbEntity
  8
Make2D$可见线$普通线
100
AcDbVertex
100
AcDb2dVertex
 10
280.818800112893
 20
703.8395317447589
 30
0.0
  0
VERTEX
  5
3E5
330
3DF
100
AcDbEntity
  8
Make2D$可见线$普通线
100
AcDbVertex
100
AcDb2dVertex
 10
281.109688107738
 20
703.7777333374022
 30
0.0
  0
VERTEX
  5
3E6
330
3DF
100
AcDbEntity
  8
Make2D$可见线$普通线
100
AcDbVertex
100
AcDb2dVertex
 10
281.3993591223253
 20
703.7102845870053
 30
0.0
  0
VERTEX
  5
3E7
330
3DF
100
AcDbEntity
  8
Make2D$可见线$普通线
100
AcDbVertex
100
AcDb2dVertex
 10
281.6876842225419
 20
703.637189529362
 30
0.0
  0
VERTEX
  5
3E8
330
3DF
100
AcDbEntity
  8
Make2D$可见线$普通线
100
AcDbVertex
100
AcDb2dVertex
 10
281.9745344742745
 20
703.558452200266
 30
0.0
  0
VERTEX
  5
3E9
330
3DF
100
AcDbEntity
  8
Make2D$可见线$普通线
100
AcDbVertex
100
AcDb2dVertex
 10
282.2597809434104
 20
703.4740766355112
 30
0.0
  0
VERTEX
  5
3EA
330
3DF
100
AcDbEntity
  8
Make2D$可见线$普通线
100
AcDbVertex
100
AcDb2dVertex
 10
282.5432946958361
 20
703.3840668708909
 30
0.0
  0
VERTEX
  5
3EB
330
3DF
100
AcDbEntity
  8
Make2D$可见线$普通线
100
AcDbVertex
100
AcDb2dVertex
 10
282.8249467974387
 20
703.2884269421993
 30
0.0
  0
VERTEX
  5
3EC
330
3DF
100
AcDbEntity
  8
Make2D$可见线$普通线
100
AcDbVertex
100
AcDb2dVertex
 10
283.1046083141051
 20
703.18716088523
 30
0.0
  0
VERTEX
  5
3ED
330
3DF
100
AcDbEntity
  8
Make2D$可见线$普通线
100
AcDbVertex
100
AcDb2dVertex
 10
283.3821503117221
 20
703.0802727357768
 30
0.0
  0
VERTEX
  5
3EE
330
3DF
100
AcDbEntity
  8
Make2D$可见线$普通线
100
AcDbVertex
100
AcDb2dVertex
 10
283.6574438561767
 20
702.9677665296334
 30
0.0
  0
VERTEX
  5
3EF
330
3DF
100
AcDbEntity
  8
Make2D$可见线$普通线
100
AcDbVertex
100
AcDb2dVertex
 10
283.9303600133557
 20
702.8496463025936
 30
0.0
  0
VERTEX
  5
3F0
330
3DF
100
AcDbEntity
  8
Make2D$可见线$普通线
100
AcDbVertex
100
AcDb2dVertex
 10
284.2007698491459
 20
702.7259160904509
 30
0.0
  0
VERTEX
  5
3F1
330
3DF
100
AcDbEntity
  8
Make2D$可见线$普通线
100
AcDbVertex
100
AcDb2dVertex
 10
284.4685444294344
 20
702.5965799289993
 30
0.0
  0
VERTEX
  5
3F2
330
3DF
100
AcDbEntity
  8
Make2D$可见线$普通线
100
AcDbVertex
100
AcDb2dVertex
 10
284.7273739931147
 20
702.4648751115031
 30
0.0
  0
VERTEX
  5
3F3
330
3DF
100
AcDbEntity
  8
Make2D$可见线$普通线
100
AcDbVertex
100
AcDb2dVertex
 10
284.9834381890631
 20
702.3278688226721
 30
0.0
  0
VERTEX
  5
3F4
330
3DF
100
AcDbEntity
  8
Make2D$可见线$普通线
100
AcDbVertex
100
AcDb2dVertex
 10
285.2366077713671
 20
702.185601962176
 30
0.0
  0
VERTEX
  5
3F5
330
3DF
100
AcDbEntity
  8
Make2D$可见线$普通线
100
AcDbVertex
100
AcDb2dVertex
 10
285.4867534941146
 20
702.0381154296847
 30
0.0
  0
VERTEX
  5
3F6
330
3DF
100
AcDbEntity
  8
Make2D$可见线$普通线
100
AcDbVertex
100
AcDb2dVertex
 10
285.7337461113934
 20
701.8854501248683
 30
0.0
  0
VERTEX
  5
3F7
330
3DF
100
AcDbEntity
  8
Make2D$可见线$普通线
100
AcDbVertex
100
AcDb2dVertex
 10
285.9774563772913
 20
701.7276469473964
 30
0.0
  0
VERTEX
  5
3F8
330
3DF
100
AcDbEntity
  8
Make2D$可见线$普通线
100
AcDbVertex
100
AcDb2dVertex
 10
286.217755045896
 20
701.564746796939
 30
0.0
  0
VERTEX
  5
3F9
330
3DF
100
AcDbEntity
  8
Make2D$可见线$普通线
100
AcDbVertex
100
AcDb2dVertex
 10
286.4545128712953
 20
701.3967905731658
 30
0.0
  0
VERTEX
  5
3FA
330
3DF
100
AcDbEntity
  8
Make2D$可见线$普通线
100
AcDbVertex
100
AcDb2dVertex
 10
286.687600607577
 20
701.223819175747
 30
0.0
  0
VERTEX
  5
3FB
330
3DF
100
AcDbEntity
  8
Make2D$可见线$普通线
100
AcDbVertex
100
AcDb2dVertex
 10
286.9168890088288
 20
701.0458735043524
 30
0.0
  0
VERTEX
  5
3FC
330
3DF
100
AcDbEntity
  8
Make2D$可见线$普通线
100
AcDbVertex
100
AcDb2dVertex
 10
287.1422488291387
 20
700.8629944586517
 30
0.0
  0
VERTEX
  5
3FD
330
3DF
100
AcDbEntity
  8
Make2D$可见线$普通线
100
AcDbVertex
100
AcDb2dVertex
 10
287.3635508225943
 20
700.6752229383148
 30
0.0
  0
VERTEX
  5
3FE
330
3DF
100
AcDbEntity
  8
Make2D$可见线$普通线
100
AcDbVertex
100
AcDb2dVertex
 10
287.5806657432834
 20
700.4825998430118
 30
0.0
  0
VERTEX
  5
3FF
330
3DF
100
AcDbEntity
  8
Make2D$可见线$普通线
100
AcDbVertex
100
AcDb2dVertex
 10
287.7934643452937
 20
700.2851660724125
 30
0.0
  0
VERTEX
  5
400
330
3DF
100
AcDbEntity
  8
Make2D$可见线$普通线
100
AcDbVertex
100
AcDb2dVertex
 10
288.0018173827132
 20
700.0829625261866
 30
0.0
  0
VERTEX
  5
401
330
3DF
100
AcDbEntity
  8
Make2D$可见线$普通线
100
AcDbVertex
100
AcDb2dVertex
 10
288.2055956096296
 20
699.8760301040043
 30
0.0
  0
VERTEX
  5
402
330
3DF
100
AcDbEntity
  8
Make2D$可见线$普通线
100
AcDbVertex
100
AcDb2dVertex
 10
288.3970807070812
 20
699.6726626402308
 30
0.0
  0
VERTEX
  5
403
330
3DF
100
AcDbEntity
  8
Make2D$可见线$普通线
100
AcDbVertex
100
AcDb2dVertex
 10
288.5840738686006
 20
699.4650577545216
 30
0.0
  0
VERTEX
  5
404
330
3DF
100
AcDbEntity
  8
Make2D$可见线$普通线
100
AcDbVertex
100
AcDb2dVertex
 10
288.7664315809299
 20
699.2533115831676
 30
0.0
  0
VERTEX
  5
405
330
3DF
100
AcDbEntity
  8
Make2D$可见线$普通线
100
AcDbVertex
100
AcDb2dVertex
 10
288.9440103308111
 20
699.0375202624605
 30
0.0
  0
VERTEX
  5
406
330
3DF
100
AcDbEntity
  8
Make2D$可见线$普通线
100
AcDbVertex
100
AcDb2dVertex
 10
289.116666604986
 20
698.8177799286912
 30
0.0
  0
VERTEX
  5
407
330
3DF
100
AcDbEntity
  8
Make2D$可见线$普通线
100
AcDbVertex
100
AcDb2dVertex
 10
289.2842568901966
 20
698.5941867181514
 30
0.0
  0
VERTEX
  5
408
330
3DF
100
AcDbEntity
  8
Make2D$可见线$普通线
100
AcDbVertex
100
AcDb2dVertex
 10
289.4466376731847
 20
698.366836767132
 30
0.0
  0
VERTEX
  5
409
330
3DF
100
AcDbEntity
  8
Make2D$可见线$普通线
100
AcDbVertex
100
AcDb2dVertex
 10
289.6036654406924
 20
698.1358262119245
 30
0.0
  0
VERTEX
  5
40A
330
3DF
100
AcDbEntity
  8
Make2D$可见线$普通线
100
AcDbVertex
100
AcDb2dVertex
 10
289.7551966794615
 20
697.9012511888203
 30
0.0
  0
VERTEX
  5
40B
330
3DF
100
AcDbEntity
  8
Make2D$可见线$普通线
100
AcDbVertex
100
AcDb2dVertex
 10
289.901087876234
 20
697.6632078341106
 30
0.0
  0
VERTEX
  5
40C
330
3DF
100
AcDbEntity
  8
Make2D$可见线$普通线
100
AcDbVertex
100
AcDb2dVertex
 10
290.0411955177518
 20
697.4217922840867
 30
0.0
  0
VERTEX
  5
40D
330
3DF
100
AcDbEntity
  8
Make2D$可见线$普通线
100
AcDbVertex
100
AcDb2dVertex
 10
290.1753760907568
 20
697.1771006750399
 30
0.0
  0
VERTEX
  5
40E
330
3DF
100
AcDbEntity
  8
Make2D$可见线$普通线
100
AcDbVertex
100
AcDb2dVertex
 10
290.303486081991
 20
696.9292291432616
 30
0.0
  0
VERTEX
  5
40F
330
3DF
100
AcDbEntity
  8
Make2D$可见线$普通线
100
AcDbVertex
100
AcDb2dVertex
 10
290.4253819781962
 20
696.6782738250431
 30
0.0
  0
VERTEX
  5
410
330
3DF
100
AcDbEntity
  8
Make2D$可见线$普通线
100
AcDbVertex
100
AcDb2dVertex
 10
290.5409202661145
 20
696.4243308566756
 30
0.0
  0
VERTEX
  5
411
330
3DF
100
AcDbEntity
  8
Make2D$可见线$普通线
100
AcDbVertex
100
AcDb2dVertex
 10
290.6499574324877
 20
696.1674963744504
 30
0.0
  0
VERTEX
  5
412
330
3DF
100
AcDbEntity
  8
Make2D$可见线$普通线
100
AcDbVertex
100
AcDb2dVertex
 10
290.7463751944272
 20
695.9236238936758
 30
0.0
  0
VERTEX
  5
413
330
3DF
100
AcDbEntity
  8
Make2D$可见线$普通线
100
AcDbVertex
100
AcDb2dVertex
 10
290.8368854196513
 20
695.6774384341654
 30
0.0
  0
VERTEX
  5
414
330
3DF
100
AcDbEntity
  8
Make2D$可见线$普通线
100
AcDbVertex
100
AcDb2dVertex
 10
290.921447464249
 20
695.4290952010671
 30
0.0
  0
VERTEX
  5
415
330
3DF
100
AcDbEntity
  8
Make2D$可见线$普通线
100
AcDbVertex
100
AcDb2dVertex
 10
291.0000206843101
 20
695.1787493995282
 30
0.0
  0
VERTEX
  5
416
330
3DF
100
AcDbEntity
  8
Make2D$可见线$普通线
100
AcDbVertex
100
AcDb2dVertex
 10
291.0725644359237
 20
694.9265562346965
 30
0.0
  0
VERTEX
  5
417
330
3DF
100
AcDbEntity
  8
Make2D$可见线$普通线
100
AcDbVertex
100
AcDb2dVertex
 10
291.139038075179
 20
694.6726709117195
 30
0.0
  0
VERTEX
  5
418
330
3DF
100
AcDbEntity
  8
Make2D$可见线$普通线
100
AcDbVertex
100
AcDb2dVertex
 10
291.1994009581657
 20
694.417248635745
 30
0.0
  0
VERTEX
  5
419
330
3DF
100
AcDbEntity
  8
Make2D$可见线$普通线
100
AcDbVertex
100
AcDb2dVertex
 10
291.2536124409729
 20
694.1604446119201
 30
0.0
  0
VERTEX
  5
41A
330
3DF
100
AcDbEntity
  8
Make2D$可见线$普通线
100
AcDbVertex
100
AcDb2dVertex
 10
291.3016318796901
 20
693.9024140453927
 30
0.0
  0
VERTEX
  5
41B
330
3DF
100
AcDbEntity
  8
Make2D$可见线$普通线
100
AcDbVertex
100
AcDb2dVertex
 10
291.3434186304067
 20
693.6433121413104
 30
0.0
  0
VERTEX
  5
41C
330
3DF
100
AcDbEntity
  8
Make2D$可见线$普通线
100
AcDbVertex
100
AcDb2dVertex
 10
291.378932049212
 20
693.3832941048208
 30
0.0
  0
VERTEX
  5
41D
330
3DF
100
AcDbEntity
  8
Make2D$可见线$普通线
100
AcDbVertex
100
AcDb2dVertex
 10
291.4081314921953
 20
693.1225151410715
 30
0.0
  0
VERTEX
  5
41E
330
3DF
100
AcDbEntity
  8
Make2D$可见线$普通线
100
AcDbVertex
100
AcDb2dVertex
 10
291.4309763154459
 20
692.86113045521
 30
0.0
  0
VERTEX
  5
41F
330
3DF
100
AcDbEntity
  8
Make2D$可见线$普通线
100
AcDbVertex
100
AcDb2dVertex
 10
291.4474258750533
 20
692.5992952523837
 30
0.0
  0
VERTEX
  5
420
330
3DF
100
AcDbEntity
  8
Make2D$可见线$普通线
100
AcDbVertex
100
AcDb2dVertex
 10
291.4574395271069
 20
692.3371647377405
 30
0.0
  0
VERTEX
  5
421
330
3DF
100
AcDbEntity
  8
Make2D$可见线$普通线
100
AcDbVertex
100
AcDb2dVertex
 10
291.4609766276959
 20
692.0748941164279
 30
0.0
  0
VERTEX
  5
422
330
3DF
100
AcDbEntity
  8
Make2D$可见线$普通线
100
AcDbVertex
100
AcDb2dVertex
 10
291.4579990247777
 20
691.8121758055025
 30
0.0
  0
VERTEX
  5
423
330
3DF
100
AcDbEntity
  8
Make2D$可见线$普通线
100
AcDbVertex
100
AcDb2dVertex
 10
291.4485214750862
 20
691.5496228237394
 30
0.0
  0
VERTEX
  5
424
330
3DF
100
AcDbEntity
  8
Make2D$可见线$普通线
100
AcDbVertex
100
AcDb2dVertex
 10
291.4325842052743
 20
691.2873853485887
 30
0.0
  0
VERTEX
  5
425
330
3DF
100
AcDbEntity
  8
Make2D$可见线$普通线
100
AcDbVertex
100
AcDb2dVertex
 10
291.4102274419948
 20
691.025613557501
 30
0.0
  0
VERTEX
  5
426
330
3DF
100
AcDbEntity
  8
Make2D$可见线$普通线
100
AcDbVertex
100
AcDb2dVertex
 10
291.3814914119005
 20
690.7644576279264
 30
0.0
  0
VERTEX
  5
427
330
3DF
100
AcDbEntity
  8
Make2D$可见线$普通线
100
AcDbVertex
100
AcDb2dVertex
 10
291.3464163416439
 20
690.5040677373155
 30
0.0
  0
VERTEX
  5
428
330
3DF
100
AcDbEntity
  8
Make2D$可见线$普通线
100
AcDbVertex
100
AcDb2dVertex
 10
291.3050424578781
 20
690.2445940631187
 30
0.0
  0
VERTEX
  5
429
330
3DF
100
AcDbEntity
  8
Make2D$可见线$普通线
100
AcDbVertex
100
AcDb2dVertex
 10
291.2574099872556
 20
689.9861867827865
 30
0.0
  0
VERTEX
  5
42A
330
3DF
100
AcDbEntity
  8
Make2D$可见线$普通线
100
AcDbVertex
100
AcDb2dVertex
 10
291.2035591564294
 20
689.7289960737692
 30
0.0
  0
VERTEX
  5
42B
330
3DF
100
AcDbEntity
  8
Make2D$可见线$普通线
100
AcDbVertex
100
AcDb2dVertex
 10
291.1435301920522
 20
689.473172113517
 30
0.0
  0
VERTEX
  5
42C
330
3DF
100
AcDbEntity
  8
Make2D$可见线$普通线
100
AcDbVertex
100
AcDb2dVertex
 10
291.0773633207767
 20
689.2188650794803
 30
0.0
  0
VERTEX
  5
42D
330
3DF
100
AcDbEntity
  8
Make2D$可见线$普通线
100
AcDbVertex
100
AcDb2dVertex
 10
291.0050987692557
 20
688.9662251491097
 30
0.0
  0
VERTEX
  5
42E
330
3DF
100
AcDbEntity
  8
Make2D$可见线$普通线
100
AcDbVertex
100
AcDb2dVertex
 10
290.926776764142
 20
688.7154024998556
 30
0.0
  0
VERTEX
  5
42F
330
3DF
100
AcDbEntity
  8
Make2D$可见线$普通线
100
AcDbVertex
100
AcDb2dVertex
 10
290.8424375320884
 20
688.4665473091682
 30
0.0
  0
VERTEX
  5
430
330
3DF
100
AcDbEntity
  8
Make2D$可见线$普通线
100
AcDbVertex
100
AcDb2dVertex
 10
290.7521212997475
 20
688.219809754498
 30
0.0
  0
VERTEX
  5
431
330
3DF
100
AcDbEntity
  8
Make2D$可见线$普通线
100
AcDbVertex
100
AcDb2dVertex
 10
290.6558682937723
 20
687.9753400132954
 30
0.0
  0
VERTEX
  5
432
330
3DF
100
AcDbEntity
  8
Make2D$可见线$普通线
100
AcDbVertex
100
AcDb2dVertex
 10
290.5482075007793
 20
687.720633817549
 30
0.0
  0
VERTEX
  5
433
330
3DF
100
AcDbEntity
  8
Make2D$可见线$普通线
100
AcDbVertex
100
AcDb2dVertex
 10
290.4341551814362
 20
687.468708602898
 30
0.0
  0
VERTEX
  5
434
330
3DF
100
AcDbEntity
  8
Make2D$可见线$普通线
100
AcDbVertex
100
AcDb2dVertex
 10
290.3138519651509
 20
687.2196667160871
 30
0.0
  0
VERTEX
  5
435
330
3DF
100
AcDbEntity
  8
Make2D$可见线$普通线
100
AcDbVertex
100
AcDb2dVertex
 10
290.1874384813311
 20
686.973610503861
 30
0.0
  0
VERTEX
  5
436
330
3DF
100
AcDbEntity
  8
Make2D$可见线$普通线
100
AcDbVertex
100
AcDb2dVertex
 10
290.0550553593848
 20
686.730642312964
 30
0.0
  0
VERTEX
  5
437
330
3DF
100
AcDbEntity
  8
Make2D$可见线$普通线
100
AcDbVertex
100
AcDb2dVertex
 10
289.9168432287199
 20
686.4908644901409
 30
0.0
  0
VERTEX
  5
438
330
3DF
100
AcDbEntity
  8
Make2D$可见线$普通线
100
AcDbVertex
100
AcDb2dVertex
 10
289.7729427187442
 20
686.2543793821359
 30
0.0
  0
VERTEX
  5
439
330
3DF
100
AcDbEntity
  8
Make2D$可见线$普通线
100
AcDbVertex
100
AcDb2dVertex
 10
289.6234944588655
 20
686.0212893356936
 30
0.0
  0
VERTEX
  5
43A
330
3DF
100
AcDbEntity
  8
Make2D$可见线$普通线
100
AcDbVertex
100
AcDb2dVertex
 10
289.4686390784919
 20
685.791696697559
 30
0.0
  0
VERTEX
  5
43B
330
3DF
100
AcDbEntity
  8
Make2D$可见线$普通线
100
AcDbVertex
100
AcDb2dVertex
 10
289.3085172070311
 20
685.5657038144761
 30
0.0
  0
VERTEX
  5
43C
330
3DF
100
AcDbEntity
  8
Make2D$可见线$普通线
100
AcDbVertex
100
AcDb2dVertex
 10
289.1432694738909
 20
685.3434130331896
 30
0.0
  0
VERTEX
  5
43D
330
3DF
100
AcDbEntity
  8
Make2D$可见线$普通线
100
AcDbVertex
100
AcDb2dVertex
 10
288.9730365084794
 20
685.1249267004441
 30
0.0
  0
VERTEX
  5
43E
330
3DF
100
AcDbEntity
  8
Make2D$可见线$普通线
100
AcDbVertex
100
AcDb2dVertex
 10
288.7979589402044
 20
684.910347162984
 30
0.0
  0
VERTEX
  5
43F
330
3DF
100
AcDbEntity
  8
Make2D$可见线$普通线
100
AcDbVertex
100
AcDb2dVertex
 10
288.6181773984737
 20
684.6997767675541
 30
0.0
  0
VERTEX
  5
440
330
3DF
100
AcDbEntity
  8
Make2D$可见线$普通线
100
AcDbVertex
100
AcDb2dVertex
 10
288.4338325126951
 20
684.4933178608987
 30
0.0
  0
VERTEX
  5
441
330
3DF
100
AcDbEntity
  8
Make2D$可见线$普通线
100
AcDbVertex
100
AcDb2dVertex
 10
288.2450649122767
 20
684.2910727897624
 30
0.0
  0
VERTEX
  5
442
330
3DF
100
AcDbEntity
  8
Make2D$可见线$普通线
100
AcDbVertex
100
AcDb2dVertex
 10
288.0384864810358
 20
684.0795851776107
 30
0.0
  0
VERTEX
  5
443
330
3DF
100
AcDbEntity
  8
Make2D$可见线$普通线
100
AcDbVertex
100
AcDb2dVertex
 10
287.827146266119
 20
683.8730625461028
 30
0.0
  0
VERTEX
  5
444
330
3DF
100
AcDbEntity
  8
Make2D$可见线$普通线
100
AcDbVertex
100
AcDb2dVertex
 10
287.6111781151327
 20
683.6715352620752
 30
0.0
  0
VERTEX
  5
445
330
3DF
100
AcDbEntity
  8
Make2D$可见线$普通线
100
AcDbVertex
100
AcDb2dVertex
 10
287.3907158756832
 20
683.4750336923646
 30
0.0
  0
VERTEX
  5
446
330
3DF
100
AcDbEntity
  8
Make2D$可见线$普通线
100
AcDbVertex
100
AcDb2dVertex
 10
287.1658933953768
 20
683.2835882038078
 30
0.0
  0
VERTEX
  5
447
330
3DF
100
AcDbEntity
  8
Make2D$可见线$普通线
100
AcDbVertex
100
AcDb2dVertex
 10
286.9368445218197
 20
683.0972291632413
 30
0.0
  0
VERTEX
  5
448
330
3DF
100
AcDbEntity
  8
Make2D$可见线$普通线
100
AcDbVertex
100
AcDb2dVertex
 10
286.7037031026184
 20
682.915986937502
 30
0.0
  0
VERTEX
  5
449
330
3DF
100
AcDbEntity
  8
Make2D$可见线$普通线
100
AcDbVertex
100
AcDb2dVertex
 10
286.466602985379
 20
682.7398918934264
 30
0.0
  0
VERTEX
  5
44A
330
3DF
100
AcDbEntity
  8
Make2D$可见线$普通线
100
AcDbVertex
100
AcDb2dVertex
 10
286.2256780177079
 20
682.5689743978512
 30
0.0
  0
VERTEX
  5
44B
330
3DF
100
AcDbEntity
  8
Make2D$可见线$普通线
100
AcDbVertex
100
AcDb2dVertex
 10
285.9810620472115
 20
682.4032648176129
 30
0.0
  0
VERTEX
  5
44C
330
3DF
100
AcDbEntity
  8
Make2D$可见线$普通线
100
AcDbVertex
100
AcDb2dVertex
 10
285.7328889214961
 20
682.2427935195484
 30
0.0
  0
VERTEX
  5
44D
330
3DF
100
AcDbEntity
  8
Make2D$可见线$普通线
100
AcDbVertex
100
AcDb2dVertex
 10
285.4812924881678
 20
682.0875908704943
 30
0.0
  0
VERTEX
  5
44E
330
3DF
100
AcDbEntity
  8
Make2D$可见线$普通线
100
AcDbVertex
100
AcDb2dVertex
 10
285.2264065948331
 20
681.937687237287
 30
0.0
  0
VERTEX
  5
44F
330
3DF
100
AcDbEntity
  8
Make2D$可见线$普通线
100
AcDbVertex
100
AcDb2dVertex
 10
284.9683650890982
 20
681.7931129867636
 30
0.0
  0
VERTEX
  5
450
330
3DF
100
AcDbEntity
  8
Make2D$可见线$普通线
100
AcDbVertex
100
AcDb2dVertex
 10
284.7073018185694
 20
681.6538984857605
 30
0.0
  0
VERTEX
  5
451
330
3DF
100
AcDbEntity
  8
Make2D$可见线$普通线
100
AcDbVertex
100
AcDb2dVertex
 10
284.4433506308531
 20
681.5200741011142
 30
0.0
  0
VERTEX
  5
452
330
3DF
100
AcDbEntity
  8
Make2D$可见线$普通线
100
AcDbVertex
100
AcDb2dVertex
 10
284.1766453735556
 20
681.3916701996617
 30
0.0
  0
VERTEX
  5
453
330
3DF
100
AcDbEntity
  8
Make2D$可见线$普通线
100
AcDbVertex
100
AcDb2dVertex
 10
283.907319894283
 20
681.2687171482395
 30
0.0
  0
VERTEX
  5
454
330
3DF
100
AcDbEntity
  8
Make2D$可见线$普通线
100
AcDbVertex
100
AcDb2dVertex
 10
283.6355080406419
 20
681.1512453136842
 30
0.0
  0
VERTEX
  5
455
330
3DF
100
AcDbEntity
  8
Make2D$可见线$普通线
100
AcDbVertex
100
AcDb2dVertex
 10
283.3613436602384
 20
681.0392850628325
 30
0.0
  0
VERTEX
  5
456
330
3DF
100
AcDbEntity
  8
Make2D$可见线$普通线
100
AcDbVertex
100
AcDb2dVertex
 10
283.0849606006789
 20
680.9328667625211
 30
0.0
  0
VERTEX
  5
457
330
3DF
100
AcDbEntity
  8
Make2D$可见线$普通线
100
AcDbVertex
100
AcDb2dVertex
 10
282.8064927095696
 20
680.8320207795869
 30
0.0
  0
VERTEX
  5
458
330
3DF
100
AcDbEntity
  8
Make2D$可见线$普通线
100
AcDbVertex
100
AcDb2dVertex
 10
282.5260738345169
 20
680.7367774808661
 30
0.0
  0
VERTEX
  5
459
330
3DF
100
AcDbEntity
  8
Make2D$可见线$普通线
100
AcDbVertex
100
AcDb2dVertex
 10
282.2438378231271
 20
680.6471672331954
 30
0.0
  0
VERTEX
  5
45A
330
3DF
100
AcDbEntity
  8
Make2D$可见线$普通线
100
AcDbVertex
100
AcDb2dVertex
 10
281.9599185230065
 20
680.5632204034117
 30
0.0
  0
VERTEX
  5
45B
330
3DF
100
AcDbEntity
  8
Make2D$可见线$普通线
100
AcDbVertex
100
AcDb2dVertex
 10
281.6744497817614
 20
680.4849673583517
 30
0.0
  0
VERTEX
  5
45C
330
3DF
100
AcDbEntity
  8
Make2D$可见线$普通线
100
AcDbVertex
100
AcDb2dVertex
 10
281.3875654469982
 20
680.4124384648519
 30
0.0
  0
VERTEX
  5
45D
330
3DF
100
AcDbEntity
  8
Make2D$可见线$普通线
100
AcDbVertex
100
AcDb2dVertex
 10
281.099399366323
 20
680.3456640897489
 30
0.0
  0
VERTEX
  5
45E
330
3DF
100
AcDbEntity
  8
Make2D$可见线$普通线
100
AcDbVertex
100
AcDb2dVertex
 10
280.8100853873422
 20
680.2846745998795
 30
0.0
  0
VERTEX
  5
45F
330
3DF
100
AcDbEntity
  8
Make2D$可见线$普通线
100
AcDbVertex
100
AcDb2dVertex
 10
280.5197573576621
 20
680.2295003620803
 30
0.0
  0
VERTEX
  5
460
330
3DF
100
AcDbEntity
  8
Make2D$可见线$普通线
100
AcDbVertex
100
AcDb2dVertex
 10
280.228549124889
 20
680.180171743188
 30
0.0
  0
VERTEX
  5
461
330
3DF
100
AcDbEntity
  8
Make2D$可见线$普通线
100
AcDbVertex
100
AcDb2dVertex
 10
279.9365945366293
 20
680.1367191100392
 30
0.0
  0
VERTEX
  5
462
330
3DF
100
AcDbEntity
  8
Make2D$可见线$普通线
100
AcDbVertex
100
AcDb2dVertex
 10
279.2385337995262
 20
680.0251145792342
 30
0.0
  0
VERTEX
  5
463
330
3DF
100
AcDbEntity
  8
Make2D$可见线$普通线
100
AcDbVertex
100
AcDb2dVertex
 10
279.1236094605725
 20
680.012764454066
 30
0.0
  0
VERTEX
  5
464
330
3DF
100
AcDbEntity
  8
Make2D$可见线$普通线
100
AcDbVertex
100
AcDb2dVertex
 10
279.0083837095342
 20
680.00282137647
 30
0.0
  0
VERTEX
  5
465
330
3DF
100
AcDbEntity
  8
Make2D$可见线$普通线
100
AcDbVertex
100
AcDb2dVertex
 10
278.8929123266372
 20
679.9950595311439
 30
0.0
  0
VERTEX
  5
466
330
3DF
100
AcDbEntity
  8
Make2D$可见线$普通线
100
AcDbVertex
100
AcDb2dVertex
 10
278.6614557861709
 20
679.9851762760895
 30
0.0
  0
VERTEX
  5
467
330
3DF
100
AcDbEntity
  8
Make2D$可见线$普通线
100
AcDbVertex
100
AcDb2dVertex
 10
277.5266876664664
 20
679.9889297100513
 30
0.0
  0
VERTEX
  5
468
330
3DF
100
AcDbEntity
  8
Make2D$可见线$普通线
100
AcDbVertex
100
AcDb2dVertex
 10
276.8413839944357
 20
679.9893985907859
 30
0.0
  0
VERTEX
  5
469
330
3DF
100
AcDbEntity
  8
Make2D$可见线$普通线
100
AcDbVertex
100
AcDb2dVertex
 10
276.6647486736907
 20
679.9942113378295
 30
0.0
  0
VERTEX
  5
46A
330
3DF
100
AcDbEntity
  8
Make2D$可见线$普通线
100
AcDbVertex
100
AcDb2dVertex
 10
276.4883942154224
 20
680.0034036865334
 30
0.0
  0
VERTEX
  5
46B
330
3DF
100
AcDbEntity
  8
Make2D$可见线$普通线
100
AcDbVertex
100
AcDb2dVertex
 10
276.4004227820126
 20
680.0100218221871
 30
0.0
  0
VERTEX
  5
46C
330
3DF
100
AcDbEntity
  8
Make2D$可见线$普通线
100
AcDbVertex
100
AcDb2dVertex
 10
276.3126421309764
 20
680.0181903910707
 30
0.0
  0
VERTEX
  5
46D
330
3DF
100
AcDbEntity
  8
Make2D$可见线$普通线
100
AcDbVertex
100
AcDb2dVertex
 10
276.2250924512322
 20
680.0280612374559
 30
0.0
  0
VERTEX
  5
46E
330
3DF
100
AcDbEntity
  8
Make2D$可见线$普通线
100
AcDbVertex
100
AcDb2dVertex
 10
276.137813931698
 20
680.0397862056143
 30
0.0
  0
VERTEX
  5
46F
330
3DF
100
AcDbEntity
  8
Make2D$可见线$普通线
100
AcDbVertex
100
AcDb2dVertex
 10
275.9966559584712
 20
680.0626186106658
 30
0.0
  0
VERTEX
  5
470
330
3DF
100
AcDbEntity
  8
Make2D$可见线$普通线
100
AcDbVertex
100
AcDb2dVertex
 10
275.7152107533042
 20
680.1135325715858
 30
0.0
  0
VERTEX
  5
471
330
3DF
100
AcDbEntity
  8
Make2D$可见线$普通线
100
AcDbVertex
100
AcDb2dVertex
 10
275.574127108389
 20
680.1363025441003
 30
0.0
  0
VERTEX
  5
472
330
3DF
100
AcDbEntity
  8
Make2D$可见线$普通线
100
AcDbVertex
100
AcDb2dVertex
 10
275.2792340219229
 20
680.1809895474681
 30
0.0
  0
VERTEX
  5
473
330
3DF
100
AcDbEntity
  8
Make2D$可见线$普通线
100
AcDbVertex
100
AcDb2dVertex
 10
274.9852112209751
 20
680.2314296917607
 30
0.0
  0
VERTEX
  5
474
330
3DF
100
AcDbEntity
  8
Make2D$可见线$普通线
100
AcDbVertex
100
AcDb2dVertex
 10
274.6921846694585
 20
680.2876129529956
 30
0.0
  0
VERTEX
  5
475
330
3DF
100
AcDbEntity
  8
Make2D$可见线$普通线
100
AcDbVertex
100
AcDb2dVertex
 10
274.4002803312857
 20
680.3495293071906
 30
0.0
  0
VERTEX
  5
476
330
3DF
100
AcDbEntity
  8
Make2D$可见线$普通线
100
AcDbVertex
100
AcDb2dVertex
 10
274.1096241703699
 20
680.4171687303633
 30
0.0
  0
VERTEX
  5
477
330
3DF
100
AcDbEntity
  8
Make2D$可见线$普通线
100
AcDbVertex
100
AcDb2dVertex
 10
273.8203421506238
 20
680.4905211985318
 30
0.0
  0
VERTEX
  5
478
330
3DF
100
AcDbEntity
  8
Make2D$可见线$普通线
100
AcDbVertex
100
AcDb2dVertex
 10
273.5325602359602
 20
680.5695766877135
 30
0.0
  0
VERTEX
  5
479
330
3DF
100
AcDbEntity
  8
Make2D$可见线$普通线
100
AcDbVertex
100
AcDb2dVertex
 10
273.2464043902921
 20
680.6543251739262
 30
0.0
  0
VERTEX
  5
47A
330
3DF
100
AcDbEntity
  8
Make2D$可见线$普通线
100
AcDbVertex
100
AcDb2dVertex
 10
272.9620005775323
 20
680.7447566331875
 30
0.0
  0
VERTEX
  5
47B
330
3DF
100
AcDbEntity
  8
Make2D$可见线$普通线
100
AcDbVertex
100
AcDb2dVertex
 10
272.6794747615936
 20
680.8408610415153
 30
0.0
  0
VERTEX
  5
47C
330
3DF
100
AcDbEntity
  8
Make2D$可见线$普通线
100
AcDbVertex
100
AcDb2dVertex
 10
272.3989529063889
 20
680.9426283749272
 30
0.0
  0
VERTEX
  5
47D
330
3DF
100
AcDbEntity
  8
Make2D$可见线$普通线
100
AcDbVertex
100
AcDb2dVertex
 10
272.120560975831
 20
681.050048609441
 30
0.0
  0
VERTEX
  5
47E
330
3DF
100
AcDbEntity
  8
Make2D$可见线$普通线
100
AcDbVertex
100
AcDb2dVertex
 10
271.8444249338329
 20
681.1631117210743
 30
0.0
  0
VERTEX
  5
47F
330
3DF
100
AcDbEntity
  8
Make2D$可见线$普通线
100
AcDbVertex
100
AcDb2dVertex
 10
271.5706707443074
 20
681.281807685845
 30
0.0
  0
VERTEX
  5
480
330
3DF
100
AcDbEntity
  8
Make2D$可见线$普通线
100
AcDbVertex
100
AcDb2dVertex
 10
271.2994243711673
 20
681.4061264797707
 30
0.0
  0
VERTEX
  5
481
330
3DF
100
AcDbEntity
  8
Make2D$可见线$普通线
100
AcDbVertex
100
AcDb2dVertex
 10
271.0308117783256
 20
681.5360580788691
 30
0.0
  0
VERTEX
  5
482
330
3DF
100
AcDbEntity
  8
Make2D$可见线$普通线
100
AcDbVertex
100
AcDb2dVertex
 10
270.7733863206353
 20
681.6671843158281
 30
0.0
  0
VERTEX
  5
483
330
3DF
100
AcDbEntity
  8
Make2D$可见线$普通线
100
AcDbVertex
100
AcDb2dVertex
 10
270.5186778299759
 20
681.8035260117151
 30
0.0
  0
VERTEX
  5
484
330
3DF
100
AcDbEntity
  8
Make2D$可见线$普通线
100
AcDbVertex
100
AcDb2dVertex
 10
270.2668165484554
 20
681.9450471047976
 30
0.0
  0
VERTEX
  5
485
330
3DF
100
AcDbEntity
  8
Make2D$可见线$普通线
100
AcDbVertex
100
AcDb2dVertex
 10
270.0179327181819
 20
682.0917115333434
 30
0.0
  0
VERTEX
  5
486
330
3DF
100
AcDbEntity
  8
Make2D$可见线$普通线
100
AcDbVertex
100
AcDb2dVertex
 10
269.7721565812634
 20
682.24348323562
 30
0.0
  0
VERTEX
  5
487
330
3DF
100
AcDbEntity
  8
Make2D$可见线$普通线
100
AcDbVertex
100
AcDb2dVertex
 10
269.529618379808
 20
682.4003261498948
 30
0.0
  0
VERTEX
  5
488
330
3DF
100
AcDbEntity
  8
Make2D$可见线$普通线
100
AcDbVertex
100
AcDb2dVertex
 10
269.2904483559237
 20
682.5622042144355
 30
0.0
  0
VERTEX
  5
489
330
3DF
100
AcDbEntity
  8
Make2D$可见线$普通线
100
AcDbVertex
100
AcDb2dVertex
 10
269.0547767517186
 20
682.7290813675097
 30
0.0
  0
VERTEX
  5
48A
330
3DF
100
AcDbEntity
  8
Make2D$可见线$普通线
100
AcDbVertex
100
AcDb2dVertex
 10
268.8227338093007
 20
682.900921547385
 30
0.0
  0
VERTEX
  5
48B
330
3DF
100
AcDbEntity
  8
Make2D$可见线$普通线
100
AcDbVertex
100
AcDb2dVertex
 10
268.5944497707782
 20
683.0776886923288
 30
0.0
  0
VERTEX
  5
48C
330
3DF
100
AcDbEntity
  8
Make2D$可见线$普通线
100
AcDbVertex
100
AcDb2dVertex
 10
268.3700548782591
 20
683.2593467406089
 30
0.0
  0
VERTEX
  5
48D
330
3DF
100
AcDbEntity
  8
Make2D$可见线$普通线
100
AcDbVertex
100
AcDb2dVertex
 10
268.1496793738513
 20
683.4458596304928
 30
0.0
  0
VERTEX
  5
48E
330
3DF
100
AcDbEntity
  8
Make2D$可见线$普通线
100
AcDbVertex
100
AcDb2dVertex
 10
267.933453499663
 20
683.6371913002483
 30
0.0
  0
VERTEX
  5
48F
330
3DF
100
AcDbEntity
  8
Make2D$可见线$普通线
100
AcDbVertex
100
AcDb2dVertex
 10
267.7215074978022
 20
683.8333056881426
 30
0.0
  0
VERTEX
  5
490
330
3DF
100
AcDbEntity
  8
Make2D$可见线$普通线
100
AcDbVertex
100
AcDb2dVertex
 10
267.513971610377
 20
684.0341667324435
 30
0.0
  0
VERTEX
  5
491
330
3DF
100
AcDbEntity
  8
Make2D$可见线$普通线
100
AcDbVertex
100
AcDb2dVertex
 10
267.3109760794955
 20
684.2397383714185
 30
0.0
  0
VERTEX
  5
492
330
3DF
100
AcDbEntity
  8
Make2D$可见线$普通线
100
AcDbVertex
100
AcDb2dVertex
 10
267.1188968530704
 20
684.4432072280064
 30
0.0
  0
VERTEX
  5
493
330
3DF
100
AcDbEntity
  8
Make2D$可见线$普通线
100
AcDbVertex
100
AcDb2dVertex
 10
266.93133846161
 20
684.6509580304096
 30
0.0
  0
VERTEX
  5
494
330
3DF
100
AcDbEntity
  8
Make2D$可见线$普通线
100
AcDbVertex
100
AcDb2dVertex
 10
266.7484438403862
 20
684.862891137016
 30
0.0
  0
VERTEX
  5
495
330
3DF
100
AcDbEntity
  8
Make2D$可见线$普通线
100
AcDbVertex
100
AcDb2dVertex
 10
266.5703559246708
 20
685.0789069062135
 30
0.0
  0
VERTEX
  5
496
330
3DF
100
AcDbEntity
  8
Make2D$可见线$普通线
100
AcDbVertex
100
AcDb2dVertex
 10
266.3972176497355
 20
685.2989056963903
 30
0.0
  0
VERTEX
  5
497
330
3DF
100
AcDbEntity
  8
Make2D$可见线$普通线
100
AcDbVertex
100
AcDb2dVertex
 10
266.2291719508522
 20
685.5227878659342
 30
0.0
  0
VERTEX
  5
498
330
3DF
100
AcDbEntity
  8
Make2D$可见线$普通线
100
AcDbVertex
100
AcDb2dVertex
 10
266.0663617632925
 20
685.7504537732331
 30
0.0
  0
VERTEX
  5
499
330
3DF
100
AcDbEntity
  8
Make2D$可见线$普通线
100
AcDbVertex
100
AcDb2dVertex
 10
265.9089300223285
 20
685.9818037766751
 30
0.0
  0
VERTEX
  5
49A
330
3DF
100
AcDbEntity
  8
Make2D$可见线$普通线
100
AcDbVertex
100
AcDb2dVertex
 10
265.7570196632317
 20
686.216738234648
 30
0.0
  0
VERTEX
  5
49B
330
3DF
100
AcDbEntity
  8
Make2D$可见线$普通线
100
AcDbVertex
100
AcDb2dVertex
 10
265.6107736212742
 20
686.4551575055399
 30
0.0
  0
VERTEX
  5
49C
330
3DF
100
AcDbEntity
  8
Make2D$可见线$普通线
100
AcDbVertex
100
AcDb2dVertex
 10
265.4703348317275
 20
686.6969619477387
 30
0.0
  0
VERTEX
  5
49D
330
3DF
100
AcDbEntity
  8
Make2D$可见线$普通线
100
AcDbVertex
100
AcDb2dVertex
 10
265.3358462298635
 20
686.9420519196325
 30
0.0
  0
VERTEX
  5
49E
330
3DF
100
AcDbEntity
  8
Make2D$可见线$普通线
100
AcDbVertex
100
AcDb2dVertex
 10
265.2074507509541
 20
687.190327779609
 30
0.0
  0
VERTEX
  5
49F
330
3DF
100
AcDbEntity
  8
Make2D$可见线$普通线
100
AcDbVertex
100
AcDb2dVertex
 10
265.085291330271
 20
687.4416898860563
 30
0.0
  0
VERTEX
  5
4A0
330
3DF
100
AcDbEntity
  8
Make2D$可见线$普通线
100
AcDbVertex
100
AcDb2dVertex
 10
264.969510903086
 20
687.6960385973623
 30
0.0
  0
VERTEX
  5
4A1
330
3DF
100
AcDbEntity
  8
Make2D$可见线$普通线
100
AcDbVertex
100
AcDb2dVertex
 10
264.860252404671
 20
687.9532742719151
 30
0.0
  0
VERTEX
  5
4A2
330
3DF
100
AcDbEntity
  8
Make2D$可见线$普通线
100
AcDbVertex
100
AcDb2dVertex
 10
264.7635647542492
 20
688.1977278062317
 30
0.0
  0
VERTEX
  5
4A3
330
3DF
100
AcDbEntity
  8
Make2D$可见线$普通线
100
AcDbVertex
100
AcDb2dVertex
 10
264.6728121765953
 20
688.4444927965958
 30
0.0
  0
VERTEX
  5
4A4
330
3DF
100
AcDbEntity
  8
Make2D$可见线$普通线
100
AcDbVertex
100
AcDb2dVertex
 10
264.5880348878088
 20
688.6934154032255
 30
0.0
  0
VERTEX
  5
4A5
330
3DF
100
AcDbEntity
  8
Make2D$可见线$普通线
100
AcDbVertex
100
AcDb2dVertex
 10
264.5092731039892
 20
688.944341786339
 30
0.0
  0
VERTEX
  5
4A6
330
3DF
100
AcDbEntity
  8
Make2D$可见线$普通线
100
AcDbVertex
100
AcDb2dVertex
 10
264.436567041236
 20
689.1971181061547
 30
0.0
  0
VERTEX
  5
4A7
330
3DF
100
AcDbEntity
  8
Make2D$可见线$普通线
100
AcDbVertex
100
AcDb2dVertex
 10
264.3699569156486
 20
689.4515905228905
 30
0.0
  0
VERTEX
  5
4A8
330
3DF
100
AcDbEntity
  8
Make2D$可见线$普通线
100
AcDbVertex
100
AcDb2dVertex
 10
264.3094829433265
 20
689.7076051967647
 30
0.0
  0
VERTEX
  5
4A9
330
3DF
100
AcDbEntity
  8
Make2D$可见线$普通线
100
AcDbVertex
100
AcDb2dVertex
 10
264.2551853403692
 20
689.9650082879953
 30
0.0
  0
VERTEX
  5
4AA
330
3DF
100
AcDbEntity
  8
Make2D$可见线$普通线
100
AcDbVertex
100
AcDb2dVertex
 10
264.2071043228763
 20
690.2236459568005
 30
0.0
  0
VERTEX
  5
4AB
330
3DF
100
AcDbEntity
  8
Make2D$可见线$普通线
100
AcDbVertex
100
AcDb2dVertex
 10
264.165280106947
 20
690.4833643633988
 30
0.0
  0
VERTEX
  5
4AC
330
3DF
100
AcDbEntity
  8
Make2D$可见线$普通线
100
AcDbVertex
100
AcDb2dVertex
 10
264.1297529086809
 20
690.744009668008
 30
0.0
  0
VERTEX
  5
4AD
330
3DF
100
AcDbEntity
  8
Make2D$可见线$普通线
100
AcDbVertex
100
AcDb2dVertex
 10
264.1005629441777
 20
691.0054280308464
 30
0.0
  0
VERTEX
  5
4AE
330
3DF
100
AcDbEntity
  8
Make2D$可见线$普通线
100
AcDbVertex
100
AcDb2dVertex
 10
264.0777504295365
 20
691.2674656121321
 30
0.0
  0
VERTEX
  5
4AF
330
3DF
100
AcDbEntity
  8
Make2D$可见线$普通线
100
AcDbVertex
100
AcDb2dVertex
 10
264.0613555808571
 20
691.5299685720834
 30
0.0
  0
VERTEX
  5
4B0
330
3DF
100
AcDbEntity
  8
Make2D$可见线$普通线
100
AcDbVertex
100
AcDb2dVertex
 10
264.0514186142389
 20
691.7927830709184
 30
0.0
  0
VERTEX
  5
4B1
330
3DF
100
AcDbEntity
  8
Make2D$可见线$普通线
100
AcDbVertex
100
AcDb2dVertex
 10
264.0479797457813
 20
692.0557552688551
 30
0.0
  0
VERTEX
  5
4B2
330
3DF
100
AcDbEntity
  8
Make2D$可见线$普通线
100
AcDbVertex
100
AcDb2dVertex
 10
264.051075454092
 20
692.3191293831434
 30
0.0
  0
VERTEX
  5
4B3
330
3DF
100
AcDbEntity
  8
Make2D$可见线$普通线
100
AcDbVertex
100
AcDb2dVertex
 10
264.0606892425706
 20
692.5823526340494
 30
0.0
  0
VERTEX
  5
4B4
330
3DF
100
AcDbEntity
  8
Make2D$可见线$普通线
100
AcDbVertex
100
AcDb2dVertex
 10
264.0767810631936
 20
692.8452702871755
 30
0.0
  0
VERTEX
  5
4B5
330
3DF
100
AcDbEntity
  8
Make2D$可见线$普通线
100
AcDbVertex
100
AcDb2dVertex
 10
264.099310867938
 20
693.1077276081242
 30
0.0
  0
VERTEX
  5
4B6
330
3DF
100
AcDbEntity
  8
Make2D$可见线$普通线
100
AcDbVertex
100
AcDb2dVertex
 10
264.1282386087804
 20
693.3695698624977
 30
0.0
  0
VERTEX
  5
4B7
330
3DF
100
AcDbEntity
  8
Make2D$可见线$普通线
100
AcDbVertex
100
AcDb2dVertex
 10
264.1635242376977
 20
693.6306423158984
 30
0.0
  0
VERTEX
  5
4B8
330
3DF
100
AcDbEntity
  8
Make2D$可见线$普通线
100
AcDbVertex
100
AcDb2dVertex
 10
264.2051277066668
 20
693.8907902339287
 30
0.0
  0
VERTEX
  5
4B9
330
3DF
100
AcDbEntity
  8
Make2D$可见线$普通线
100
AcDbVertex
100
AcDb2dVertex
 10
264.2530089676644
 20
694.1498588821908
 30
0.0
  0
VERTEX
  5
4BA
330
3DF
100
AcDbEntity
  8
Make2D$可见线$普通线
100
AcDbVertex
100
AcDb2dVertex
 10
264.3071279726672
 20
694.4076935262872
 30
0.0
  0
VERTEX
  5
4BB
330
3DF
100
AcDbEntity
  8
Make2D$可见线$普通线
100
AcDbVertex
100
AcDb2dVertex
 10
264.3674446736521
 20
694.6641394318201
 30
0.0
  0
VERTEX
  5
4BC
330
3DF
100
AcDbEntity
  8
Make2D$可见线$普通线
100
AcDbVertex
100
AcDb2dVertex
 10
264.4339190225959
 20
694.919041864392
 30
0.0
  0
VERTEX
  5
4BD
330
3DF
100
AcDbEntity
  8
Make2D$可见线$普通线
100
AcDbVertex
100
AcDb2dVertex
 10
264.5065109714754
 20
695.1722460896052
 30
0.0
  0
VERTEX
  5
4BE
330
3DF
100
AcDbEntity
  8
Make2D$可见线$普通线
100
AcDbVertex
100
AcDb2dVertex
 10
264.5851804722674
 20
695.4235973730622
 30
0.0
  0
VERTEX
  5
4BF
330
3DF
100
AcDbEntity
  8
Make2D$可见线$普通线
100
AcDbVertex
100
AcDb2dVertex
 10
264.6698874769486
 20
695.672940980365
 30
0.0
  0
VERTEX
  5
4C0
330
3DF
100
AcDbEntity
  8
Make2D$可见线$普通线
100
AcDbVertex
100
AcDb2dVertex
 10
264.760591937496
 20
695.9201221771161
 30
0.0
  0
VERTEX
  5
4C1
330
3DF
100
AcDbEntity
  8
Make2D$可见线$普通线
100
AcDbVertex
100
AcDb2dVertex
 10
264.8572538058861
 20
696.1649862289181
 30
0.0
  0
VERTEX
  5
4C2
330
3DF
100
AcDbEntity
  8
Make2D$可见线$普通线
100
AcDbVertex
100
AcDb2dVertex
 10
264.9652984344269
 20
696.4198937709069
 30
0.0
  0
VERTEX
  5
4C3
330
3DF
100
AcDbEntity
  8
Make2D$可见线$普通线
100
AcDbVertex
100
AcDb2dVertex
 10
265.0797503227788
 20
696.6719703552388
 30
0.0
  0
VERTEX
  5
4C4
330
3DF
100
AcDbEntity
  8
Make2D$可见线$普通线
100
AcDbVertex
100
AcDb2dVertex
 10
265.2004696454731
 20
696.9211199610153
 30
0.0
  0
VERTEX
  5
4C5
330
3DF
100
AcDbEntity
  8
Make2D$可见线$普通线
100
AcDbVertex
100
AcDb2dVertex
 10
265.3273165770413
 20
697.1672465673378
 30
0.0
  0
VERTEX
  5
4C6
330
3DF
100
AcDbEntity
  8
Make2D$可见线$普通线
100
AcDbVertex
100
AcDb2dVertex
 10
265.4601512920147
 20
697.4102541533084
 30
0.0
  0
VERTEX
  5
4C7
330
3DF
100
AcDbEntity
  8
Make2D$可见线$普通线
100
AcDbVertex
100
AcDb2dVertex
 10
265.5988339649247
 20
697.6500466980283
 30
0.0
  0
VERTEX
  5
4C8
330
3DF
100
AcDbEntity
  8
Make2D$可见线$普通线
100
AcDbVertex
100
AcDb2dVertex
 10
265.7432247703026
 20
697.8865281805995
 30
0.0
  0
VERTEX
  5
4C9
330
3DF
100
AcDbEntity
  8
Make2D$可见线$普通线
100
AcDbVertex
100
AcDb2dVertex
 10
265.8931838826799
 20
698.1196025801235
 30
0.0
  0
VERTEX
  5
4CA
330
3DF
100
AcDbEntity
  8
Make2D$可见线$普通线
100
AcDbVertex
100
AcDb2dVertex
 10
266.0485714765878
 20
698.3491738757021
 30
0.0
  0
VERTEX
  5
4CB
330
3DF
100
AcDbEntity
  8
Make2D$可见线$普通线
100
AcDbVertex
100
AcDb2dVertex
 10
266.2092477265578
 20
698.5751460464369
 30
0.0
  0
VERTEX
  5
4CC
330
3DF
100
AcDbEntity
  8
Make2D$可见线$普通线
100
AcDbVertex
100
AcDb2dVertex
 10
266.3750728071212
 20
698.7974230714294
 30
0.0
  0
VERTEX
  5
4CD
330
3DF
100
AcDbEntity
  8
Make2D$可见线$普通线
100
AcDbVertex
100
AcDb2dVertex
 10
266.5459068928095
 20
699.0159089297815
 30
0.0
  0
VERTEX
  5
4CE
330
3DF
100
AcDbEntity
  8
Make2D$可见线$普通线
100
AcDbVertex
100
AcDb2dVertex
 10
266.721610158154
 20
699.2305076005947
 30
0.0
  0
VERTEX
  5
4CF
330
3DF
100
AcDbEntity
  8
Make2D$可见线$普通线
100
AcDbVertex
100
AcDb2dVertex
 10
266.902042777686
 20
699.4411230629707
 30
0.0
  0
VERTEX
  5
4D0
330
3DF
100
AcDbEntity
  8
Make2D$可见线$普通线
100
AcDbVertex
100
AcDb2dVertex
 10
267.0870649259369
 20
699.6476592960113
 30
0.0
  0
VERTEX
  5
4D1
330
3DF
100
AcDbEntity
  8
Make2D$可见线$普通线
100
AcDbVertex
100
AcDb2dVertex
 10
267.2765367774381
 20
699.850020278818
 30
0.0
  0
VERTEX
  5
4D2
330
3DF
100
AcDbEntity
  8
Make2D$可见线$普通线
100
AcDbVertex
100
AcDb2dVertex
 10
267.4783066462876
 20
700.0560990057745
 30
0.0
  0
VERTEX
  5
4D3
330
3DF
100
AcDbEntity
  8
Make2D$可见线$普通线
100
AcDbVertex
100
AcDb2dVertex
 10
267.684616398688
 20
700.2575124108624
 30
0.0
  0
VERTEX
  5
4D4
330
3DF
100
AcDbEntity
  8
Make2D$可见线$普通线
100
AcDbVertex
100
AcDb2dVertex
 10
267.8953377534954
 20
700.4542215208269
 30
0.0
  0
VERTEX
  5
4D5
330
3DF
100
AcDbEntity
  8
Make2D$可见线$普通线
100
AcDbVertex
100
AcDb2dVertex
 10
268.1103424295658
 20
700.646187362413
 30
0.0
  0
VERTEX
  5
4D6
330
3DF
100
AcDbEntity
  8
Make2D$可见线$普通线
100
AcDbVertex
100
AcDb2dVertex
 10
268.329502145755
 20
700.8333709623662
 30
0.0
  0
VERTEX
  5
4D7
330
3DF
100
AcDbEntity
  8
Make2D$可见线$普通线
100
AcDbVertex
100
AcDb2dVertex
 10
268.5526886209193
 20
701.0157333474319
 30
0.0
  0
VERTEX
  5
4D8
330
3DF
100
AcDbEntity
  8
Make2D$可见线$普通线
100
AcDbVertex
100
AcDb2dVertex
 10
268.7797735739144
 20
701.1932355443552
 30
0.0
  0
VERTEX
  5
4D9
330
3DF
100
AcDbEntity
  8
Make2D$可见线$普通线
100
AcDbVertex
100
AcDb2dVertex
 10
269.0106287235965
 20
701.3658385798815
 30
0.0
  0
VERTEX
  5
4DA
330
3DF
100
AcDbEntity
  8
Make2D$可见线$普通线
100
AcDbVertex
100
AcDb2dVertex
 10
269.2451257888214
 20
701.5335034807562
 30
0.0
  0
VERTEX
  5
4DB
330
3DF
100
AcDbEntity
  8
Make2D$可见线$普通线
100
AcDbVertex
100
AcDb2dVertex
 10
269.4831364884453
 20
701.6961912737245
 30
0.0
  0
VERTEX
  5
4DC
330
3DF
100
AcDbEntity
  8
Make2D$可见线$普通线
100
AcDbVertex
100
AcDb2dVertex
 10
269.724532541324
 20
701.8538629855316
 30
0.0
  0
VERTEX
  5
4DD
330
3DF
100
AcDbEntity
  8
Make2D$可见线$普通线
100
AcDbVertex
100
AcDb2dVertex
 10
269.9691856663137
 20
702.0064796429228
 30
0.0
  0
VERTEX
  5
4DE
330
3DF
100
AcDbEntity
  8
Make2D$可见线$普通线
100
AcDbVertex
100
AcDb2dVertex
 10
270.2169675822702
 20
702.1540022726435
 30
0.0
  0
VERTEX
  5
4DF
330
3DF
100
AcDbEntity
  8
Make2D$可见线$普通线
100
AcDbVertex
100
AcDb2dVertex
 10
270.4677500080496
 20
702.2963919014389
 30
0.0
  0
VERTEX
  5
4E0
330
3DF
100
AcDbEntity
  8
Make2D$可见线$普通线
100
AcDbVertex
100
AcDb2dVertex
 10
270.7214046625078
 20
702.4336095560545
 30
0.0
  0
VERTEX
  5
4E1
330
3DF
100
AcDbEntity
  8
Make2D$可见线$普通线
100
AcDbVertex
100
AcDb2dVertex
 10
270.9778032645009
 20
702.5656162632355
 30
0.0
  0
VERTEX
  5
4E2
330
3DF
100
AcDbEntity
  8
Make2D$可见线$普通线
100
AcDbVertex
100
AcDb2dVertex
 10
271.2488833737705
 20
702.698125001053
 30
0.0
  0
VERTEX
  5
4E3
330
3DF
100
AcDbEntity
  8
Make2D$可见线$普通线
100
AcDbVertex
100
AcDb2dVertex
 10
271.5226946573972
 20
702.8248787942289
 30
0.0
  0
VERTEX
  5
4E4
330
3DF
100
AcDbEntity
  8
Make2D$可见线$普通线
100
AcDbVertex
100
AcDb2dVertex
 10
271.7991045986747
 20
702.9458704307131
 30
0.0
  0
VERTEX
  5
4E5
330
3DF
100
AcDbEntity
  8
Make2D$可见线$普通线
100
AcDbVertex
100
AcDb2dVertex
 10
272.0779806808963
 20
703.0610926984552
 30
0.0
  0
VERTEX
  5
4E6
330
3DF
100
AcDbEntity
  8
Make2D$可见线$普通线
100
AcDbVertex
100
AcDb2dVertex
 10
272.3591903873556
 20
703.1705383854053
 30
0.0
  0
VERTEX
  5
4E7
330
3DF
100
AcDbEntity
  8
Make2D$可见线$普通线
100
AcDbVertex
100
AcDb2dVertex
 10
272.6426012013463
 20
703.274200279513
 30
0.0
  0
VERTEX
  5
4E8
330
3DF
100
AcDbEntity
  8
Make2D$可见线$普通线
100
AcDbVertex
100
AcDb2dVertex
 10
272.9280806061617
 20
703.3720711687281
 30
0.0
  0
VERTEX
  5
4E9
330
3DF
100
AcDbEntity
  8
Make2D$可见线$普通线
100
AcDbVertex
100
AcDb2dVertex
 10
273.2154960850954
 20
703.4641438410005
 30
0.0
  0
VERTEX
  5
4EA
330
3DF
100
AcDbEntity
  8
Make2D$可见线$普通线
100
AcDbVertex
100
AcDb2dVertex
 10
273.5047151214409
 20
703.55041108428
 30
0.0
  0
VERTEX
  5
4EB
330
3DF
100
AcDbEntity
  8
Make2D$可见线$普通线
100
AcDbVertex
100
AcDb2dVertex
 10
273.7956051984918
 20
703.6308656865165
 30
0.0
  0
VERTEX
  5
4EC
330
3DF
100
AcDbEntity
  8
Make2D$可见线$普通线
100
AcDbVertex
100
AcDb2dVertex
 10
274.0880337995414
 20
703.7055004356597
 30
0.0
  0
VERTEX
  5
4ED
330
3DF
100
AcDbEntity
  8
Make2D$可见线$普通线
100
AcDbVertex
100
AcDb2dVertex
 10
274.3818684078835
 20
703.7743081196595
 30
0.0
  0
VERTEX
  5
4EE
330
3DF
100
AcDbEntity
  8
Make2D$可见线$普通线
100
AcDbVertex
100
AcDb2dVertex
 10
274.6769765068115
 20
703.8372815264657
 30
0.0
  0
VERTEX
  5
4EF
330
3DF
100
AcDbEntity
  8
Make2D$可见线$普通线
100
AcDbVertex
100
AcDb2dVertex
 10
274.9732255796189
 20
703.8944134440283
 30
0.0
  0
VERTEX
  5
4F0
330
3DF
100
AcDbEntity
  8
Make2D$可见线$普通线
100
AcDbVertex
100
AcDb2dVertex
 10
275.2704831095992
 20
703.9456966602967
 30
0.0
  0
VERTEX
  5
4F1
330
3DF
100
AcDbEntity
  8
Make2D$可见线$普通线
100
AcDbVertex
100
AcDb2dVertex
 10
275.568616580046
 20
703.991123963221
 30
0.0
  0
VERTEX
  5
4F2
330
3DF
100
AcDbEntity
  8
Make2D$可见线$普通线
100
AcDbVertex
100
AcDb2dVertex
 10
275.6993860004446
 20
704.0117816376373
 30
0.0
  0
VERTEX
  5
4F3
330
3DF
100
AcDbEntity
  8
Make2D$可见线$普通线
100
AcDbVertex
100
AcDb2dVertex
 10
276.1338986040107
 20
704.0866028416203
 30
0.0
  0
VERTEX
  5
4F4
330
3DF
100
AcDbEntity
  8
Make2D$可见线$普通线
100
AcDbVertex
100
AcDb2dVertex
 10
276.2365198072748
 20
704.1005621556479
 30
0.0
  0
VERTEX
  5
4F5
330
3DF
100
AcDbEntity
  8
Make2D$可见线$普通线
100
AcDbVertex
100
AcDb2dVertex
 10
276.3394519249447
 20
704.1123395586756
 30
0.0
  0
VERTEX
  5
4F6
330
3DF
100
AcDbEntity
  8
Make2D$可见线$普通线
100
AcDbVertex
100
AcDb2dVertex
 10
276.4426477138146
 20
704.1221110090135
 30
0.0
  0
VERTEX
  5
4F7
330
3DF
100
AcDbEntity
  8
Make2D$可见线$普通线
100
AcDbVertex
100
AcDb2dVertex
 10
276.5460599306787
 20
704.130052464972
 30
0.0
  0
VERTEX
  5
4F8
330
3DF
100
AcDbEntity
  8
Make2D$可见线$普通线
100
AcDbVertex
100
AcDb2dVertex
 10
276.7533446755665
 20
704.141149226991
 30
0.0
  0
VERTEX
  5
4F9
330
3DF
100
AcDbEntity
  8
Make2D$可见线$普通线
100
AcDbVertex
100
AcDb2dVertex
 10
276.9609282139621
 20
704.1470375112142
 30
0.0
  0
VERTEX
  5
4FA
330
3DF
100
AcDbEntity
  8
Make2D$可见线$普通线
100
AcDbVertex
100
AcDb2dVertex
 10
277.7539425265026
 20
704.1473273943076
 30
0.0
  0
SEQEND
  5
4FB
330
3DF
100
AcDbEntity
  8
Make2D$可见线$普通线
  0
ARC
  5
4FC
330
1F
100
AcDbEntity
  8
Make2D$可见线$普通线
100
AcDbCircle
 10
277.7674160266168
 20
675.682484160227
 30
0.0
 40
105.393621356642
100
AcDbArc
 50
81.40482178583348
 51
98.60954029243226
  0
POLYLINE
  5
4FD
330
1F
100
AcDbEntity
  8
Make2D$可见线$普通线
100
AcDb2dPolyline
 66
     1
 10
0.0
 20
0.0
 30
0.0
  0
VERTEX
  5
4FE
330
4FD
100
AcDbEntity
  8
Make2D$可见线$普通线
100
AcDbVertex
100
AcDb2dVertex
 10
294.254983935144
 20
779.3504352678066
 30
0.0
  0
VERTEX
  5
4FF
330
4FD
100
AcDbEntity
  8
Make2D$可见线$普通线
100
AcDbVertex
100
AcDb2dVertex
 10
261.2529588219347
 20
779.3461706241737
 30
0.0
  0
VERTEX
  5
500
330
4FD
100
AcDbEntity
  8
Make2D$可见线$普通线
100
AcDbVertex
100
AcDb2dVertex
 10
261.2528974534686
 20
725.2782353127299
 30
0.0
  0
SEQEND
  5
501
330
4FD
100
AcDbEntity
  8
Make2D$可见线$普通线
  0
POLYLINE
  5
502
330
1F
100
AcDbEntity
  8
Make2D$可见线$普通线
100
AcDb2dPolyline
 66
     1
 10
0.0
 20
0.0
 30
0.0
  0
VERTEX
  5
503
330
502
100
AcDbEntity
  8
Make2D$可见线$普通线
100
AcDbVertex
100
AcDb2dVertex
 10
289.5992621821968
 20
692.1159997813413
 30
0.0
  0
VERTEX
  5
504
330
502
100
AcDbEntity
  8
Make2D$可见线$普通线
100
AcDbVertex
100
AcDb2dVertex
 10
289.5901140829451
 20
692.3643650828676
 30
0.0
  0
VERTEX
  5
505
330
502
100
AcDbEntity
  8
Make2D$可见线$普通线
100
AcDbVertex
100
AcDb2dVertex
 10
289.5743503068521
 20
692.6123528872952
 30
0.0
  0
VERTEX
  5
506
330
502
100
AcDbEntity
  8
Make2D$可见线$普通线
100
AcDbVertex
100
AcDb2dVertex
 10
289.5520006381142
 20
692.8597918142061
 30
0.0
  0
VERTEX
  5
507
330
502
100
AcDbEntity
  8
Make2D$可见线$普通线
100
AcDbVertex
100
AcDb2dVertex
 10
289.5230948609278
 20
693.1065104831821
 30
0.0
  0
VERTEX
  5
508
330
502
100
AcDbEntity
  8
Make2D$可见线$普通线
100
AcDbVertex
100
AcDb2dVertex
 10
289.4876627594892
 20
693.3523375138052
 30
0.0
  0
VERTEX
  5
509
330
502
100
AcDbEntity
  8
Make2D$可见线$普通线
100
AcDbVertex
100
AcDb2dVertex
 10
289.4457341179948
 20
693.5971015256572
 30
0.0
  0
VERTEX
  5
50A
330
502
100
AcDbEntity
  8
Make2D$可见线$普通线
100
AcDbVertex
100
AcDb2dVertex
 10
289.3973387206411
 20
693.84063113832
 30
0.0
  0
VERTEX
  5
50B
330
502
100
AcDbEntity
  8
Make2D$可见线$普通线
100
AcDbVertex
100
AcDb2dVertex
 10
289.3425063516243
 20
694.0827549713754
 30
0.0
  0
VERTEX
  5
50C
330
502
100
AcDbEntity
  8
Make2D$可见线$普通线
100
AcDbVertex
100
AcDb2dVertex
 10
289.2812667951407
 20
694.3233016444054
 30
0.0
  0
VERTEX
  5
50D
330
502
100
AcDbEntity
  8
Make2D$可见线$普通线
100
AcDbVertex
100
AcDb2dVertex
 10
289.2136498353869
 20
694.562099776992
 30
0.0
  0
VERTEX
  5
50E
330
502
100
AcDbEntity
  8
Make2D$可见线$普通线
100
AcDbVertex
100
AcDb2dVertex
 10
289.1396852565592
 20
694.798977988717
 30
0.0
  0
VERTEX
  5
50F
330
502
100
AcDbEntity
  8
Make2D$可见线$普通线
100
AcDbVertex
100
AcDb2dVertex
 10
289.059402842854
 20
695.0337648991622
 30
0.0
  0
VERTEX
  5
510
330
502
100
AcDbEntity
  8
Make2D$可见线$普通线
100
AcDbVertex
100
AcDb2dVertex
 10
288.9728323784675
 20
695.2662891279095
 30
0.0
  0
VERTEX
  5
511
330
502
100
AcDbEntity
  8
Make2D$可见线$普通线
100
AcDbVertex
100
AcDb2dVertex
 10
288.8800036475964
 20
695.4963792945409
 30
0.0
  0
VERTEX
  5
512
330
502
100
AcDbEntity
  8
Make2D$可见线$普通线
100
AcDbVertex
100
AcDb2dVertex
 10
288.7809464344367
 20
695.7238640186382
 30
0.0
  0
VERTEX
  5
513
330
502
100
AcDbEntity
  8
Make2D$可见线$普通线
100
AcDbVertex
100
AcDb2dVertex
 10
288.675690523185
 20
695.9485719197834
 30
0.0
  0
VERTEX
  5
514
330
502
100
AcDbEntity
  8
Make2D$可见线$普通线
100
AcDbVertex
100
AcDb2dVertex
 10
288.5569528416993
 20
696.1844376728809
 30
0.0
  0
VERTEX
  5
515
330
502
100
AcDbEntity
  8
Make2D$可见线$普通线
100
AcDbVertex
100
AcDb2dVertex
 10
288.4314326742855
 20
696.4168675026158
 30
0.0
  0
VERTEX
  5
516
330
502
100
AcDbEntity
  8
Make2D$可见线$普通线
100
AcDbVertex
100
AcDb2dVertex
 10
288.2993313260476
 20
696.6457631292701
 30
0.0
  0
VERTEX
  5
517
330
502
100
AcDbEntity
  8
Make2D$可见线$普通线
100
AcDbVertex
100
AcDb2dVertex
 10
288.1608501020901
 20
696.8710262731261
 30
0.0
  0
VERTEX
  5
518
330
502
100
AcDbEntity
  8
Make2D$可见线$普通线
100
AcDbVertex
100
AcDb2dVertex
 10
288.0161903075169
 20
697.0925586544655
 30
0.0
  0
VERTEX
  5
519
330
502
100
AcDbEntity
  8
Make2D$可见线$普通线
100
AcDbVertex
100
AcDb2dVertex
 10
287.8655532474322
 20
697.3102619935705
 30
0.0
  0
VERTEX
  5
51A
330
502
100
AcDbEntity
  8
Make2D$可见线$普通线
100
AcDbVertex
100
AcDb2dVertex
 10
287.7091402269402
 20
697.5240380107233
 30
0.0
  0
VERTEX
  5
51B
330
502
100
AcDbEntity
  8
Make2D$可见线$普通线
100
AcDbVertex
100
AcDb2dVertex
 10
287.547152551145
 20
697.7337884262057
 30
0.0
  0
VERTEX
  5
51C
330
502
100
AcDbEntity
  8
Make2D$可见线$普通线
100
AcDbVertex
100
AcDb2dVertex
 10
287.3797915251508
 20
697.9394149602999
 30
0.0
  0
VERTEX
  5
51D
330
502
100
AcDbEntity
  8
Make2D$可见线$普通线
100
AcDbVertex
100
AcDb2dVertex
 10
287.2072584540616
 20
698.1408193332882
 30
0.0
  0
VERTEX
  5
51E
330
502
100
AcDbEntity
  8
Make2D$可见线$普通线
100
AcDbVertex
100
AcDb2dVertex
 10
287.0297546429818
 20
698.3379032654523
 30
0.0
  0
VERTEX
  5
51F
330
502
100
AcDbEntity
  8
Make2D$可见线$普通线
100
AcDbVertex
100
AcDb2dVertex
 10
286.8474813970154
 20
698.5305684770743
 30
0.0
  0
VERTEX
  5
520
330
502
100
AcDbEntity
  8
Make2D$可见线$普通线
100
AcDbVertex
100
AcDb2dVertex
 10
286.6606400212665
 20
698.7187166884364
 30
0.0
  0
VERTEX
  5
521
330
502
100
AcDbEntity
  8
Make2D$可见线$普通线
100
AcDbVertex
100
AcDb2dVertex
 10
286.4694318208394
 20
698.9022496198207
 30
0.0
  0
VERTEX
  5
522
330
502
100
AcDbEntity
  8
Make2D$可见线$普通线
100
AcDbVertex
100
AcDb2dVertex
 10
286.274058100838
 20
699.0810689915091
 30
0.0
  0
VERTEX
  5
523
330
502
100
AcDbEntity
  8
Make2D$可见线$普通线
100
AcDbVertex
100
AcDb2dVertex
 10
286.0747201663668
 20
699.2550765237838
 30
0.0
  0
VERTEX
  5
524
330
502
100
AcDbEntity
  8
Make2D$可见线$普通线
100
AcDbVertex
100
AcDb2dVertex
 10
285.8582591074453
 20
699.4350234118186
 30
0.0
  0
VERTEX
  5
525
330
502
100
AcDbEntity
  8
Make2D$可见线$普通线
100
AcDbVertex
100
AcDb2dVertex
 10
285.6376633478811
 20
699.6093913369223
 30
0.0
  0
VERTEX
  5
526
330
502
100
AcDbEntity
  8
Make2D$可见线$普通线
100
AcDbVertex
100
AcDb2dVertex
 10
285.4130667585159
 20
699.7781712801817
 30
0.0
  0
VERTEX
  5
527
330
502
100
AcDbEntity
  8
Make2D$可见线$普通线
100
AcDbVertex
100
AcDb2dVertex
 10
285.1846032101917
 20
699.9413542226839
 30
0.0
  0
VERTEX
  5
528
330
502
100
AcDbEntity
  8
Make2D$可见线$普通线
100
AcDbVertex
100
AcDb2dVertex
 10
284.9524065737503
 20
700.0989311455157
 30
0.0
  0
VERTEX
  5
529
330
502
100
AcDbEntity
  8
Make2D$可见线$普通线
100
AcDbVertex
100
AcDb2dVertex
 10
284.7166107200338
 20
700.2508930297643
 30
0.0
  0
VERTEX
  5
52A
330
502
100
AcDbEntity
  8
Make2D$可见线$普通线
100
AcDbVertex
100
AcDb2dVertex
 10
284.4773495198841
 20
700.3972308565162
 30
0.0
  0
VERTEX
  5
52B
330
502
100
AcDbEntity
  8
Make2D$可见线$普通线
100
AcDbVertex
100
AcDb2dVertex
 10
284.2347568441431
 20
700.5379356068585
 30
0.0
  0
VERTEX
  5
52C
330
502
100
AcDbEntity
  8
Make2D$可见线$普通线
100
AcDbVertex
100
AcDb2dVertex
 10
283.9889665636528
 20
700.6729982618782
 30
0.0
  0
VERTEX
  5
52D
330
502
100
AcDbEntity
  8
Make2D$可见线$普通线
100
AcDbVertex
100
AcDb2dVertex
 10
283.7401125492549
 20
700.802409802662
 30
0.0
  0
VERTEX
  5
52E
330
502
100
AcDbEntity
  8
Make2D$可见线$普通线
100
AcDbVertex
100
AcDb2dVertex
 10
283.4883286717917
 20
700.9261612102971
 30
0.0
  0
VERTEX
  5
52F
330
502
100
AcDbEntity
  8
Make2D$可见线$普通线
100
AcDbVertex
100
AcDb2dVertex
 10
283.2337488021048
 20
701.0442434658703
 30
0.0
  0
VERTEX
  5
530
330
502
100
AcDbEntity
  8
Make2D$可见线$普通线
100
AcDbVertex
100
AcDb2dVertex
 10
282.9765068110362
 20
701.1566475504685
 30
0.0
  0
VERTEX
  5
531
330
502
100
AcDbEntity
  8
Make2D$可见线$普通线
100
AcDbVertex
100
AcDb2dVertex
 10
282.716736569428
 20
701.2633644451787
 30
0.0
  0
VERTEX
  5
532
330
502
100
AcDbEntity
  8
Make2D$可见线$普通线
100
AcDbVertex
100
AcDb2dVertex
 10
282.454571948122
 20
701.3643851310876
 30
0.0
  0
VERTEX
  5
533
330
502
100
AcDbEntity
  8
Make2D$可见线$普通线
100
AcDbVertex
100
AcDb2dVertex
 10
282.1901468179601
 20
701.4597005892823
 30
0.0
  0
VERTEX
  5
534
330
502
100
AcDbEntity
  8
Make2D$可见线$普通线
100
AcDbVertex
100
AcDb2dVertex
 10
281.9235950497843
 20
701.5493018008497
 30
0.0
  0
VERTEX
  5
535
330
502
100
AcDbEntity
  8
Make2D$可见线$普通线
100
AcDbVertex
100
AcDb2dVertex
 10
281.6550505144365
 20
701.6331797468766
 30
0.0
  0
VERTEX
  5
536
330
502
100
AcDbEntity
  8
Make2D$可见线$普通线
100
AcDbVertex
100
AcDb2dVertex
 10
281.3846470827586
 20
701.7113254084502
 30
0.0
  0
VERTEX
  5
537
330
502
100
AcDbEntity
  8
Make2D$可见线$普通线
100
AcDbVertex
100
AcDb2dVertex
 10
281.1125186255927
 20
701.7837297666571
 30
0.0
  0
VERTEX
  5
538
330
502
100
AcDbEntity
  8
Make2D$可见线$普通线
100
AcDbVertex
100
AcDb2dVertex
 10
280.8387990137805
 20
701.8503838025844
 30
0.0
  0
VERTEX
  5
539
330
502
100
AcDbEntity
  8
Make2D$可见线$普通线
100
AcDbVertex
100
AcDb2dVertex
 10
280.563622118164
 20
701.9112784973189
 30
0.0
  0
VERTEX
  5
53A
330
502
100
AcDbEntity
  8
Make2D$可见线$普通线
100
AcDbVertex
100
AcDb2dVertex
 10
280.2871218095852
 20
701.9664048319476
 30
0.0
  0
VERTEX
  5
53B
330
502
100
AcDbEntity
  8
Make2D$可见线$普通线
100
AcDbVertex
100
AcDb2dVertex
 10
280.009431958886
 20
702.0157537875574
 30
0.0
  0
VERTEX
  5
53C
330
502
100
AcDbEntity
  8
Make2D$可见线$普通线
100
AcDbVertex
100
AcDb2dVertex
 10
279.7306864369083
 20
702.0593163452352
 30
0.0
  0
VERTEX
  5
53D
330
502
100
AcDbEntity
  8
Make2D$可见线$普通线
100
AcDbVertex
100
AcDb2dVertex
 10
279.4510191144941
 20
702.097083486068
 30
0.0
  0
VERTEX
  5
53E
330
502
100
AcDbEntity
  8
Make2D$可见线$普通线
100
AcDbVertex
100
AcDb2dVertex
 10
279.1705638624852
 20
702.1290461911426
 30
0.0
  0
VERTEX
  5
53F
330
502
100
AcDbEntity
  8
Make2D$可见线$普通线
100
AcDbVertex
100
AcDb2dVertex
 10
278.8894545517236
 20
702.1551954415461
 30
0.0
  0
VERTEX
  5
540
330
502
100
AcDbEntity
  8
Make2D$可见线$普通线
100
AcDbVertex
100
AcDb2dVertex
 10
278.6078250530513
 20
702.1755222183652
 30
0.0
  0
VERTEX
  5
541
330
502
100
AcDbEntity
  8
Make2D$可见线$普通线
100
AcDbVertex
100
AcDb2dVertex
 10
278.3258092373101
 20
702.1900175026869
 30
0.0
  0
VERTEX
  5
542
330
502
100
AcDbEntity
  8
Make2D$可见线$普通线
100
AcDbVertex
100
AcDb2dVertex
 10
278.0435409753421
 20
702.1986722755981
 30
0.0
  0
VERTEX
  5
543
330
502
100
AcDbEntity
  8
Make2D$可见线$普通线
100
AcDbVertex
100
AcDb2dVertex
 10
277.761154137989
 20
702.2014775181858
 30
0.0
  0
VERTEX
  5
544
330
502
100
AcDbEntity
  8
Make2D$可见线$普通线
100
AcDbVertex
100
AcDb2dVertex
 10
277.4783549848027
 20
702.1984182852149
 30
0.0
  0
VERTEX
  5
545
330
502
100
AcDbEntity
  8
Make2D$可见线$普通线
100
AcDbVertex
100
AcDb2dVertex
 10
277.1957037163605
 20
702.1894925332125
 30
0.0
  0
VERTEX
  5
546
330
502
100
AcDbEntity
  8
Make2D$可见线$普通线
100
AcDbVertex
100
AcDb2dVertex
 10
276.9133328756153
 20
702.1747100395692
 30
0.0
  0
VERTEX
  5
547
330
502
100
AcDbEntity
  8
Make2D$可见线$普通线
100
AcDbVertex
100
AcDb2dVertex
 10
276.6313750055201
 20
702.154080581675
 30
0.0
  0
VERTEX
  5
548
330
502
100
AcDbEntity
  8
Make2D$可见线$普通线
100
AcDbVertex
100
AcDb2dVertex
 10
276.3499626490278
 20
702.1276139369203
 30
0.0
  0
VERTEX
  5
549
330
502
100
AcDbEntity
  8
Make2D$可见线$普通线
100
AcDbVertex
100
AcDb2dVertex
 10
276.0692283490912
 20
702.0953198826955
 30
0.0
  0
VERTEX
  5
54A
330
502
100
AcDbEntity
  8
Make2D$可见线$普通线
100
AcDbVertex
100
AcDb2dVertex
 10
275.7893046486635
 20
702.057208196391
 30
0.0
  0
VERTEX
  5
54B
330
502
100
AcDbEntity
  8
Make2D$可见线$普通线
100
AcDbVertex
100
AcDb2dVertex
 10
275.5103240906974
 20
702.013288655397
 30
0.0
  0
VERTEX
  5
54C
330
502
100
AcDbEntity
  8
Make2D$可见线$普通线
100
AcDbVertex
100
AcDb2dVertex
 10
275.2324192181459
 20
701.9635710371037
 30
0.0
  0
VERTEX
  5
54D
330
502
100
AcDbEntity
  8
Make2D$可见线$普通线
100
AcDbVertex
100
AcDb2dVertex
 10
274.9557225739619
 20
701.9080651189016
 30
0.0
  0
VERTEX
  5
54E
330
502
100
AcDbEntity
  8
Make2D$可见线$普通线
100
AcDbVertex
100
AcDb2dVertex
 10
274.6803667010984
 20
701.8467806781808
 30
0.0
  0
VERTEX
  5
54F
330
502
100
AcDbEntity
  8
Make2D$可见线$普通线
100
AcDbVertex
100
AcDb2dVertex
 10
274.4064841425082
 20
701.7797274923319
 30
0.0
  0
VERTEX
  5
550
330
502
100
AcDbEntity
  8
Make2D$可见线$普通线
100
AcDbVertex
100
AcDb2dVertex
 10
274.1342074411444
 20
701.7069153387449
 30
0.0
  0
VERTEX
  5
551
330
502
100
AcDbEntity
  8
Make2D$可见线$普通线
100
AcDbVertex
100
AcDb2dVertex
 10
273.8636691399598
 20
701.6283539948103
 30
0.0
  0
VERTEX
  5
552
330
502
100
AcDbEntity
  8
Make2D$可见线$普通线
100
AcDbVertex
100
AcDb2dVertex
 10
273.5950017819074
 20
701.5440532379182
 30
0.0
  0
VERTEX
  5
553
330
502
100
AcDbEntity
  8
Make2D$可见线$普通线
100
AcDbVertex
100
AcDb2dVertex
 10
273.3283379099401
 20
701.4540228454592
 30
0.0
  0
VERTEX
  5
554
330
502
100
AcDbEntity
  8
Make2D$可见线$普通线
100
AcDbVertex
100
AcDb2dVertex
 10
273.0638100670108
 20
701.3582725948236
 30
0.0
  0
VERTEX
  5
555
330
502
100
AcDbEntity
  8
Make2D$可见线$普通线
100
AcDbVertex
100
AcDb2dVertex
 10
272.8015507960724
 20
701.2568122634013
 30
0.0
  0
VERTEX
  5
556
330
502
100
AcDbEntity
  8
Make2D$可见线$普通线
100
AcDbVertex
100
AcDb2dVertex
 10
272.541692640078
 20
701.1496516285831
 30
0.0
  0
VERTEX
  5
557
330
502
100
AcDbEntity
  8
Make2D$可见线$普通线
100
AcDbVertex
100
AcDb2dVertex
 10
272.2843681419802
 20
701.0368004677589
 30
0.0
  0
VERTEX
  5
558
330
502
100
AcDbEntity
  8
Make2D$可见线$普通线
100
AcDbVertex
100
AcDb2dVertex
 10
272.0297098447322
 20
700.9182685583193
 30
0.0
  0
VERTEX
  5
559
330
502
100
AcDbEntity
  8
Make2D$可见线$普通线
100
AcDbVertex
100
AcDb2dVertex
 10
271.7778502912869
 20
700.7940656776544
 30
0.0
  0
VERTEX
  5
55A
330
502
100
AcDbEntity
  8
Make2D$可见线$普通线
100
AcDbVertex
100
AcDb2dVertex
 10
271.5289220245973
 20
700.6642016031548
 30
0.0
  0
VERTEX
  5
55B
330
502
100
AcDbEntity
  8
Make2D$可见线$普通线
100
AcDbVertex
100
AcDb2dVertex
 10
271.283057587616
 20
700.5286861122107
 30
0.0
  0
VERTEX
  5
55C
330
502
100
AcDbEntity
  8
Make2D$可见线$普通线
100
AcDbVertex
100
AcDb2dVertex
 10
271.0403895232963
 20
700.3875289822124
 30
0.0
  0
VERTEX
  5
55D
330
502
100
AcDbEntity
  8
Make2D$可见线$普通线
100
AcDbVertex
100
AcDb2dVertex
 10
270.8010503745909
 20
700.2407399905499
 30
0.0
  0
VERTEX
  5
55E
330
502
100
AcDbEntity
  8
Make2D$可见线$普通线
100
AcDbVertex
100
AcDb2dVertex
 10
270.5651726844528
 20
700.0883289146138
 30
0.0
  0
VERTEX
  5
55F
330
502
100
AcDbEntity
  8
Make2D$可见线$普通线
100
AcDbVertex
100
AcDb2dVertex
 10
270.3328889958349
 20
699.9303055317944
 30
0.0
  0
VERTEX
  5
560
330
502
100
AcDbEntity
  8
Make2D$可见线$普通线
100
AcDbVertex
100
AcDb2dVertex
 10
270.1043318516902
 20
699.766679619482
 30
0.0
  0
VERTEX
  5
561
330
502
100
AcDbEntity
  8
Make2D$可见线$普通线
100
AcDbVertex
100
AcDb2dVertex
 10
269.8796337949715
 20
699.5974609550669
 30
0.0
  0
VERTEX
  5
562
330
502
100
AcDbEntity
  8
Make2D$可见线$普通线
100
AcDbVertex
100
AcDb2dVertex
 10
269.6589273686318
 20
699.4226593159394
 30
0.0
  0
VERTEX
  5
563
330
502
100
AcDbEntity
  8
Make2D$可见线$普通线
100
AcDbVertex
100
AcDb2dVertex
 10
269.4423451156241
 20
699.2422844794897
 30
0.0
  0
VERTEX
  5
564
330
502
100
AcDbEntity
  8
Make2D$可见线$普通线
100
AcDbVertex
100
AcDb2dVertex
 10
269.2397593613472
 20
699.0650841258964
 30
0.0
  0
VERTEX
  5
565
330
502
100
AcDbEntity
  8
Make2D$可见线$普通线
100
AcDbVertex
100
AcDb2dVertex
 10
269.041254793109
 20
698.8829266345865
 30
0.0
  0
VERTEX
  5
566
330
502
100
AcDbEntity
  8
Make2D$可见线$普通线
100
AcDbVertex
100
AcDb2dVertex
 10
268.8470405149151
 20
698.6959155805897
 30
0.0
  0
VERTEX
  5
567
330
502
100
AcDbEntity
  8
Make2D$可见线$普通线
100
AcDbVertex
100
AcDb2dVertex
 10
268.6573256307709
 20
698.5041545389357
 30
0.0
  0
VERTEX
  5
568
330
502
100
AcDbEntity
  8
Make2D$可见线$普通线
100
AcDbVertex
100
AcDb2dVertex
 10
268.4723192446819
 20
698.3077470846542
 30
0.0
  0
VERTEX
  5
569
330
502
100
AcDbEntity
  8
Make2D$可见线$普通线
100
AcDbVertex
100
AcDb2dVertex
 10
268.2922304606539
 20
698.1067967927748
 30
0.0
  0
VERTEX
  5
56A
330
502
100
AcDbEntity
  8
Make2D$可见线$普通线
100
AcDbVertex
100
AcDb2dVertex
 10
268.1172683826921
 20
697.9014072383275
 30
0.0
  0
VERTEX
  5
56B
330
502
100
AcDbEntity
  8
Make2D$可见线$普通线
100
AcDbVertex
100
AcDb2dVertex
 10
267.9476421148024
 20
697.6916819963416
 30
0.0
  0
VERTEX
  5
56C
330
502
100
AcDbEntity
  8
Make2D$可见线$普通线
100
AcDbVertex
100
AcDb2dVertex
 10
267.7835607609901
 20
697.4777246418471
 30
0.0
  0
VERTEX
  5
56D
330
502
100
AcDbEntity
  8
Make2D$可见线$普通线
100
AcDbVertex
100
AcDb2dVertex
 10
267.6252334252609
 20
697.2596387498736
 30
0.0
  0
VERTEX
  5
56E
330
502
100
AcDbEntity
  8
Make2D$可见线$普通线
100
AcDbVertex
100
AcDb2dVertex
 10
267.4728692116202
 20
697.037527895451
 30
0.0
  0
VERTEX
  5
56F
330
502
100
AcDbEntity
  8
Make2D$可见线$普通线
100
AcDbVertex
100
AcDb2dVertex
 10
267.3266772240737
 20
696.8114956536087
 30
0.0
  0
VERTEX
  5
570
330
502
100
AcDbEntity
  8
Make2D$可见线$普通线
100
AcDbVertex
100
AcDb2dVertex
 10
267.1868665666269
 20
696.5816455993765
 30
0.0
  0
VERTEX
  5
571
330
502
100
AcDbEntity
  8
Make2D$可见线$普通线
100
AcDbVertex
100
AcDb2dVertex
 10
267.0536463432853
 20
696.3480813077845
 30
0.0
  0
VERTEX
  5
572
330
502
100
AcDbEntity
  8
Make2D$可见线$普通线
100
AcDbVertex
100
AcDb2dVertex
 10
266.9272256580544
 20
696.110906353862
 30
0.0
  0
VERTEX
  5
573
330
502
100
AcDbEntity
  8
Make2D$可见线$普通线
100
AcDbVertex
100
AcDb2dVertex
 10
266.8078136149399
 20
695.8702243126386
 30
0.0
  0
VERTEX
  5
574
330
502
100
AcDbEntity
  8
Make2D$可见线$普通线
100
AcDbVertex
100
AcDb2dVertex
 10
266.7030095119954
 20
695.6428939737057
 30
0.0
  0
VERTEX
  5
575
330
502
100
AcDbEntity
  8
Make2D$可见线$普通线
100
AcDbVertex
100
AcDb2dVertex
 10
266.6045089159902
 20
695.4127835254851
 30
0.0
  0
VERTEX
  5
576
330
502
100
AcDbEntity
  8
Make2D$可见线$普通线
100
AcDbVertex
100
AcDb2dVertex
 10
266.5123478211999
 20
695.1800682904677
 30
0.0
  0
VERTEX
  5
577
330
502
100
AcDbEntity
  8
Make2D$可见线$普通线
100
AcDbVertex
100
AcDb2dVertex
 10
266.4265622219003
 20
694.9449235911441
 30
0.0
  0
VERTEX
  5
578
330
502
100
AcDbEntity
  8
Make2D$可见线$普通线
100
AcDbVertex
100
AcDb2dVertex
 10
266.347188112367
 20
694.7075247500055
 30
0.0
  0
VERTEX
  5
579
330
502
100
AcDbEntity
  8
Make2D$可见线$普通线
100
AcDbVertex
100
AcDb2dVertex
 10
266.2742614868757
 20
694.4680470895427
 30
0.0
  0
VERTEX
  5
57A
330
502
100
AcDbEntity
  8
Make2D$可见线$普通线
100
AcDbVertex
100
AcDb2dVertex
 10
266.2078183397021
 20
694.2266659322465
 30
0.0
  0
VERTEX
  5
57B
330
502
100
AcDbEntity
  8
Make2D$可见线$普通线
100
AcDbVertex
100
AcDb2dVertex
 10
266.1478946651218
 20
693.983556600608
 30
0.0
  0
VERTEX
  5
57C
330
502
100
AcDbEntity
  8
Make2D$可见线$普通线
100
AcDbVertex
100
AcDb2dVertex
 10
266.0945264574107
 20
693.738894417118
 30
0.0
  0
VERTEX
  5
57D
330
502
100
AcDbEntity
  8
Make2D$可见线$普通线
100
AcDbVertex
100
AcDb2dVertex
 10
266.0477497108442
 20
693.4928547042673
 30
0.0
  0
VERTEX
  5
57E
330
502
100
AcDbEntity
  8
Make2D$可见线$普通线
100
AcDbVertex
100
AcDb2dVertex
 10
266.0076004196981
 20
693.2456127845468
 30
0.0
  0
VERTEX
  5
57F
330
502
100
AcDbEntity
  8
Make2D$可见线$普通线
100
AcDbVertex
100
AcDb2dVertex
 10
265.9741145782482
 20
692.9973439804476
 30
0.0
  0
VERTEX
  5
580
330
502
100
AcDbEntity
  8
Make2D$可见线$普通线
100
AcDbVertex
100
AcDb2dVertex
 10
265.9473281807701
 20
692.7482236144605
 30
0.0
  0
VERTEX
  5
581
330
502
100
AcDbEntity
  8
Make2D$可见线$普通线
100
AcDbVertex
100
AcDb2dVertex
 10
265.9272772215394
 20
692.4984270090762
 30
0.0
  0
VERTEX
  5
582
330
502
100
AcDbEntity
  8
Make2D$可见线$普通线
100
AcDbVertex
100
AcDb2dVertex
 10
265.9139976948319
 20
692.2481294867858
 30
0.0
  0
VERTEX
  5
583
330
502
100
AcDbEntity
  8
Make2D$可见线$普通线
100
AcDbVertex
100
AcDb2dVertex
 10
265.9075255949232
 20
691.9975063700803
 30
0.0
  0
VERTEX
  5
584
330
502
100
AcDbEntity
  8
Make2D$可见线$普通线
100
AcDbVertex
100
AcDb2dVertex
 10
265.9128757667442
 20
691.7391361445441
 30
0.0
  0
VERTEX
  5
585
330
502
100
AcDbEntity
  8
Make2D$可见线$普通线
100
AcDbVertex
100
AcDb2dVertex
 10
265.9254822207236
 20
691.4809950359321
 30
0.0
  0
VERTEX
  5
586
330
502
100
AcDbEntity
  8
Make2D$可见线$普通线
100
AcDbVertex
100
AcDb2dVertex
 10
265.9453028572143
 20
691.223281471988
 30
0.0
  0
VERTEX
  5
587
330
502
100
AcDbEntity
  8
Make2D$可见线$普通线
100
AcDbVertex
100
AcDb2dVertex
 10
265.9722955765695
 20
690.9661938804556
 30
0.0
  0
VERTEX
  5
588
330
502
100
AcDbEntity
  8
Make2D$可见线$普通线
100
AcDbVertex
100
AcDb2dVertex
 10
266.0064182791424
 20
690.7099306890786
 30
0.0
  0
VERTEX
  5
589
330
502
100
AcDbEntity
  8
Make2D$可见线$普通线
100
AcDbVertex
100
AcDb2dVertex
 10
266.047628865286
 20
690.4546903256005
 30
0.0
  0
VERTEX
  5
58A
330
502
100
AcDbEntity
  8
Make2D$可见线$普通线
100
AcDbVertex
100
AcDb2dVertex
 10
266.0958852353533
 20
690.2006712177651
 30
0.0
  0
VERTEX
  5
58B
330
502
100
AcDbEntity
  8
Make2D$可见线$普通线
100
AcDbVertex
100
AcDb2dVertex
 10
266.1511452896975
 20
689.9480717933161
 30
0.0
  0
VERTEX
  5
58C
330
502
100
AcDbEntity
  8
Make2D$可见线$普通线
100
AcDbVertex
100
AcDb2dVertex
 10
266.2133669286717
 20
689.6970904799971
 30
0.0
  0
VERTEX
  5
58D
330
502
100
AcDbEntity
  8
Make2D$可见线$普通线
100
AcDbVertex
100
AcDb2dVertex
 10
266.2825080526289
 20
689.4479257055518
 30
0.0
  0
VERTEX
  5
58E
330
502
100
AcDbEntity
  8
Make2D$可见线$普通线
100
AcDbVertex
100
AcDb2dVertex
 10
266.3585265619224
 20
689.2007758977239
 30
0.0
  0
VERTEX
  5
58F
330
502
100
AcDbEntity
  8
Make2D$可见线$普通线
100
AcDbVertex
100
AcDb2dVertex
 10
266.4413803569051
 20
688.9558394842572
 30
0.0
  0
VERTEX
  5
590
330
502
100
AcDbEntity
  8
Make2D$可见线$普通线
100
AcDbVertex
100
AcDb2dVertex
 10
266.5310273379302
 20
688.7133148928954
 30
0.0
  0
VERTEX
  5
591
330
502
100
AcDbEntity
  8
Make2D$可见线$普通线
100
AcDbVertex
100
AcDb2dVertex
 10
266.6274254053507
 20
688.4734005513819
 30
0.0
  0
VERTEX
  5
592
330
502
100
AcDbEntity
  8
Make2D$可见线$普通线
100
AcDbVertex
100
AcDb2dVertex
 10
266.7305324595197
 20
688.2362948874606
 30
0.0
  0
VERTEX
  5
593
330
502
100
AcDbEntity
  8
Make2D$可见线$普通线
100
AcDbVertex
100
AcDb2dVertex
 10
266.8403064007903
 20
688.0021963288754
 30
0.0
  0
VERTEX
  5
594
330
502
100
AcDbEntity
  8
Make2D$可见线$普通线
100
AcDbVertex
100
AcDb2dVertex
 10
266.9595238086183
 20
687.7658417777242
 30
0.0
  0
VERTEX
  5
595
330
502
100
AcDbEntity
  8
Make2D$可见线$普通线
100
AcDbVertex
100
AcDb2dVertex
 10
267.0854860235858
 20
687.5329440144437
 30
0.0
  0
VERTEX
  5
596
330
502
100
AcDbEntity
  8
Make2D$可见线$普通线
100
AcDbVertex
100
AcDb2dVertex
 10
267.2179947026096
 20
687.3036002477687
 30
0.0
  0
VERTEX
  5
597
330
502
100
AcDbEntity
  8
Make2D$可见线$普通线
100
AcDbVertex
100
AcDb2dVertex
 10
267.356851502607
 20
687.0779076864337
 30
0.0
  0
VERTEX
  5
598
330
502
100
AcDbEntity
  8
Make2D$可见线$普通线
100
AcDbVertex
100
AcDb2dVertex
 10
267.5018580804947
 20
686.8559635391734
 30
0.0
  0
VERTEX
  5
599
330
502
100
AcDbEntity
  8
Make2D$可见线$普通线
100
AcDbVertex
100
AcDb2dVertex
 10
267.65281609319
 20
686.6378650147224
 30
0.0
  0
VERTEX
  5
59A
330
502
100
AcDbEntity
  8
Make2D$可见线$普通线
100
AcDbVertex
100
AcDb2dVertex
 10
267.8095271976098
 20
686.4237093218153
 30
0.0
  0
VERTEX
  5
59B
330
502
100
AcDbEntity
  8
Make2D$可见线$普通线
100
AcDbVertex
100
AcDb2dVertex
 10
267.9717930506712
 20
686.2135936691869
 30
0.0
  0
VERTEX
  5
59C
330
502
100
AcDbEntity
  8
Make2D$可见线$普通线
100
AcDbVertex
100
AcDb2dVertex
 10
268.1394153092911
 20
686.0076152655718
 30
0.0
  0
VERTEX
  5
59D
330
502
100
AcDbEntity
  8
Make2D$可见线$普通线
100
AcDbVertex
100
AcDb2dVertex
 10
268.3121956303867
 20
685.8058713197045
 30
0.0
  0
VERTEX
  5
59E
330
502
100
AcDbEntity
  8
Make2D$可见线$普通线
100
AcDbVertex
100
AcDb2dVertex
 10
268.4899356708748
 20
685.6084590403196
 30
0.0
  0
VERTEX
  5
59F
330
502
100
AcDbEntity
  8
Make2D$可见线$普通线
100
AcDbVertex
100
AcDb2dVertex
 10
268.6724370876727
 20
685.415475636152
 30
0.0
  0
VERTEX
  5
5A0
330
502
100
AcDbEntity
  8
Make2D$可见线$普通线
100
AcDbVertex
100
AcDb2dVertex
 10
268.8595015376973
 20
685.2270183159361
 30
0.0
  0
VERTEX
  5
5A1
330
502
100
AcDbEntity
  8
Make2D$可见线$普通线
100
AcDbVertex
100
AcDb2dVertex
 10
269.0509306778656
 20
685.0431842884068
 30
0.0
  0
VERTEX
  5
5A2
330
502
100
AcDbEntity
  8
Make2D$可见线$普通线
100
AcDbVertex
100
AcDb2dVertex
 10
269.2465261650946
 20
684.8640707622984
 30
0.0
  0
VERTEX
  5
5A3
330
502
100
AcDbEntity
  8
Make2D$可见线$普通线
100
AcDbVertex
100
AcDb2dVertex
 10
269.4460896563014
 20
684.6897749463459
 30
0.0
  0
VERTEX
  5
5A4
330
502
100
AcDbEntity
  8
Make2D$可见线$普通线
100
AcDbVertex
100
AcDb2dVertex
 10
269.6607418481328
 20
684.5111945307189
 30
0.0
  0
VERTEX
  5
5A5
330
502
100
AcDbEntity
  8
Make2D$可见线$普通线
100
AcDbVertex
100
AcDb2dVertex
 10
269.8794602846021
 20
684.3380947313372
 30
0.0
  0
VERTEX
  5
5A6
330
502
100
AcDbEntity
  8
Make2D$可见线$普通线
100
AcDbVertex
100
AcDb2dVertex
 10
270.102114974864
 20
684.1704850736446
 30
0.0
  0
VERTEX
  5
5A7
330
502
100
AcDbEntity
  8
Make2D$可见线$普通线
100
AcDbVertex
100
AcDb2dVertex
 10
270.3285759280731
 20
684.0083750830854
 30
0.0
  0
VERTEX
  5
5A8
330
502
100
AcDbEntity
  8
Make2D$可见线$普通线
100
AcDbVertex
100
AcDb2dVertex
 10
270.5587131533839
 20
683.8517742851034
 30
0.0
  0
VERTEX
  5
5A9
330
502
100
AcDbEntity
  8
Make2D$可见线$普通线
100
AcDbVertex
100
AcDb2dVertex
 10
270.7923966599511
 20
683.7006922051428
 30
0.0
  0
VERTEX
  5
5AA
330
502
100
AcDbEntity
  8
Make2D$可见线$普通线
100
AcDbVertex
100
AcDb2dVertex
 10
271.0294964569295
 20
683.5551383686475
 30
0.0
  0
VERTEX
  5
5AB
330
502
100
AcDbEntity
  8
Make2D$可见线$普通线
100
AcDbVertex
100
AcDb2dVertex
 10
271.2698825534735
 20
683.4151223010616
 30
0.0
  0
VERTEX
  5
5AC
330
502
100
AcDbEntity
  8
Make2D$可见线$普通线
100
AcDbVertex
100
AcDb2dVertex
 10
271.5134249587377
 20
683.2806535278291
 30
0.0
  0
VERTEX
  5
5AD
330
502
100
AcDbEntity
  8
Make2D$可见线$普通线
100
AcDbVertex
100
AcDb2dVertex
 10
271.7599936818769
 20
683.151741574394
 30
0.0
  0
VERTEX
  5
5AE
330
502
100
AcDbEntity
  8
Make2D$可见线$普通线
100
AcDbVertex
100
AcDb2dVertex
 10
272.0094587320457
 20
683.0283959662004
 30
0.0
  0
VERTEX
  5
5AF
330
502
100
AcDbEntity
  8
Make2D$可见线$普通线
100
AcDbVertex
100
AcDb2dVertex
 10
272.2616901183987
 20
682.9106262286921
 30
0.0
  0
VERTEX
  5
5B0
330
502
100
AcDbEntity
  8
Make2D$可见线$普通线
100
AcDbVertex
100
AcDb2dVertex
 10
272.5165578500905
 20
682.7984418873133
 30
0.0
  0
VERTEX
  5
5B1
330
502
100
AcDbEntity
  8
Make2D$可见线$普通线
100
AcDbVertex
100
AcDb2dVertex
 10
272.7739319362757
 20
682.6918524675082
 30
0.0
  0
VERTEX
  5
5B2
330
502
100
AcDbEntity
  8
Make2D$可见线$普通线
100
AcDbVertex
100
AcDb2dVertex
 10
273.033682386109
 20
682.5908674947204
 30
0.0
  0
VERTEX
  5
5B3
330
502
100
AcDbEntity
  8
Make2D$可见线$普通线
100
AcDbVertex
100
AcDb2dVertex
 10
273.295679208745
 20
682.4954964943944
 30
0.0
  0
VERTEX
  5
5B4
330
502
100
AcDbEntity
  8
Make2D$可见线$普通线
100
AcDbVertex
100
AcDb2dVertex
 10
273.5597924133384
 20
682.4057489919738
 30
0.0
  0
VERTEX
  5
5B5
330
502
100
AcDbEntity
  8
Make2D$可见线$普通线
100
AcDbVertex
100
AcDb2dVertex
 10
273.8258920090436
 20
682.3216345129028
 30
0.0
  0
VERTEX
  5
5B6
330
502
100
AcDbEntity
  8
Make2D$可见线$普通线
100
AcDbVertex
100
AcDb2dVertex
 10
274.0938480050154
 20
682.2431625826255
 30
0.0
  0
VERTEX
  5
5B7
330
502
100
AcDbEntity
  8
Make2D$可见线$普通线
100
AcDbVertex
100
AcDb2dVertex
 10
274.3635304104084
 20
682.1703427265859
 30
0.0
  0
VERTEX
  5
5B8
330
502
100
AcDbEntity
  8
Make2D$可见线$普通线
100
AcDbVertex
100
AcDb2dVertex
 10
274.6348092343773
 20
682.1031844702279
 30
0.0
  0
VERTEX
  5
5B9
330
502
100
AcDbEntity
  8
Make2D$可见线$普通线
100
AcDbVertex
100
AcDb2dVertex
 10
274.9075544860766
 20
682.0416973389956
 30
0.0
  0
VERTEX
  5
5BA
330
502
100
AcDbEntity
  8
Make2D$可见线$普通线
100
AcDbVertex
100
AcDb2dVertex
 10
275.181636174661
 20
681.985890858333
 30
0.0
  0
VERTEX
  5
5BB
330
502
100
AcDbEntity
  8
Make2D$可见线$普通线
100
AcDbVertex
100
AcDb2dVertex
 10
275.4569243092851
 20
681.9357745536843
 30
0.0
  0
VERTEX
  5
5BC
330
502
100
AcDbEntity
  8
Make2D$可见线$普通线
100
AcDbVertex
100
AcDb2dVertex
 10
275.7332888991035
 20
681.8913579504931
 30
0.0
  0
VERTEX
  5
5BD
330
502
100
AcDbEntity
  8
Make2D$可见线$普通线
100
AcDbVertex
100
AcDb2dVertex
 10
276.0105999532709
 20
681.8526505742038
 30
0.0
  0
VERTEX
  5
5BE
330
502
100
AcDbEntity
  8
Make2D$可见线$普通线
100
AcDbVertex
100
AcDb2dVertex
 10
276.2887274809418
 20
681.8196619502604
 30
0.0
  0
VERTEX
  5
5BF
330
502
100
AcDbEntity
  8
Make2D$可见线$普通线
100
AcDbVertex
100
AcDb2dVertex
 10
276.567541491271
 20
681.7924016041068
 30
0.0
  0
VERTEX
  5
5C0
330
502
100
AcDbEntity
  8
Make2D$可见线$普通线
100
AcDbVertex
100
AcDb2dVertex
 10
276.8469119934131
 20
681.770879061187
 30
0.0
  0
VERTEX
  5
5C1
330
502
100
AcDbEntity
  8
Make2D$可见线$普通线
100
AcDbVertex
100
AcDb2dVertex
 10
277.1267089965226
 20
681.7551038469451
 30
0.0
  0
VERTEX
  5
5C2
330
502
100
AcDbEntity
  8
Make2D$可见线$普通线
100
AcDbVertex
100
AcDb2dVertex
 10
277.4068025097541
 20
681.745085486825
 30
0.0
  0
VERTEX
  5
5C3
330
502
100
AcDbEntity
  8
Make2D$可见线$普通线
100
AcDbVertex
100
AcDb2dVertex
 10
277.6870625422625
 20
681.740833506271
 30
0.0
  0
VERTEX
  5
5C4
330
502
100
AcDbEntity
  8
Make2D$可见线$普通线
100
AcDbVertex
100
AcDb2dVertex
 10
277.9751786968021
 20
681.742479375408
 30
0.0
  0
VERTEX
  5
5C5
330
502
100
AcDbEntity
  8
Make2D$可见线$普通线
100
AcDbVertex
100
AcDb2dVertex
 10
278.2631916422465
 20
681.7502173552086
 30
0.0
  0
VERTEX
  5
5C6
330
502
100
AcDbEntity
  8
Make2D$可见线$普通线
100
AcDbVertex
100
AcDb2dVertex
 10
278.550959574306
 20
681.7640368530188
 30
0.0
  0
VERTEX
  5
5C7
330
502
100
AcDbEntity
  8
Make2D$可见线$普通线
100
AcDbVertex
100
AcDb2dVertex
 10
278.8383406886907
 20
681.7839272761839
 30
0.0
  0
VERTEX
  5
5C8
330
502
100
AcDbEntity
  8
Make2D$可见线$普通线
100
AcDbVertex
100
AcDb2dVertex
 10
279.1251931811105
 20
681.8098780320503
 30
0.0
  0
VERTEX
  5
5C9
330
502
100
AcDbEntity
  8
Make2D$可见线$普通线
100
AcDbVertex
100
AcDb2dVertex
 10
279.4113752472756
 20
681.8418785279636
 30
0.0
  0
VERTEX
  5
5CA
330
502
100
AcDbEntity
  8
Make2D$可见线$普通线
100
AcDbVertex
100
AcDb2dVertex
 10
279.696745082896
 20
681.8799181712695
 30
0.0
  0
VERTEX
  5
5CB
330
502
100
AcDbEntity
  8
Make2D$可见线$普通线
100
AcDbVertex
100
AcDb2dVertex
 10
279.981160883682
 20
681.9239863693142
 30
0.0
  0
VERTEX
  5
5CC
330
502
100
AcDbEntity
  8
Make2D$可见线$普通线
100
AcDbVertex
100
AcDb2dVertex
 10
280.2644808453435
 20
681.9740725294434
 30
0.0
  0
VERTEX
  5
5CD
330
502
100
AcDbEntity
  8
Make2D$可见线$普通线
100
AcDbVertex
100
AcDb2dVertex
 10
280.5465631635906
 20
682.0301660590028
 30
0.0
  0
VERTEX
  5
5CE
330
502
100
AcDbEntity
  8
Make2D$可见线$普通线
100
AcDbVertex
100
AcDb2dVertex
 10
280.8272660341336
 20
682.0922563653385
 30
0.0
  0
VERTEX
  5
5CF
330
502
100
AcDbEntity
  8
Make2D$可见线$普通线
100
AcDbVertex
100
AcDb2dVertex
 10
281.1064476526824
 20
682.1603328557962
 30
0.0
  0
VERTEX
  5
5D0
330
502
100
AcDbEntity
  8
Make2D$可见线$普通线
100
AcDbVertex
100
AcDb2dVertex
 10
281.3839662149471
 20
682.2343849377219
 30
0.0
  0
VERTEX
  5
5D1
330
502
100
AcDbEntity
  8
Make2D$可见线$普通线
100
AcDbVertex
100
AcDb2dVertex
 10
281.6596799166379
 20
682.3144020184612
 30
0.0
  0
VERTEX
  5
5D2
330
502
100
AcDbEntity
  8
Make2D$可见线$普通线
100
AcDbVertex
100
AcDb2dVertex
 10
281.9334469534647
 20
682.40037350536
 30
0.0
  0
VERTEX
  5
5D3
330
502
100
AcDbEntity
  8
Make2D$可见线$普通线
100
AcDbVertex
100
AcDb2dVertex
 10
282.2051255211377
 20
682.4922888057642
 30
0.0
  0
VERTEX
  5
5D4
330
502
100
AcDbEntity
  8
Make2D$可见线$普通线
100
AcDbVertex
100
AcDb2dVertex
 10
282.4745738153671
 20
682.5901373270198
 30
0.0
  0
VERTEX
  5
5D5
330
502
100
AcDbEntity
  8
Make2D$可见线$普通线
100
AcDbVertex
100
AcDb2dVertex
 10
282.7416500318628
 20
682.6939084764724
 30
0.0
  0
VERTEX
  5
5D6
330
502
100
AcDbEntity
  8
Make2D$可见线$普通线
100
AcDbVertex
100
AcDb2dVertex
 10
283.0062123663351
 20
682.803591661468
 30
0.0
  0
VERTEX
  5
5D7
330
502
100
AcDbEntity
  8
Make2D$可见线$普通线
100
AcDbVertex
100
AcDb2dVertex
 10
283.2681190144939
 20
682.9191762893523
 30
0.0
  0
VERTEX
  5
5D8
330
502
100
AcDbEntity
  8
Make2D$可见线$普通线
100
AcDbVertex
100
AcDb2dVertex
 10
283.5272281720495
 20
683.0406517674713
 30
0.0
  0
VERTEX
  5
5D9
330
502
100
AcDbEntity
  8
Make2D$可见线$普通线
100
AcDbVertex
100
AcDb2dVertex
 10
283.7833980347117
 20
683.1680075031709
 30
0.0
  0
VERTEX
  5
5DA
330
502
100
AcDbEntity
  8
Make2D$可见线$普通线
100
AcDbVertex
100
AcDb2dVertex
 10
284.0364867981908
 20
683.3012329037967
 30
0.0
  0
VERTEX
  5
5DB
330
502
100
AcDbEntity
  8
Make2D$可见线$普通线
100
AcDbVertex
100
AcDb2dVertex
 10
284.286352658197
 20
683.4403173766948
 30
0.0
  0
VERTEX
  5
5DC
330
502
100
AcDbEntity
  8
Make2D$可见线$普通线
100
AcDbVertex
100
AcDb2dVertex
 10
284.5328538104401
 20
683.5852503292108
 30
0.0
  0
VERTEX
  5
5DD
330
502
100
AcDbEntity
  8
Make2D$可见线$普通线
100
AcDbVertex
100
AcDb2dVertex
 10
284.7758484506303
 20
683.7360211686909
 30
0.0
  0
VERTEX
  5
5DE
330
502
100
AcDbEntity
  8
Make2D$可见线$普通线
100
AcDbVertex
100
AcDb2dVertex
 10
285.0151947744778
 20
683.8926193024806
 30
0.0
  0
VERTEX
  5
5DF
330
502
100
AcDbEntity
  8
Make2D$可见线$普通线
100
AcDbVertex
100
AcDb2dVertex
 10
285.2507509776926
 20
684.0550341379259
 30
0.0
  0
VERTEX
  5
5E0
330
502
100
AcDbEntity
  8
Make2D$可见线$普通线
100
AcDbVertex
100
AcDb2dVertex
 10
285.4823752559847
 20
684.2232550823726
 30
0.0
  0
VERTEX
  5
5E1
330
502
100
AcDbEntity
  8
Make2D$可见线$普通线
100
AcDbVertex
100
AcDb2dVertex
 10
285.7099258050644
 20
684.3972715431667
 30
0.0
  0
VERTEX
  5
5E2
330
502
100
AcDbEntity
  8
Make2D$可见线$普通线
100
AcDbVertex
100
AcDb2dVertex
 10
285.9332608206417
 20
684.5770729276537
 30
0.0
  0
VERTEX
  5
5E3
330
502
100
AcDbEntity
  8
Make2D$可见线$普通线
100
AcDbVertex
100
AcDb2dVertex
 10
286.1522384984266
 20
684.7626486431798
 30
0.0
  0
VERTEX
  5
5E4
330
502
100
AcDbEntity
  8
Make2D$可见线$普通线
100
AcDbVertex
100
AcDb2dVertex
 10
286.3521142023187
 20
684.9406434808275
 30
0.0
  0
VERTEX
  5
5E5
330
502
100
AcDbEntity
  8
Make2D$可见线$普通线
100
AcDbVertex
100
AcDb2dVertex
 10
286.5478800842375
 20
685.1235334360067
 30
0.0
  0
VERTEX
  5
5E6
330
502
100
AcDbEntity
  8
Make2D$可见线$普通线
100
AcDbVertex
100
AcDb2dVertex
 10
286.7393285366821
 20
685.3112145968944
 30
0.0
  0
VERTEX
  5
5E7
330
502
100
AcDbEntity
  8
Make2D$可见线$普通线
100
AcDbVertex
100
AcDb2dVertex
 10
286.926251952152
 20
685.5035830516672
 30
0.0
  0
VERTEX
  5
5E8
330
502
100
AcDbEntity
  8
Make2D$可见线$普通线
100
AcDbVertex
100
AcDb2dVertex
 10
287.1084427231465
 20
685.7005348885016
 30
0.0
  0
VERTEX
  5
5E9
330
502
100
AcDbEntity
  8
Make2D$可见线$普通线
100
AcDbVertex
100
AcDb2dVertex
 10
287.2856932421647
 20
685.9019661955742
 30
0.0
  0
VERTEX
  5
5EA
330
502
100
AcDbEntity
  8
Make2D$可见线$普通线
100
AcDbVertex
100
AcDb2dVertex
 10
287.457795901706
 20
686.107773061062
 30
0.0
  0
VERTEX
  5
5EB
330
502
100
AcDbEntity
  8
Make2D$可见线$普通线
100
AcDbVertex
100
AcDb2dVertex
 10
287.6245430942698
 20
686.317851573141
 30
0.0
  0
VERTEX
  5
5EC
330
502
100
AcDbEntity
  8
Make2D$可见线$普通线
100
AcDbVertex
100
AcDb2dVertex
 10
287.7857272123554
 20
686.5320978199882
 30
0.0
  0
VERTEX
  5
5ED
330
502
100
AcDbEntity
  8
Make2D$可见线$普通线
100
AcDbVertex
100
AcDb2dVertex
 10
287.9411406484618
 20
686.7504078897803
 30
0.0
  0
VERTEX
  5
5EE
330
502
100
AcDbEntity
  8
Make2D$可见线$普通线
100
AcDbVertex
100
AcDb2dVertex
 10
288.0905757950886
 20
686.9726778706938
 30
0.0
  0
VERTEX
  5
5EF
330
502
100
AcDbEntity
  8
Make2D$可见线$普通线
100
AcDbVertex
100
AcDb2dVertex
 10
288.2338250447351
 20
687.1988038509053
 30
0.0
  0
VERTEX
  5
5F0
330
502
100
AcDbEntity
  8
Make2D$可见线$普通线
100
AcDbVertex
100
AcDb2dVertex
 10
288.3706807899003
 20
687.4286819185916
 30
0.0
  0
VERTEX
  5
5F1
330
502
100
AcDbEntity
  8
Make2D$可见线$普通线
100
AcDbVertex
100
AcDb2dVertex
 10
288.5009354230838
 20
687.6622081619291
 30
0.0
  0
VERTEX
  5
5F2
330
502
100
AcDbEntity
  8
Make2D$可见线$普通线
100
AcDbVertex
100
AcDb2dVertex
 10
288.6243813367848
 20
687.8992786690947
 30
0.0
  0
VERTEX
  5
5F3
330
502
100
AcDbEntity
  8
Make2D$可见线$普通线
100
AcDbVertex
100
AcDb2dVertex
 10
288.7408109235026
 20
688.1397895282648
 30
0.0
  0
VERTEX
  5
5F4
330
502
100
AcDbEntity
  8
Make2D$可见线$普通线
100
AcDbVertex
100
AcDb2dVertex
 10
288.8422984589811
 20
688.3656687646527
 30
0.0
  0
VERTEX
  5
5F5
330
502
100
AcDbEntity
  8
Make2D$可见线$普通线
100
AcDbVertex
100
AcDb2dVertex
 10
288.9375516801354
 20
688.594238607913
 30
0.0
  0
VERTEX
  5
5F6
330
502
100
AcDbEntity
  8
Make2D$可见线$普通线
100
AcDbVertex
100
AcDb2dVertex
 10
289.0265417633809
 20
688.8253236022906
 30
0.0
  0
VERTEX
  5
5F7
330
502
100
AcDbEntity
  8
Make2D$可见线$普通线
100
AcDbVertex
100
AcDb2dVertex
 10
289.1092398851332
 20
689.0587482920305
 30
0.0
  0
VERTEX
  5
5F8
330
502
100
AcDbEntity
  8
Make2D$可见线$普通线
100
AcDbVertex
100
AcDb2dVertex
 10
289.1856172218081
 20
689.2943372213772
 30
0.0
  0
VERTEX
  5
5F9
330
502
100
AcDbEntity
  8
Make2D$可见线$普通线
100
AcDbVertex
100
AcDb2dVertex
 10
289.255644949821
 20
689.5319149345758
 30
0.0
  0
VERTEX
  5
5FA
330
502
100
AcDbEntity
  8
Make2D$可见线$普通线
100
AcDbVertex
100
AcDb2dVertex
 10
289.3192942455877
 20
689.7713059758709
 30
0.0
  0
VERTEX
  5
5FB
330
502
100
AcDbEntity
  8
Make2D$可见线$普通线
100
AcDbVertex
100
AcDb2dVertex
 10
289.3765362855238
 20
690.0123348895074
 30
0.0
  0
VERTEX
  5
5FC
330
502
100
AcDbEntity
  8
Make2D$可见线$普通线
100
AcDbVertex
100
AcDb2dVertex
 10
289.4273422460449
 20
690.2548262197303
 30
0.0
  0
VERTEX
  5
5FD
330
502
100
AcDbEntity
  8
Make2D$可见线$普通线
100
AcDbVertex
100
AcDb2dVertex
 10
289.4716833035666
 20
690.4986045107842
 30
0.0
  0
VERTEX
  5
5FE
330
502
100
AcDbEntity
  8
Make2D$可见线$普通线
100
AcDbVertex
100
AcDb2dVertex
 10
289.5095306345046
 20
690.743494306914
 30
0.0
  0
VERTEX
  5
5FF
330
502
100
AcDbEntity
  8
Make2D$可见线$普通线
100
AcDbVertex
100
AcDb2dVertex
 10
289.5408554152743
 20
690.9893201523646
 30
0.0
  0
VERTEX
  5
600
330
502
100
AcDbEntity
  8
Make2D$可见线$普通线
100
AcDbVertex
100
AcDb2dVertex
 10
289.5656288222916
 20
691.2359065913806
 30
0.0
  0
VERTEX
  5
601
330
502
100
AcDbEntity
  8
Make2D$可见线$普通线
100
AcDbVertex
100
AcDb2dVertex
 10
289.583822031972
 20
691.4830781682072
 30
0.0
  0
VERTEX
  5
602
330
502
100
AcDbEntity
  8
Make2D$可见线$普通线
100
AcDbVertex
100
AcDb2dVertex
 10
289.5954062207311
 20
691.7306594270888
 30
0.0
  0
VERTEX
  5
603
330
502
100
AcDbEntity
  8
Make2D$可见线$普通线
100
AcDbVertex
100
AcDb2dVertex
 10
289.6003525649845
 20
691.9784749122705
 30
0.0
  0
VERTEX
  5
604
330
502
100
AcDbEntity
  8
Make2D$可见线$普通线
100
AcDbVertex
100
AcDb2dVertex
 10
289.5992621821968
 20
692.1159997813413
 30
0.0
  0
SEQEND
  5
605
330
502
100
AcDbEntity
  8
Make2D$可见线$普通线
  0
POLYLINE
  5
606
330
1F
100
AcDbEntity
  8
Make2D$可见线$普通线
100
AcDb2dPolyline
 66
     1
 10
0.0
 20
0.0
 30
0.0
  0
VERTEX
  5
607
330
606
100
AcDbEntity
  8
Make2D$可见线$普通线
100
AcDbVertex
100
AcDb2dVertex
 10
299.5039360049818
 20
493.5963224432704
 30
0.0
  0
VERTEX
  5
608
330
606
100
AcDbEntity
  8
Make2D$可见线$普通线
100
AcDbVertex
100
AcDb2dVertex
 10
299.5039360049818
 20
492.0963224432704
 30
0.0
  0
VERTEX
  5
609
330
606
100
AcDbEntity
  8
Make2D$可见线$普通线
100
AcDbVertex
100
AcDb2dVertex
 10
256.0039360049818
 20
492.0963224432704
 30
0.0
  0
VERTEX
  5
60A
330
606
100
AcDbEntity
  8
Make2D$可见线$普通线
100
AcDbVertex
100
AcDb2dVertex
 10
256.0039360049818
 20
493.5963224432704
 30
0.0
  0
SEQEND
  5
60B
330
606
100
AcDbEntity
  8
Make2D$可见线$普通线
  0
POLYLINE
  5
60C
330
1F
100
AcDbEntity
  8
Make2D$可见线$普通线
100
AcDb2dPolyline
 66
     1
 10
0.0
 20
0.0
 30
0.0
  0
VERTEX
  5
60D
330
60C
100
AcDbEntity
  8
Make2D$可见线$普通线
100
AcDbVertex
100
AcDb2dVertex
 10
264.7848805294526
 20
692.516577300463
 30
0.0
  0
VERTEX
  5
60E
330
60C
100
AcDbEntity
  8
Make2D$可见线$普通线
100
AcDbVertex
100
AcDb2dVertex
 10
264.8130588348182
 20
692.7777434068146
 30
0.0
  0
VERTEX
  5
60F
330
60C
100
AcDbEntity
  8
Make2D$可见线$普通线
100
AcDbVertex
100
AcDb2dVertex
 10
264.8487840036884
 20
693.0379217195826
 30
0.0
  0
VERTEX
  5
610
330
60C
100
AcDbEntity
  8
Make2D$可见线$普通线
100
AcDbVertex
100
AcDb2dVertex
 10
264.8919337774884
 20
693.2969470752953
 30
0.0
  0
VERTEX
  5
611
330
60C
100
AcDbEntity
  8
Make2D$可见线$普通线
100
AcDbVertex
100
AcDb2dVertex
 10
264.9423858976434
 20
693.5546543104808
 30
0.0
  0
VERTEX
  5
612
330
60C
100
AcDbEntity
  8
Make2D$可见线$普通线
100
AcDbVertex
100
AcDb2dVertex
 10
265.0000181055789
 20
693.8108782616675
 30
0.0
  0
VERTEX
  5
613
330
60C
100
AcDbEntity
  8
Make2D$可见线$普通线
100
AcDbVertex
100
AcDb2dVertex
 10
265.0647081427199
 20
694.0654537653836
 30
0.0
  0
VERTEX
  5
614
330
60C
100
AcDbEntity
  8
Make2D$可见线$普通线
100
AcDbVertex
100
AcDb2dVertex
 10
265.1363337504919
 20
694.3182156581572
 30
0.0
  0
VERTEX
  5
615
330
60C
100
AcDbEntity
  8
Make2D$可见线$普通线
100
AcDbVertex
100
AcDb2dVertex
 10
265.2147726703199
 20
694.5689987765168
 30
0.0
  0
VERTEX
  5
616
330
60C
100
AcDbEntity
  8
Make2D$可见线$普通线
100
AcDbVertex
100
AcDb2dVertex
 10
265.2999026436294
 20
694.8176379569904
 30
0.0
  0
VERTEX
  5
617
330
60C
100
AcDbEntity
  8
Make2D$可见线$普通线
100
AcDbVertex
100
AcDb2dVertex
 10
265.3916014118456
 20
695.0639680361066
 30
0.0
  0
VERTEX
  5
618
330
60C
100
AcDbEntity
  8
Make2D$可见线$普通线
100
AcDbVertex
100
AcDb2dVertex
 10
265.4897467163937
 20
695.3078238503933
 30
0.0
  0
VERTEX
  5
619
330
60C
100
AcDbEntity
  8
Make2D$可见线$普通线
100
AcDbVertex
100
AcDb2dVertex
 10
265.5942162986989
 20
695.5490402363789
 30
0.0
  0
VERTEX
  5
61A
330
60C
100
AcDbEntity
  8
Make2D$可见线$普通线
100
AcDbVertex
100
AcDb2dVertex
 10
265.7048879001867
 20
695.7874520305916
 30
0.0
  0
VERTEX
  5
61B
330
60C
100
AcDbEntity
  8
Make2D$可见线$普通线
100
AcDbVertex
100
AcDb2dVertex
 10
265.8216392622821
 20
696.0228940695595
 30
0.0
  0
VERTEX
  5
61C
330
60C
100
AcDbEntity
  8
Make2D$可见线$普通线
100
AcDbVertex
100
AcDb2dVertex
 10
265.9443481264105
 20
696.255201189811
 30
0.0
  0
VERTEX
  5
61D
330
60C
100
AcDbEntity
  8
Make2D$可见线$普通线
100
AcDbVertex
100
AcDb2dVertex
 10
266.072892233997
 20
696.4842082278747
 30
0.0
  0
VERTEX
  5
61E
330
60C
100
AcDbEntity
  8
Make2D$可见线$普通线
100
AcDbVertex
100
AcDb2dVertex
 10
266.2118461484758
 20
696.7174438140394
 30
0.0
  0
VERTEX
  5
61F
330
60C
100
AcDbEntity
  8
Make2D$可见线$普通线
100
AcDbVertex
100
AcDb2dVertex
 10
266.3567384319642
 20
696.9469338991075
 30
0.0
  0
VERTEX
  5
620
330
60C
100
AcDbEntity
  8
Make2D$可见线$普通线
100
AcDbVertex
100
AcDb2dVertex
 10
266.5073959880565
 20
697.172639928428
 30
0.0
  0
VERTEX
  5
621
330
60C
100
AcDbEntity
  8
Make2D$可见线$普通线
100
AcDbVertex
100
AcDb2dVertex
 10
266.6636457203468
 20
697.3945233473498
 30
0.0
  0
VERTEX
  5
622
330
60C
100
AcDbEntity
  8
Make2D$可见线$普通线
100
AcDbVertex
100
AcDb2dVertex
 10
266.8253145324295
 20
697.6125456012217
 30
0.0
  0
VERTEX
  5
623
330
60C
100
AcDbEntity
  8
Make2D$可见线$普通线
100
AcDbVertex
100
AcDb2dVertex
 10
266.9922293278987
 20
697.8266681353923
 30
0.0
  0
VERTEX
  5
624
330
60C
100
AcDbEntity
  8
Make2D$可见线$普通线
100
AcDbVertex
100
AcDb2dVertex
 10
267.1642170103488
 20
698.0368523952108
 30
0.0
  0
VERTEX
  5
625
330
60C
100
AcDbEntity
  8
Make2D$可见线$普通线
100
AcDbVertex
100
AcDb2dVertex
 10
267.341104483374
 20
698.2430598260257
 30
0.0
  0
VERTEX
  5
626
330
60C
100
AcDbEntity
  8
Make2D$可见线$普通线
100
AcDbVertex
100
AcDb2dVertex
 10
267.5227186505685
 20
698.4452518731861
 30
0.0
  0
VERTEX
  5
627
330
60C
100
AcDbEntity
  8
Make2D$可见线$普通线
100
AcDbVertex
100
AcDb2dVertex
 10
267.7088864155268
 20
698.6433899820406
 30
0.0
  0
VERTEX
  5
628
330
60C
100
AcDbEntity
  8
Make2D$可见线$普通线
100
AcDbVertex
100
AcDb2dVertex
 10
267.8994346818429
 20
698.8374355979383
 30
0.0
  0
VERTEX
  5
629
330
60C
100
AcDbEntity
  8
Make2D$可见线$普通线
100
AcDbVertex
100
AcDb2dVertex
 10
268.0941903531111
 20
699.027350166228
 30
0.0
  0
VERTEX
  5
62A
330
60C
100
AcDbEntity
  8
Make2D$可见线$普通线
100
AcDbVertex
100
AcDb2dVertex
 10
268.2929803329257
 20
699.2130951322583
 30
0.0
  0
VERTEX
  5
62B
330
60C
100
AcDbEntity
  8
Make2D$可见线$普通线
100
AcDbVertex
100
AcDb2dVertex
 10
268.495631524881
 20
699.3946319413783
 30
0.0
  0
VERTEX
  5
62C
330
60C
100
AcDbEntity
  8
Make2D$可见线$普通线
100
AcDbVertex
100
AcDb2dVertex
 10
268.7019708325712
 20
699.5719220389366
 30
0.0
  0
VERTEX
  5
62D
330
60C
100
AcDbEntity
  8
Make2D$可见线$普通线
100
AcDbVertex
100
AcDb2dVertex
 10
268.9118251595905
 20
699.7449268702823
 30
0.0
  0
VERTEX
  5
62E
330
60C
100
AcDbEntity
  8
Make2D$可见线$普通线
100
AcDbVertex
100
AcDb2dVertex
 10
269.1473698416433
 20
699.9308831176352
 30
0.0
  0
VERTEX
  5
62F
330
60C
100
AcDbEntity
  8
Make2D$可见线$普通线
100
AcDbVertex
100
AcDb2dVertex
 10
269.3868622347529
 20
700.111536486414
 30
0.0
  0
VERTEX
  5
630
330
60C
100
AcDbEntity
  8
Make2D$可见线$普通线
100
AcDbVertex
100
AcDb2dVertex
 10
269.6301777837167
 20
700.2868528460735
 30
0.0
  0
VERTEX
  5
631
330
60C
100
AcDbEntity
  8
Make2D$可见线$普通线
100
AcDbVertex
100
AcDb2dVertex
 10
269.8771919333323
 20
700.4567980660687
 30
0.0
  0
VERTEX
  5
632
330
60C
100
AcDbEntity
  8
Make2D$可见线$普通线
100
AcDbVertex
100
AcDb2dVertex
 10
270.127780128397
 20
700.621338015854
 30
0.0
  0
VERTEX
  5
633
330
60C
100
AcDbEntity
  8
Make2D$可见线$普通线
100
AcDbVertex
100
AcDb2dVertex
 10
270.3818178137084
 20
700.7804385648842
 30
0.0
  0
VERTEX
  5
634
330
60C
100
AcDbEntity
  8
Make2D$可见线$普通线
100
AcDbVertex
100
AcDb2dVertex
 10
270.639180434064
 20
700.934065582614
 30
0.0
  0
VERTEX
  5
635
330
60C
100
AcDbEntity
  8
Make2D$可见线$普通线
100
AcDbVertex
100
AcDb2dVertex
 10
270.8997434342612
 20
701.0821849384984
 30
0.0
  0
VERTEX
  5
636
330
60C
100
AcDbEntity
  8
Make2D$可见线$普通线
100
AcDbVertex
100
AcDb2dVertex
 10
271.1633822590975
 20
701.2247625019917
 30
0.0
  0
VERTEX
  5
637
330
60C
100
AcDbEntity
  8
Make2D$可见线$普通线
100
AcDbVertex
100
AcDb2dVertex
 10
271.4299723533705
 20
701.3617641425489
 30
0.0
  0
VERTEX
  5
638
330
60C
100
AcDbEntity
  8
Make2D$可见线$普通线
100
AcDbVertex
100
AcDb2dVertex
 10
271.6993891618777
 20
701.4931557296246
 30
0.0
  0
VERTEX
  5
639
330
60C
100
AcDbEntity
  8
Make2D$可见线$普通线
100
AcDbVertex
100
AcDb2dVertex
 10
271.9715081294164
 20
701.6189031326735
 30
0.0
  0
VERTEX
  5
63A
330
60C
100
AcDbEntity
  8
Make2D$可见线$普通线
100
AcDbVertex
100
AcDb2dVertex
 10
272.2462047007842
 20
701.7389722211506
 30
0.0
  0
VERTEX
  5
63B
330
60C
100
AcDbEntity
  8
Make2D$可见线$普通线
100
AcDbVertex
100
AcDb2dVertex
 10
272.5233543207788
 20
701.8533288645101
 30
0.0
  0
VERTEX
  5
63C
330
60C
100
AcDbEntity
  8
Make2D$可见线$普通线
100
AcDbVertex
100
AcDb2dVertex
 10
272.8028324341974
 20
701.9619389322073
 30
0.0
  0
VERTEX
  5
63D
330
60C
100
AcDbEntity
  8
Make2D$可见线$普通线
100
AcDbVertex
100
AcDb2dVertex
 10
273.0845144858375
 20
702.0647682936966
 30
0.0
  0
VERTEX
  5
63E
330
60C
100
AcDbEntity
  8
Make2D$可见线$普通线
100
AcDbVertex
100
AcDb2dVertex
 10
273.3682759204967
 20
702.1617828184328
 30
0.0
  0
VERTEX
  5
63F
330
60C
100
AcDbEntity
  8
Make2D$可见线$普通线
100
AcDbVertex
100
AcDb2dVertex
 10
273.6539921829726
 20
702.2529483758707
 30
0.0
  0
VERTEX
  5
640
330
60C
100
AcDbEntity
  8
Make2D$可见线$普通线
100
AcDbVertex
100
AcDb2dVertex
 10
273.9415387180624
 20
702.3382308354649
 30
0.0
  0
VERTEX
  5
641
330
60C
100
AcDbEntity
  8
Make2D$可见线$普通线
100
AcDbVertex
100
AcDb2dVertex
 10
274.2307909705638
 20
702.41759606667
 30
0.0
  0
VERTEX
  5
642
330
60C
100
AcDbEntity
  8
Make2D$可见线$普通线
100
AcDbVertex
100
AcDb2dVertex
 10
274.5216243852743
 20
702.4910099389408
 30
0.0
  0
VERTEX
  5
643
330
60C
100
AcDbEntity
  8
Make2D$可见线$普通线
100
AcDbVertex
100
AcDb2dVertex
 10
274.8139144069913
 20
702.5584383217324
 30
0.0
  0
VERTEX
  5
644
330
60C
100
AcDbEntity
  8
Make2D$可见线$普通线
100
AcDbVertex
100
AcDb2dVertex
 10
275.1075364805123
 20
702.6198470844992
 30
0.0
  0
VERTEX
  5
645
330
60C
100
AcDbEntity
  8
Make2D$可见线$普通线
100
AcDbVertex
100
AcDb2dVertex
 10
275.4023660506348
 20
702.6752020966959
 30
0.0
  0
VERTEX
  5
646
330
60C
100
AcDbEntity
  8
Make2D$可见线$普通线
100
AcDbVertex
100
AcDb2dVertex
 10
275.6982785621564
 20
702.7244692277773
 30
0.0
  0
VERTEX
  5
647
330
60C
100
AcDbEntity
  8
Make2D$可见线$普通线
100
AcDbVertex
100
AcDb2dVertex
 10
275.9951494598744
 20
702.7676143471981
 30
0.0
  0
VERTEX
  5
648
330
60C
100
AcDbEntity
  8
Make2D$可见线$普通线
100
AcDbVertex
100
AcDb2dVertex
 10
276.2928541885865
 20
702.804603324413
 30
0.0
  0
VERTEX
  5
649
330
60C
100
AcDbEntity
  8
Make2D$可见线$普通线
100
AcDbVertex
100
AcDb2dVertex
 10
276.5912681930899
 20
702.8354020288768
 30
0.0
  0
VERTEX
  5
64A
330
60C
100
AcDbEntity
  8
Make2D$可见线$普通线
100
AcDbVertex
100
AcDb2dVertex
 10
276.8902669181824
 20
702.8599763300442
 30
0.0
  0
VERTEX
  5
64B
330
60C
100
AcDbEntity
  8
Make2D$可见线$普通线
100
AcDbVertex
100
AcDb2dVertex
 10
277.1897258086613
 20
702.8782920973699
 30
0.0
  0
VERTEX
  5
64C
330
60C
100
AcDbEntity
  8
Make2D$可见线$普通线
100
AcDbVertex
100
AcDb2dVertex
 10
277.4895203093242
 20
702.8903152003088
 30
0.0
  0
VERTEX
  5
64D
330
60C
100
AcDbEntity
  8
Make2D$可见线$普通线
100
AcDbVertex
100
AcDb2dVertex
 10
277.7895258649685
 20
702.8960115083152
 30
0.0
  0
VERTEX
  5
64E
330
60C
100
AcDbEntity
  8
Make2D$可见线$普通线
100
AcDbVertex
100
AcDb2dVertex
 10
278.075308057395
 20
702.8955257392535
 30
0.0
  0
VERTEX
  5
64F
330
60C
100
AcDbEntity
  8
Make2D$可见线$普通线
100
AcDbVertex
100
AcDb2dVertex
 10
278.3610375602385
 20
702.8892552090535
 30
0.0
  0
VERTEX
  5
650
330
60C
100
AcDbEntity
  8
Make2D$可见线$普通线
100
AcDbVertex
100
AcDb2dVertex
 10
278.6465832346945
 20
702.8771840690396
 30
0.0
  0
VERTEX
  5
651
330
60C
100
AcDbEntity
  8
Make2D$可见线$普通线
100
AcDbVertex
100
AcDb2dVertex
 10
278.9318139419584
 20
702.8592964705356
 30
0.0
  0
VERTEX
  5
652
330
60C
100
AcDbEntity
  8
Make2D$可见线$普通线
100
AcDbVertex
100
AcDb2dVertex
 10
279.2165985432254
 20
702.8355765648655
 30
0.0
  0
VERTEX
  5
653
330
60C
100
AcDbEntity
  8
Make2D$可见线$普通线
100
AcDbVertex
100
AcDb2dVertex
 10
279.500805899691
 20
702.8060085033533
 30
0.0
  0
VERTEX
  5
654
330
60C
100
AcDbEntity
  8
Make2D$可见线$普通线
100
AcDbVertex
100
AcDb2dVertex
 10
279.7843048725507
 20
702.770576437323
 30
0.0
  0
VERTEX
  5
655
330
60C
100
AcDbEntity
  8
Make2D$可见线$普通线
100
AcDbVertex
100
AcDb2dVertex
 10
280.0669643229998
 20
702.7292645180986
 30
0.0
  0
VERTEX
  5
656
330
60C
100
AcDbEntity
  8
Make2D$可见线$普通线
100
AcDbVertex
100
AcDb2dVertex
 10
280.3486531122336
 20
702.6820568970041
 30
0.0
  0
VERTEX
  5
657
330
60C
100
AcDbEntity
  8
Make2D$可见线$普通线
100
AcDbVertex
100
AcDb2dVertex
 10
280.6292401014477
 20
702.6289377253638
 30
0.0
  0
VERTEX
  5
658
330
60C
100
AcDbEntity
  8
Make2D$可见线$普通线
100
AcDbVertex
100
AcDb2dVertex
 10
280.9085941518375
 20
702.5698911545014
 30
0.0
  0
VERTEX
  5
659
330
60C
100
AcDbEntity
  8
Make2D$可见线$普通线
100
AcDbVertex
100
AcDb2dVertex
 10
281.1865841245982
 20
702.5049013357411
 30
0.0
  0
VERTEX
  5
65A
330
60C
100
AcDbEntity
  8
Make2D$可见线$普通线
100
AcDbVertex
100
AcDb2dVertex
 10
281.4630788809253
 20
702.4339524204067
 30
0.0
  0
VERTEX
  5
65B
330
60C
100
AcDbEntity
  8
Make2D$可见线$普通线
100
AcDbVertex
100
AcDb2dVertex
 10
281.7379472820141
 20
702.3570285598223
 30
0.0
  0
VERTEX
  5
65C
330
60C
100
AcDbEntity
  8
Make2D$可见线$普通线
100
AcDbVertex
100
AcDb2dVertex
 10
282.0110581890601
 20
702.2741139053121
 30
0.0
  0
VERTEX
  5
65D
330
60C
100
AcDbEntity
  8
Make2D$可见线$普通线
100
AcDbVertex
100
AcDb2dVertex
 10
282.2822804632588
 20
702.1851926081999
 30
0.0
  0
VERTEX
  5
65E
330
60C
100
AcDbEntity
  8
Make2D$可见线$普通线
100
AcDbVertex
100
AcDb2dVertex
 10
282.5470244887657
 20
702.0918892921201
 30
0.0
  0
VERTEX
  5
65F
330
60C
100
AcDbEntity
  8
Make2D$可见线$普通线
100
AcDbVertex
100
AcDb2dVertex
 10
282.8096946886697
 20
701.9928214133745
 30
0.0
  0
VERTEX
  5
660
330
60C
100
AcDbEntity
  8
Make2D$可见线$普通线
100
AcDbVertex
100
AcDb2dVertex
 10
283.0701703968604
 20
701.8880482785426
 30
0.0
  0
VERTEX
  5
661
330
60C
100
AcDbEntity
  8
Make2D$可见线$普通线
100
AcDbVertex
100
AcDb2dVertex
 10
283.3283309472271
 20
701.7776291942042
 30
0.0
  0
VERTEX
  5
662
330
60C
100
AcDbEntity
  8
Make2D$可见线$普通线
100
AcDbVertex
100
AcDb2dVertex
 10
283.5840556736593
 20
701.6616234669389
 30
0.0
  0
VERTEX
  5
663
330
60C
100
AcDbEntity
  8
Make2D$可见线$普通线
100
AcDbVertex
100
AcDb2dVertex
 10
283.8372239100465
 20
701.5400904033263
 30
0.0
  0
VERTEX
  5
664
330
60C
100
AcDbEntity
  8
Make2D$可见线$普通线
100
AcDbVertex
100
AcDb2dVertex
 10
284.0877149902782
 20
701.4130893099459
 30
0.0
  0
VERTEX
  5
665
330
60C
100
AcDbEntity
  8
Make2D$可见线$普通线
100
AcDbVertex
100
AcDb2dVertex
 10
284.3354082482438
 20
701.2806794933772
 30
0.0
  0
VERTEX
  5
666
330
60C
100
AcDbEntity
  8
Make2D$可见线$普通线
100
AcDbVertex
100
AcDb2dVertex
 10
284.5801830178327
 20
701.1429202602
 30
0.0
  0
VERTEX
  5
667
330
60C
100
AcDbEntity
  8
Make2D$可见线$普通线
100
AcDbVertex
100
AcDb2dVertex
 10
284.8219186329345
 20
700.9998709169937
 30
0.0
  0
VERTEX
  5
668
330
60C
100
AcDbEntity
  8
Make2D$可见线$普通线
100
AcDbVertex
100
AcDb2dVertex
 10
285.0604944274385
 20
700.8515907703381
 30
0.0
  0
VERTEX
  5
669
330
60C
100
AcDbEntity
  8
Make2D$可见线$普通线
100
AcDbVertex
100
AcDb2dVertex
 10
285.2957897352343
 20
700.6981391268125
 30
0.0
  0
VERTEX
  5
66A
330
60C
100
AcDbEntity
  8
Make2D$可见线$普通线
100
AcDbVertex
100
AcDb2dVertex
 10
285.5276838902112
 20
700.5395752929967
 30
0.0
  0
VERTEX
  5
66B
330
60C
100
AcDbEntity
  8
Make2D$可见线$普通线
100
AcDbVertex
100
AcDb2dVertex
 10
285.7560562262588
 20
700.3759585754703
 30
0.0
  0
VERTEX
  5
66C
330
60C
100
AcDbEntity
  8
Make2D$可见线$普通线
100
AcDbVertex
100
AcDb2dVertex
 10
285.9807860772665
 20
700.207348280813
 30
0.0
  0
VERTEX
  5
66D
330
60C
100
AcDbEntity
  8
Make2D$可见线$普通线
100
AcDbVertex
100
AcDb2dVertex
 10
286.2017527771238
 20
700.0338037156041
 30
0.0
  0
VERTEX
  5
66E
330
60C
100
AcDbEntity
  8
Make2D$可见线$普通线
100
AcDbVertex
100
AcDb2dVertex
 10
286.4242432155669
 20
699.8508399950802
 30
0.0
  0
VERTEX
  5
66F
330
60C
100
AcDbEntity
  8
Make2D$可见线$普通线
100
AcDbVertex
100
AcDb2dVertex
 10
286.6425196185622
 20
699.6628464527723
 30
0.0
  0
VERTEX
  5
670
330
60C
100
AcDbEntity
  8
Make2D$可见线$普通线
100
AcDbVertex
100
AcDb2dVertex
 10
286.8564495599049
 20
699.4699164991887
 30
0.0
  0
VERTEX
  5
671
330
60C
100
AcDbEntity
  8
Make2D$可见线$普通线
100
AcDbVertex
100
AcDb2dVertex
 10
287.06590061339
 20
699.272143544837
 30
0.0
  0
VERTEX
  5
672
330
60C
100
AcDbEntity
  8
Make2D$可见线$普通线
100
AcDbVertex
100
AcDb2dVertex
 10
287.2707403528127
 20
699.0696210002252
 30
0.0
  0
VERTEX
  5
673
330
60C
100
AcDbEntity
  8
Make2D$可见线$普通线
100
AcDbVertex
100
AcDb2dVertex
 10
287.4708363519679
 20
698.862442275861
 30
0.0
  0
VERTEX
  5
674
330
60C
100
AcDbEntity
  8
Make2D$可见线$普通线
100
AcDbVertex
100
AcDb2dVertex
 10
287.666056184651
 20
698.6507007822522
 30
0.0
  0
VERTEX
  5
675
330
60C
100
AcDbEntity
  8
Make2D$可见线$普通线
100
AcDbVertex
100
AcDb2dVertex
 10
287.8562674246568
 20
698.4344899299069
 30
0.0
  0
VERTEX
  5
676
330
60C
100
AcDbEntity
  8
Make2D$可见线$普通线
100
AcDbVertex
100
AcDb2dVertex
 10
288.0413376457806
 20
698.2139031293327
 30
0.0
  0
VERTEX
  5
677
330
60C
100
AcDbEntity
  8
Make2D$可见线$普通线
100
AcDbVertex
100
AcDb2dVertex
 10
288.2211344218173
 20
697.9890337910376
 30
0.0
  0
VERTEX
  5
678
330
60C
100
AcDbEntity
  8
Make2D$可见线$普通线
100
AcDbVertex
100
AcDb2dVertex
 10
288.3955253265621
 20
697.7599753255296
 30
0.0
  0
VERTEX
  5
679
330
60C
100
AcDbEntity
  8
Make2D$可见线$普通线
100
AcDbVertex
100
AcDb2dVertex
 10
288.56437793381
 20
697.526821143316
 30
0.0
  0
VERTEX
  5
67A
330
60C
100
AcDbEntity
  8
Make2D$可见线$普通线
100
AcDbVertex
100
AcDb2dVertex
 10
288.7275598173562
 20
697.2896646549052
 30
0.0
  0
VERTEX
  5
67B
330
60C
100
AcDbEntity
  8
Make2D$可见线$普通线
100
AcDbVertex
100
AcDb2dVertex
 10
288.8849385509958
 20
697.0485992708049
 30
0.0
  0
VERTEX
  5
67C
330
60C
100
AcDbEntity
  8
Make2D$可见线$普通线
100
AcDbVertex
100
AcDb2dVertex
 10
289.0363817085238
 20
696.8037184015227
 30
0.0
  0
VERTEX
  5
67D
330
60C
100
AcDbEntity
  8
Make2D$可见线$普通线
100
AcDbVertex
100
AcDb2dVertex
 10
289.1817568637352
 20
696.5551154575668
 30
0.0
  0
VERTEX
  5
67E
330
60C
100
AcDbEntity
  8
Make2D$可见线$普通线
100
AcDbVertex
100
AcDb2dVertex
 10
289.3110579596336
 20
696.3212570734495
 30
0.0
  0
VERTEX
  5
67F
330
60C
100
AcDbEntity
  8
Make2D$可见线$普通线
100
AcDbVertex
100
AcDb2dVertex
 10
289.4348191404135
 20
696.0843903580119
 30
0.0
  0
VERTEX
  5
680
330
60C
100
AcDbEntity
  8
Make2D$可见线$普通线
100
AcDbVertex
100
AcDb2dVertex
 10
289.5528362695342
 20
695.8446296267725
 30
0.0
  0
VERTEX
  5
681
330
60C
100
AcDbEntity
  8
Make2D$可见线$普通线
100
AcDbVertex
100
AcDb2dVertex
 10
289.664905210455
 20
695.6020891952498
 30
0.0
  0
VERTEX
  5
682
330
60C
100
AcDbEntity
  8
Make2D$可见线$普通线
100
AcDbVertex
100
AcDb2dVertex
 10
289.7708218266351
 20
695.3568833789627
 30
0.0
  0
VERTEX
  5
683
330
60C
100
AcDbEntity
  8
Make2D$可见线$普通线
100
AcDbVertex
100
AcDb2dVertex
 10
289.8703819815339
 20
695.1091264934296
 30
0.0
  0
VERTEX
  5
684
330
60C
100
AcDbEntity
  8
Make2D$可见线$普通线
100
AcDbVertex
100
AcDb2dVertex
 10
289.9633815386106
 20
694.8589328541691
 30
0.0
  0
VERTEX
  5
685
330
60C
100
AcDbEntity
  8
Make2D$可见线$普通线
100
AcDbVertex
100
AcDb2dVertex
 10
290.0496163613244
 20
694.6064167766997
 30
0.0
  0
VERTEX
  5
686
330
60C
100
AcDbEntity
  8
Make2D$可见线$普通线
100
AcDbVertex
100
AcDb2dVertex
 10
290.1288823131346
 20
694.3516925765402
 30
0.0
  0
VERTEX
  5
687
330
60C
100
AcDbEntity
  8
Make2D$可见线$普通线
100
AcDbVertex
100
AcDb2dVertex
 10
290.2009752575005
 20
694.0948745692093
 30
0.0
  0
VERTEX
  5
688
330
60C
100
AcDbEntity
  8
Make2D$可见线$普通线
100
AcDbVertex
100
AcDb2dVertex
 10
290.2656910578814
 20
693.8360770702254
 30
0.0
  0
VERTEX
  5
689
330
60C
100
AcDbEntity
  8
Make2D$可见线$普通线
100
AcDbVertex
100
AcDb2dVertex
 10
290.3228255777365
 20
693.5754143951071
 30
0.0
  0
VERTEX
  5
68A
330
60C
100
AcDbEntity
  8
Make2D$可见线$普通线
100
AcDbVertex
100
AcDb2dVertex
 10
290.3721746805251
 20
693.3130008593731
 30
0.0
  0
VERTEX
  5
68B
330
60C
100
AcDbEntity
  8
Make2D$可见线$普通线
100
AcDbVertex
100
AcDb2dVertex
 10
290.4135342297064
 20
693.048950778542
 30
0.0
  0
VERTEX
  5
68C
330
60C
100
AcDbEntity
  8
Make2D$可见线$普通线
100
AcDbVertex
100
AcDb2dVertex
 10
290.4467000887398
 20
692.7833784681324
 30
0.0
  0
VERTEX
  5
68D
330
60C
100
AcDbEntity
  8
Make2D$可见线$普通线
100
AcDbVertex
100
AcDb2dVertex
 10
290.4714681210844
 20
692.5163982436628
 30
0.0
  0
VERTEX
  5
68E
330
60C
100
AcDbEntity
  8
Make2D$可见线$普通线
100
AcDbVertex
100
AcDb2dVertex
 10
290.4936114940464
 20
692.2345517881037
 30
0.0
  0
VERTEX
  5
68F
330
60C
100
AcDbEntity
  8
Make2D$可见线$普通线
100
AcDbVertex
100
AcDb2dVertex
 10
290.507242252645
 20
691.9521741576517
 30
0.0
  0
VERTEX
  5
690
330
60C
100
AcDbEntity
  8
Make2D$可见线$普通线
100
AcDbVertex
100
AcDb2dVertex
 10
290.5124290335535
 20
691.6695014500042
 30
0.0
  0
VERTEX
  5
691
330
60C
100
AcDbEntity
  8
Make2D$可见线$普通线
100
AcDbVertex
100
AcDb2dVertex
 10
290.5092404734451
 20
691.3867697628583
 30
0.0
  0
VERTEX
  5
692
330
60C
100
AcDbEntity
  8
Make2D$可见线$普通线
100
AcDbVertex
100
AcDb2dVertex
 10
290.4977452089929
 20
691.1042151939113
 30
0.0
  0
VERTEX
  5
693
330
60C
100
AcDbEntity
  8
Make2D$可见线$普通线
100
AcDbVertex
100
AcDb2dVertex
 10
290.4780118768702
 20
690.8220738408603
 30
0.0
  0
VERTEX
  5
694
330
60C
100
AcDbEntity
  8
Make2D$可见线$普通线
100
AcDbVertex
100
AcDb2dVertex
 10
290.4501091137501
 20
690.5405818014025
 30
0.0
  0
VERTEX
  5
695
330
60C
100
AcDbEntity
  8
Make2D$可见线$普通线
100
AcDbVertex
100
AcDb2dVertex
 10
290.4141055563059
 20
690.2599751732353
 30
0.0
  0
VERTEX
  5
696
330
60C
100
AcDbEntity
  8
Make2D$可见线$普通线
100
AcDbVertex
100
AcDb2dVertex
 10
290.3700698412106
 20
689.9804900540557
 30
0.0
  0
VERTEX
  5
697
330
60C
100
AcDbEntity
  8
Make2D$可见线$普通线
100
AcDbVertex
100
AcDb2dVertex
 10
290.3180706051376
 20
689.702362541561
 30
0.0
  0
VERTEX
  5
698
330
60C
100
AcDbEntity
  8
Make2D$可见线$普通线
100
AcDbVertex
100
AcDb2dVertex
 10
290.2581764847599
 20
689.4258287334484
 30
0.0
  0
VERTEX
  5
699
330
60C
100
AcDbEntity
  8
Make2D$可见线$普通线
100
AcDbVertex
100
AcDb2dVertex
 10
290.1904561167509
 20
689.151124727415
 30
0.0
  0
VERTEX
  5
69A
330
60C
100
AcDbEntity
  8
Make2D$可见线$普通线
100
AcDbVertex
100
AcDb2dVertex
 10
290.1149781377836
 20
688.8784866211581
 30
0.0
  0
VERTEX
  5
69B
330
60C
100
AcDbEntity
  8
Make2D$可见线$普通线
100
AcDbVertex
100
AcDb2dVertex
 10
290.0318111845313
 20
688.608150512375
 30
0.0
  0
VERTEX
  5
69C
330
60C
100
AcDbEntity
  8
Make2D$可见线$普通线
100
AcDbVertex
100
AcDb2dVertex
 10
289.9410238936671
 20
688.3403524987629
 30
0.0
  0
VERTEX
  5
69D
330
60C
100
AcDbEntity
  8
Make2D$可见线$普通线
100
AcDbVertex
100
AcDb2dVertex
 10
289.8426849018643
 20
688.0753286780189
 30
0.0
  0
VERTEX
  5
69E
330
60C
100
AcDbEntity
  8
Make2D$可见线$普通线
100
AcDbVertex
100
AcDb2dVertex
 10
289.7286674208867
 20
687.7938202251696
 30
0.0
  0
VERTEX
  5
69F
330
60C
100
AcDbEntity
  8
Make2D$可见线$普通线
100
AcDbVertex
100
AcDb2dVertex
 10
289.6062076686957
 20
687.5159467982954
 30
0.0
  0
VERTEX
  5
6A0
330
60C
100
AcDbEntity
  8
Make2D$可见线$普通线
100
AcDbVertex
100
AcDb2dVertex
 10
289.4755078517367
 20
687.2418659188877
 30
0.0
  0
VERTEX
  5
6A1
330
60C
100
AcDbEntity
  8
Make2D$可见线$普通线
100
AcDbVertex
100
AcDb2dVertex
 10
289.3367701764543
 20
686.9717351084375
 30
0.0
  0
VERTEX
  5
6A2
330
60C
100
AcDbEntity
  8
Make2D$可见线$普通线
100
AcDbVertex
100
AcDb2dVertex
 10
289.1901968492938
 20
686.7057118884363
 30
0.0
  0
VERTEX
  5
6A3
330
60C
100
AcDbEntity
  8
Make2D$可见线$普通线
100
AcDbVertex
100
AcDb2dVertex
 10
289.0359900766999
 20
686.4439537803751
 30
0.0
  0
VERTEX
  5
6A4
330
60C
100
AcDbEntity
  8
Make2D$可见线$普通线
100
AcDbVertex
100
AcDb2dVertex
 10
288.8743520651178
 20
686.1866183057455
 30
0.0
  0
VERTEX
  5
6A5
330
60C
100
AcDbEntity
  8
Make2D$可见线$普通线
100
AcDbVertex
100
AcDb2dVertex
 10
288.7054850209925
 20
685.9338629860383
 30
0.0
  0
VERTEX
  5
6A6
330
60C
100
AcDbEntity
  8
Make2D$可见线$普通线
100
AcDbVertex
100
AcDb2dVertex
 10
288.5295911507687
 20
685.6858453427451
 30
0.0
  0
VERTEX
  5
6A7
330
60C
100
AcDbEntity
  8
Make2D$可见线$普通线
100
AcDbVertex
100
AcDb2dVertex
 10
288.3468726608916
 20
685.4427228973568
 30
0.0
  0
VERTEX
  5
6A8
330
60C
100
AcDbEntity
  8
Make2D$可见线$普通线
100
AcDbVertex
100
AcDb2dVertex
 10
288.1575317578061
 20
685.204653171365
 30
0.0
  0
VERTEX
  5
6A9
330
60C
100
AcDbEntity
  8
Make2D$可见线$普通线
100
AcDbVertex
100
AcDb2dVertex
 10
287.9617706479572
 20
684.9717936862608
 30
0.0
  0
VERTEX
  5
6AA
330
60C
100
AcDbEntity
  8
Make2D$可见线$普通线
100
AcDbVertex
100
AcDb2dVertex
 10
287.7597915377898
 20
684.7443019635355
 30
0.0
  0
VERTEX
  5
6AB
330
60C
100
AcDbEntity
  8
Make2D$可见线$普通线
100
AcDbVertex
100
AcDb2dVertex
 10
287.5517966337489
 20
684.5223355246801
 30
0.0
  0
VERTEX
  5
6AC
330
60C
100
AcDbEntity
  8
Make2D$可见线$普通线
100
AcDbVertex
100
AcDb2dVertex
 10
287.3379881422795
 20
684.3060518911861
 30
0.0
  0
VERTEX
  5
6AD
330
60C
100
AcDbEntity
  8
Make2D$可见线$普通线
100
AcDbVertex
100
AcDb2dVertex
 10
287.1185682698266
 20
684.0956085845448
 30
0.0
  0
VERTEX
  5
6AE
330
60C
100
AcDbEntity
  8
Make2D$可见线$普通线
100
AcDbVertex
100
AcDb2dVertex
 10
286.8855817084605
 20
683.8839244510903
 30
0.0
  0
VERTEX
  5
6AF
330
60C
100
AcDbEntity
  8
Make2D$可见线$普通线
100
AcDbVertex
100
AcDb2dVertex
 10
286.6470054992016
 20
683.6787030060973
 30
0.0
  0
VERTEX
  5
6B0
330
60C
100
AcDbEntity
  8
Make2D$可见线$普通线
100
AcDbVertex
100
AcDb2dVertex
 10
286.4030538477649
 20
683.479971458177
 30
0.0
  0
VERTEX
  5
6B1
330
60C
100
AcDbEntity
  8
Make2D$可见线$普通线
100
AcDbVertex
100
AcDb2dVertex
 10
286.1539409598655
 20
683.2877570159411
 30
0.0
  0
VERTEX
  5
6B2
330
60C
100
AcDbEntity
  8
Make2D$可见线$普通线
100
AcDbVertex
100
AcDb2dVertex
 10
285.8998810412184
 20
683.1020868880005
 30
0.0
  0
VERTEX
  5
6B3
330
60C
100
AcDbEntity
  8
Make2D$可见线$普通线
100
AcDbVertex
100
AcDb2dVertex
 10
285.6410882975387
 20
682.9229882829668
 30
0.0
  0
VERTEX
  5
6B4
330
60C
100
AcDbEntity
  8
Make2D$可见线$普通线
100
AcDbVertex
100
AcDb2dVertex
 10
285.3777769345412
 20
682.7504884094512
 30
0.0
  0
VERTEX
  5
6B5
330
60C
100
AcDbEntity
  8
Make2D$可见线$普通线
100
AcDbVertex
100
AcDb2dVertex
 10
285.1101611579411
 20
682.584614476065
 30
0.0
  0
VERTEX
  5
6B6
330
60C
100
AcDbEntity
  8
Make2D$可见线$普通线
100
AcDbVertex
100
AcDb2dVertex
 10
284.8384551734534
 20
682.4253936914195
 30
0.0
  0
VERTEX
  5
6B7
330
60C
100
AcDbEntity
  8
Make2D$可见线$普通线
100
AcDbVertex
100
AcDb2dVertex
 10
284.5628731867932
 20
682.272853264126
 30
0.0
  0
VERTEX
  5
6B8
330
60C
100
AcDbEntity
  8
Make2D$可见线$普通线
100
AcDbVertex
100
AcDb2dVertex
 10
284.2836294036754
 20
682.1270204027958
 30
0.0
  0
VERTEX
  5
6B9
330
60C
100
AcDbEntity
  8
Make2D$可见线$普通线
100
AcDbVertex
100
AcDb2dVertex
 10
284.0009380298152
 20
681.9879223160401
 30
0.0
  0
VERTEX
  5
6BA
330
60C
100
AcDbEntity
  8
Make2D$可见线$普通线
100
AcDbVertex
100
AcDb2dVertex
 10
283.7150132709276
 20
681.8555862124703
 30
0.0
  0
VERTEX
  5
6BB
330
60C
100
AcDbEntity
  8
Make2D$可见线$普通线
100
AcDbVertex
100
AcDb2dVertex
 10
283.4260693327274
 20
681.7300393006979
 30
0.0
  0
VERTEX
  5
6BC
330
60C
100
AcDbEntity
  8
Make2D$可见线$普通线
100
AcDbVertex
100
AcDb2dVertex
 10
283.1343204209299
 20
681.6113087893339
 30
0.0
  0
VERTEX
  5
6BD
330
60C
100
AcDbEntity
  8
Make2D$可见线$普通线
100
AcDbVertex
100
AcDb2dVertex
 10
282.83998074125
 20
681.4994218869896
 30
0.0
  0
VERTEX
  5
6BE
330
60C
100
AcDbEntity
  8
Make2D$可见线$普通线
100
AcDbVertex
100
AcDb2dVertex
 10
282.5346160172179
 20
681.3914525882503
 30
0.0
  0
VERTEX
  5
6BF
330
60C
100
AcDbEntity
  8
Make2D$可见线$普通线
100
AcDbVertex
100
AcDb2dVertex
 10
282.2268927084715
 20
681.2907202392751
 30
0.0
  0
VERTEX
  5
6C0
330
60C
100
AcDbEntity
  8
Make2D$可见线$普通线
100
AcDbVertex
100
AcDb2dVertex
 10
281.916968595852
 20
681.1971867902241
 30
0.0
  0
VERTEX
  5
6C1
330
60C
100
AcDbEntity
  8
Make2D$可见线$普通线
100
AcDbVertex
100
AcDb2dVertex
 10
281.6050014602006
 20
681.1108141912579
 30
0.0
  0
VERTEX
  5
6C2
330
60C
100
AcDbEntity
  8
Make2D$可见线$普通线
100
AcDbVertex
100
AcDb2dVertex
 10
281.2911490823586
 20
681.0315643925367
 30
0.0
  0
VERTEX
  5
6C3
330
60C
100
AcDbEntity
  8
Make2D$可见线$普通线
100
AcDbVertex
100
AcDb2dVertex
 10
280.975569243167
 20
680.9593993442206
 30
0.0
  0
VERTEX
  5
6C4
330
60C
100
AcDbEntity
  8
Make2D$可见线$普通线
100
AcDbVertex
100
AcDb2dVertex
 10
280.6584197234672
 20
680.8942809964705
 30
0.0
  0
VERTEX
  5
6C5
330
60C
100
AcDbEntity
  8
Make2D$可见线$普通线
100
AcDbVertex
100
AcDb2dVertex
 10
280.3398583041004
 20
680.8361712994463
 30
0.0
  0
VERTEX
  5
6C6
330
60C
100
AcDbEntity
  8
Make2D$可见线$普通线
100
AcDbVertex
100
AcDb2dVertex
 10
280.0200427659078
 20
680.7850322033086
 30
0.0
  0
VERTEX
  5
6C7
330
60C
100
AcDbEntity
  8
Make2D$可见线$普通线
100
AcDbVertex
100
AcDb2dVertex
 10
279.6991308897304
 20
680.7408256582175
 30
0.0
  0
VERTEX
  5
6C8
330
60C
100
AcDbEntity
  8
Make2D$可见线$普通线
100
AcDbVertex
100
AcDb2dVertex
 10
279.3772804564096
 20
680.7035136143338
 30
0.0
  0
VERTEX
  5
6C9
330
60C
100
AcDbEntity
  8
Make2D$可见线$普通线
100
AcDbVertex
100
AcDb2dVertex
 10
279.0546492467867
 20
680.6730580218175
 30
0.0
  0
VERTEX
  5
6CA
330
60C
100
AcDbEntity
  8
Make2D$可见线$普通线
100
AcDbVertex
100
AcDb2dVertex
 10
278.7313950417027
 20
680.6494208308288
 30
0.0
  0
VERTEX
  5
6CB
330
60C
100
AcDbEntity
  8
Make2D$可见线$普通线
100
AcDbVertex
100
AcDb2dVertex
 10
278.4076756219989
 20
680.6325639915285
 30
0.0
  0
VERTEX
  5
6CC
330
60C
100
AcDbEntity
  8
Make2D$可见线$普通线
100
AcDbVertex
100
AcDb2dVertex
 10
278.0836487685166
 20
680.6224494540768
 30
0.0
  0
VERTEX
  5
6CD
330
60C
100
AcDbEntity
  8
Make2D$可见线$普通线
100
AcDbVertex
100
AcDb2dVertex
 10
277.7594722620969
 20
680.6190391686339
 30
0.0
  0
VERTEX
  5
6CE
330
60C
100
AcDbEntity
  8
Make2D$可见线$普通线
100
AcDbVertex
100
AcDb2dVertex
 10
277.4190939338343
 20
680.6226430924478
 30
0.0
  0
VERTEX
  5
6CF
330
60C
100
AcDbEntity
  8
Make2D$可见线$普通线
100
AcDbVertex
100
AcDb2dVertex
 10
277.0788966007952
 20
680.6336176539255
 30
0.0
  0
VERTEX
  5
6D0
330
60C
100
AcDbEntity
  8
Make2D$可见线$普通线
100
AcDbVertex
100
AcDb2dVertex
 10
276.7390522970418
 20
680.6519838817206
 30
0.0
  0
VERTEX
  5
6D1
330
60C
100
AcDbEntity
  8
Make2D$可见线$普通线
100
AcDbVertex
100
AcDb2dVertex
 10
276.3997330566357
 20
680.6777628044865
 30
0.0
  0
VERTEX
  5
6D2
330
60C
100
AcDbEntity
  8
Make2D$可见线$普通线
100
AcDbVertex
100
AcDb2dVertex
 10
276.0611109136389
 20
680.710975450876
 30
0.0
  0
VERTEX
  5
6D3
330
60C
100
AcDbEntity
  8
Make2D$可见线$普通线
100
AcDbVertex
100
AcDb2dVertex
 10
275.7233579021134
 20
680.7516428495428
 30
0.0
  0
VERTEX
  5
6D4
330
60C
100
AcDbEntity
  8
Make2D$可见线$普通线
100
AcDbVertex
100
AcDb2dVertex
 10
275.386646056121
 20
680.7997860291399
 30
0.0
  0
VERTEX
  5
6D5
330
60C
100
AcDbEntity
  8
Make2D$可见线$普通线
100
AcDbVertex
100
AcDb2dVertex
 10
275.0511474097237
 20
680.8554260183205
 30
0.0
  0
VERTEX
  5
6D6
330
60C
100
AcDbEntity
  8
Make2D$可见线$普通线
100
AcDbVertex
100
AcDb2dVertex
 10
274.7170339969834
 20
680.9185838457379
 30
0.0
  0
VERTEX
  5
6D7
330
60C
100
AcDbEntity
  8
Make2D$可见线$普通线
100
AcDbVertex
100
AcDb2dVertex
 10
274.3844778519621
 20
680.9892805400453
 30
0.0
  0
VERTEX
  5
6D8
330
60C
100
AcDbEntity
  8
Make2D$可见线$普通线
100
AcDbVertex
100
AcDb2dVertex
 10
274.0536510087216
 20
681.067537129896
 30
0.0
  0
VERTEX
  5
6D9
330
60C
100
AcDbEntity
  8
Make2D$可见线$普通线
100
AcDbVertex
100
AcDb2dVertex
 10
273.7247255013239
 20
681.1533746439434
 30
0.0
  0
VERTEX
  5
6DA
330
60C
100
AcDbEntity
  8
Make2D$可见线$普通线
100
AcDbVertex
100
AcDb2dVertex
 10
273.3978733638307
 20
681.2468141108404
 30
0.0
  0
VERTEX
  5
6DB
330
60C
100
AcDbEntity
  8
Make2D$可见线$普通线
100
AcDbVertex
100
AcDb2dVertex
 10
273.0732666303043
 20
681.3478765592406
 30
0.0
  0
VERTEX
  5
6DC
330
60C
100
AcDbEntity
  8
Make2D$可见线$普通线
100
AcDbVertex
100
AcDb2dVertex
 10
272.7510773348062
 20
681.456583017797
 30
0.0
  0
VERTEX
  5
6DD
330
60C
100
AcDbEntity
  8
Make2D$可见线$普通线
100
AcDbVertex
100
AcDb2dVertex
 10
272.4314775113986
 20
681.572954515163
 30
0.0
  0
VERTEX
  5
6DE
330
60C
100
AcDbEntity
  8
Make2D$可见线$普通线
100
AcDbVertex
100
AcDb2dVertex
 10
272.1366413059298
 20
681.6881093214197
 30
0.0
  0
VERTEX
  5
6DF
330
60C
100
AcDbEntity
  8
Make2D$可见线$普通线
100
AcDbVertex
100
AcDb2dVertex
 10
271.8443996864112
 20
681.8098965001418
 30
0.0
  0
VERTEX
  5
6E0
330
60C
100
AcDbEntity
  8
Make2D$可见线$普通线
100
AcDbVertex
100
AcDb2dVertex
 10
271.5549572804099
 20
681.9382964808497
 30
0.0
  0
VERTEX
  5
6E1
330
60C
100
AcDbEntity
  8
Make2D$可见线$普通线
100
AcDbVertex
100
AcDb2dVertex
 10
271.2685187154931
 20
682.073289693064
 30
0.0
  0
VERTEX
  5
6E2
330
60C
100
AcDbEntity
  8
Make2D$可见线$普通线
100
AcDbVertex
100
AcDb2dVertex
 10
270.9852886192277
 20
682.2148565663055
 30
0.0
  0
VERTEX
  5
6E3
330
60C
100
AcDbEntity
  8
Make2D$可见线$普通线
100
AcDbVertex
100
AcDb2dVertex
 10
270.7054716191809
 20
682.3629775300947
 30
0.0
  0
VERTEX
  5
6E4
330
60C
100
AcDbEntity
  8
Make2D$可见线$普通线
100
AcDbVertex
100
AcDb2dVertex
 10
270.4292723429196
 20
682.5176330139525
 30
0.0
  0
VERTEX
  5
6E5
330
60C
100
AcDbEntity
  8
Make2D$可见线$普通线
100
AcDbVertex
100
AcDb2dVertex
 10
270.156895418011
 20
682.6788034473993
 30
0.0
  0
VERTEX
  5
6E6
330
60C
100
AcDbEntity
  8
Make2D$可见线$普通线
100
AcDbVertex
100
AcDb2dVertex
 10
269.8885454720221
 20
682.8464692599559
 30
0.0
  0
VERTEX
  5
6E7
330
60C
100
AcDbEntity
  8
Make2D$可见线$普通线
100
AcDbVertex
100
AcDb2dVertex
 10
269.62442713252
 20
683.0206108811428
 30
0.0
  0
VERTEX
  5
6E8
330
60C
100
AcDbEntity
  8
Make2D$可见线$普通线
100
AcDbVertex
100
AcDb2dVertex
 10
269.3647450270718
 20
683.2012087404806
 30
0.0
  0
VERTEX
  5
6E9
330
60C
100
AcDbEntity
  8
Make2D$可见线$普通线
100
AcDbVertex
100
AcDb2dVertex
 10
269.1097037832444
 20
683.3882432674902
 30
0.0
  0
VERTEX
  5
6EA
330
60C
100
AcDbEntity
  8
Make2D$可见线$普通线
100
AcDbVertex
100
AcDb2dVertex
 10
268.859508028605
 20
683.581694891692
 30
0.0
  0
VERTEX
  5
6EB
330
60C
100
AcDbEntity
  8
Make2D$可见线$普通线
100
AcDbVertex
100
AcDb2dVertex
 10
268.6143623907208
 20
683.7815440426066
 30
0.0
  0
VERTEX
  5
6EC
330
60C
100
AcDbEntity
  8
Make2D$可见线$普通线
100
AcDbVertex
100
AcDb2dVertex
 10
268.3744714971585
 20
683.9877711497547
 30
0.0
  0
VERTEX
  5
6ED
330
60C
100
AcDbEntity
  8
Make2D$可见线$普通线
100
AcDbVertex
100
AcDb2dVertex
 10
268.1400399754855
 20
684.2003566426572
 30
0.0
  0
VERTEX
  5
6EE
330
60C
100
AcDbEntity
  8
Make2D$可见线$普通线
100
AcDbVertex
100
AcDb2dVertex
 10
267.9236555635233
 20
684.4071108994824
 30
0.0
  0
VERTEX
  5
6EF
330
60C
100
AcDbEntity
  8
Make2D$可见线$普通线
100
AcDbVertex
100
AcDb2dVertex
 10
267.7125462539842
 20
684.6193975920776
 30
0.0
  0
VERTEX
  5
6F0
330
60C
100
AcDbEntity
  8
Make2D$可见线$普通线
100
AcDbVertex
100
AcDb2dVertex
 10
267.5069264343537
 20
684.8370855015107
 30
0.0
  0
VERTEX
  5
6F1
330
60C
100
AcDbEntity
  8
Make2D$可见线$普通线
100
AcDbVertex
100
AcDb2dVertex
 10
267.307010492117
 20
685.06004340885
 30
0.0
  0
VERTEX
  5
6F2
330
60C
100
AcDbEntity
  8
Make2D$可见线$普通线
100
AcDbVertex
100
AcDb2dVertex
 10
267.1130128147595
 20
685.2881400951637
 30
0.0
  0
VERTEX
  5
6F3
330
60C
100
AcDbEntity
  8
Make2D$可见线$普通线
100
AcDbVertex
100
AcDb2dVertex
 10
266.9251477897664
 20
685.5212443415202
 30
0.0
  0
VERTEX
  5
6F4
330
60C
100
AcDbEntity
  8
Make2D$可见线$普通线
100
AcDbVertex
100
AcDb2dVertex
 10
266.7436298046231
 20
685.7592249289876
 30
0.0
  0
VERTEX
  5
6F5
330
60C
100
AcDbEntity
  8
Make2D$可见线$普通线
100
AcDbVertex
100
AcDb2dVertex
 10
266.5686732468149
 20
686.001950638634
 30
0.0
  0
VERTEX
  5
6F6
330
60C
100
AcDbEntity
  8
Make2D$可见线$普通线
100
AcDbVertex
100
AcDb2dVertex
 10
266.4004925038272
 20
686.2492902515278
 30
0.0
  0
VERTEX
  5
6F7
330
60C
100
AcDbEntity
  8
Make2D$可见线$普通线
100
AcDbVertex
100
AcDb2dVertex
 10
266.2393019631452
 20
686.5011125487373
 30
0.0
  0
VERTEX
  5
6F8
330
60C
100
AcDbEntity
  8
Make2D$可见线$普通线
100
AcDbVertex
100
AcDb2dVertex
 10
266.0853160122543
 20
686.7572863113306
 30
0.0
  0
VERTEX
  5
6F9
330
60C
100
AcDbEntity
  8
Make2D$可见线$普通线
100
AcDbVertex
100
AcDb2dVertex
 10
265.9387490386399
 20
687.017680320376
 30
0.0
  0
VERTEX
  5
6FA
330
60C
100
AcDbEntity
  8
Make2D$可见线$普通线
100
AcDbVertex
100
AcDb2dVertex
 10
265.7998154297871
 20
687.2821633569417
 30
0.0
  0
VERTEX
  5
6FB
330
60C
100
AcDbEntity
  8
Make2D$可见线$普通线
100
AcDbVertex
100
AcDb2dVertex
 10
265.6687295731814
 20
687.5506042020959
 30
0.0
  0
VERTEX
  5
6FC
330
60C
100
AcDbEntity
  8
Make2D$可见线$普通线
100
AcDbVertex
100
AcDb2dVertex
 10
265.5457058563081
 20
687.8228716369069
 30
0.0
  0
VERTEX
  5
6FD
330
60C
100
AcDbEntity
  8
Make2D$可见线$普通线
100
AcDbVertex
100
AcDb2dVertex
 10
265.4309586666524
 20
688.0988344424428
 30
0.0
  0
VERTEX
  5
6FE
330
60C
100
AcDbEntity
  8
Make2D$可见线$普通线
100
AcDbVertex
100
AcDb2dVertex
 10
265.3306835341333
 20
688.3618378772223
 30
0.0
  0
VERTEX
  5
6FF
330
60C
100
AcDbEntity
  8
Make2D$可见线$普通线
100
AcDbVertex
100
AcDb2dVertex
 10
265.238013583182
 20
688.6277504637878
 30
0.0
  0
VERTEX
  5
700
330
60C
100
AcDbEntity
  8
Make2D$可见线$普通线
100
AcDbVertex
100
AcDb2dVertex
 10
265.1530304248608
 20
688.8963232551523
 30
0.0
  0
VERTEX
  5
701
330
60C
100
AcDbEntity
  8
Make2D$可见线$普通线
100
AcDbVertex
100
AcDb2dVertex
 10
265.0758156702324
 20
689.1673073043289
 30
0.0
  0
VERTEX
  5
702
330
60C
100
AcDbEntity
  8
Make2D$可见线$普通线
100
AcDbVertex
100
AcDb2dVertex
 10
265.0064509303591
 20
689.4404536643303
 30
0.0
  0
VERTEX
  5
703
330
60C
100
AcDbEntity
  8
Make2D$可见线$普通线
100
AcDbVertex
100
AcDb2dVertex
 10
264.9450178163034
 20
689.7155133881695
 30
0.0
  0
VERTEX
  5
704
330
60C
100
AcDbEntity
  8
Make2D$可见线$普通线
100
AcDbVertex
100
AcDb2dVertex
 10
264.8915979391277
 20
689.992237528859
 30
0.0
  0
VERTEX
  5
705
330
60C
100
AcDbEntity
  8
Make2D$可见线$普通线
100
AcDbVertex
100
AcDb2dVertex
 10
264.8462729098945
 20
690.2703771394121
 30
0.0
  0
VERTEX
  5
706
330
60C
100
AcDbEntity
  8
Make2D$可见线$普通线
100
AcDbVertex
100
AcDb2dVertex
 10
264.8091243396662
 20
690.5496832728413
 30
0.0
  0
VERTEX
  5
707
330
60C
100
AcDbEntity
  8
Make2D$可见线$普通线
100
AcDbVertex
100
AcDb2dVertex
 10
264.7802338395053
 20
690.8299069821597
 30
0.0
  0
VERTEX
  5
708
330
60C
100
AcDbEntity
  8
Make2D$可见线$普通线
100
AcDbVertex
100
AcDb2dVertex
 10
264.7596830204743
 20
691.1107993203802
 30
0.0
  0
VERTEX
  5
709
330
60C
100
AcDbEntity
  8
Make2D$可见线$普通线
100
AcDbVertex
100
AcDb2dVertex
 10
264.7475534936356
 20
691.3921113405156
 30
0.0
  0
VERTEX
  5
70A
330
60C
100
AcDbEntity
  8
Make2D$可见线$普通线
100
AcDbVertex
100
AcDb2dVertex
 10
264.7439268700516
 20
691.6735940955787
 30
0.0
  0
VERTEX
  5
70B
330
60C
100
AcDbEntity
  8
Make2D$可见线$普通线
100
AcDbVertex
100
AcDb2dVertex
 10
264.7488847607848
 20
691.9549986385823
 30
0.0
  0
VERTEX
  5
70C
330
60C
100
AcDbEntity
  8
Make2D$可见线$普通线
100
AcDbVertex
100
AcDb2dVertex
 10
264.7625087768976
 20
692.2360760225395
 30
0.0
  0
VERTEX
  5
70D
330
60C
100
AcDbEntity
  8
Make2D$可见线$普通线
100
AcDbVertex
100
AcDb2dVertex
 10
264.7848805294526
 20
692.516577300463
 30
0.0
  0
SEQEND
  5
70E
330
60C
100
AcDbEntity
  8
Make2D$可见线$普通线
  0
ENDSEC
  0
SECTION
  2
OBJECTS
  0
DICTIONARY
  5
C
330
0
100
AcDbDictionary
281
     1
  3
ACAD_GROUP
350
D
  3
ACAD_LAYOUT
350
1A
  3
ACAD_MATERIAL
350
3B
  3
ACAD_MLEADERSTYLE
350
739
  3
ACAD_MLINESTYLE
350
17
  3
ACAD_PLOTSETTINGS
350
19
  3
ACAD_PLOTSTYLENAME
350
E
  3
ACAD_SCALELIST
350
3F
  3
ACAD_TABLESTYLE
350
738
  3
ACAD_VISUALSTYLE
350
2A
  3
AcDbVariableDictionary
350
70F
  0
DICTIONARY
  5
D
102
{ACAD_REACTORS
330
C
102
}
330
C
100
AcDbDictionary
281
     1
  0
DICTIONARY
  5
1A
102
{ACAD_REACTORS
330
C
102
}
330
C
100
AcDbDictionary
281
     1
  3
Layout1
350
1E
  3
Layout2
350
26
  3
Model
350
22
  0
DICTIONARY
  5
3B
102
{ACAD_REACTORS
330
C
102
}
330
C
100
AcDbDictionary
281
     1
  3
ByBlock
350
3D
  3
ByLayer
350
3C
  3
Global
350
3E
  0
DICTIONARY
  5
739
102
{ACAD_REACTORS
330
C
102
}
330
C
100
AcDbDictionary
281
     1
  0
DICTIONARY
  5
17
102
{ACAD_REACTORS
330
C
102
}
330
C
100
AcDbDictionary
281
     1
  3
Standard
350
18
  0
DICTIONARY
  5
19
102
{ACAD_REACTORS
330
C
102
}
330
C
100
AcDbDictionary
281
     1
  0
ACDBDICTIONARYWDFLT
  5
E
102
{ACAD_REACTORS
330
C
102
}
330
C
100
AcDbDictionary
281
     1
  3
Normal
350
F
100
AcDbDictionaryWithDefault
340
F
  0
DICTIONARY
  5
3F
102
{ACAD_REACTORS
330
C
102
}
330
C
100
AcDbDictionary
281
     1
  3
A0
350
40
  3
A1
350
41
  3
A2
350
42
  3
A3
350
43
  3
A4
350
44
  3
A5
350
45
  3
A6
350
46
  3
A7
350
47
  3
A8
350
48
  3
A9
350
49
  3
B0
350
4A
  3
B1
350
4B
  3
B2
350
4C
  3
B3
350
4D
  3
B4
350
4E
  3
B5
350
4F
  3
B6
350
50
  3
B7
350
51
  3
B8
350
52
  3
B9
350
53
  3
C0
350
54
  3
C1
350
55
  3
C2
350
56
  3
C3
350
57
  3
C4
350
58
  3
C5
350
59
  3
C6
350
5A
  3
C7
350
5B
  3
C8
350
5C
  3
C9
350
5D
  3
D0
350
5E
  3
D1
350
5F
  3
D2
350
60
  0
DICTIONARY
  5
738
102
{ACAD_REACTORS
330
C
102
}
330
C
100
AcDbDictionary
281
     1
  0
DICTIONARY
  5
2A
102
{ACAD_REACTORS
330
C
102
}
330
C
100
AcDbDictionary
281
     1
  3
2dWireframe
350
2F
  3
3D Hidden
350
31
  3
3dWireframe
350
30
  3
Basic
350
32
  3
Brighten
350
36
  3
ColorChange
350
3A
  3
Conceptual
350
34
  3
Dim
350
35
  3
Facepattern
350
39
  3
Flat
350
2B
  3
FlatWithEdges
350
2C
  3
Gouraud
350
2D
  3
GouraudWithEdges
350
2E
  3
Linepattern
350
38
  3
Realistic
350
33
  3
Thicken
350
37
  0
DICTIONARY
  5
70F
102
{ACAD_REACTORS
330
C
102
}
330
C
100
AcDbDictionary
281
     1
  3
CANNOSCALE
350
710
  3
MSLTSCALE
350
711
  0
LAYOUT
  5
1E
102
{ACAD_REACTORS
330
1A
102
}
330
1A
100
AcDbPlotSettings
  1

  2
none_device
  4

  6

 40
0.0
 41
0.0
 42
0.0
 43
0.0
 44
0.0
 45
0.0
 46
0.0
 47
0.0
 48
0.0
 49
0.0
140
0.0
141
0.0
142
1.0
143
1.0
 70
   688
 72
     0
 73
     0
 74
     5
  7

 75
    16
 76
     0
 77
     2
 78
   300
147
1.0
148
0.0
149
0.0
100
AcDbLayout
  1
Layout1
 70
     1
 71
     1
 10
0.0
 20
0.0
 11
12.0
 21
9.0
 12
0.0
 22
0.0
 32
0.0
 14
1.000000000000000E+20
 24
1.000000000000000E+20
 34
1.000000000000000E+20
 15
-1.000000000000000E+20
 25
-1.000000000000000E+20
 35
-1.000000000000000E+20
146
0.0
 13
0.0
 23
0.0
 33
0.0
 16
1.0
 26
0.0
 36
0.0
 17
0.0
 27
1.0
 37
0.0
 76
     0
330
1B
  0
LAYOUT
  5
26
102
{ACAD_REACTORS
330
1A
102
}
330
1A
100
AcDbPlotSettings
  1

  2
none_device
  4

  6

 40
0.0
 41
0.0
 42
0.0
 43
0.0
 44
0.0
 45
0.0
 46
0.0
 47
0.0
 48
0.0
 49
0.0
140
0.0
141
0.0
142
1.0
143
1.0
 70
   688
 72
     0
 73
     0
 74
     5
  7

 75
    16
 76
     0
 77
     2
 78
   300
147
1.0
148
0.0
149
0.0
100
AcDbLayout
  1
Layout2
 70
     1
 71
     2
 10
0.0
 20
0.0
 11
0.0
 21
0.0
 12
0.0
 22
0.0
 32
0.0
 14
0.0
 24
0.0
 34
0.0
 15
0.0
 25
0.0
 35
0.0
146
0.0
 13
0.0
 23
0.0
 33
0.0
 16
1.0
 26
0.0
 36
0.0
 17
0.0
 27
1.0
 37
0.0
 76
     0
330
23
  0
LAYOUT
  5
22
102
{ACAD_REACTORS
330
1A
102
}
330
1A
100
AcDbPlotSettings
  1

  2
none_device
  4
Letter_(8.50_x_11.00_Inches)
  6

 40
6.35
 41
6.35
 42
6.35000508
 43
6.35000508
 44
215.9
 45
279.4
 46
0.0
 47
0.0
 48
0.0
 49
0.0
140
0.0
141
0.0
142
1.0
143
1.0
 70
  1712
 72
     0
 73
     0
 74
     0
  7

 75
     0
 76
     0
 77
     2
 78
   300
147
1.0
148
0.0
149
0.0
100
AcDbLayout
  1
Model
 70
     1
 71
     0
 10
0.0
 20
0.0
 11
12.0
 21
9.0
 12
0.0
 22
0.0
 32
0.0
 14
254.2515847424653
 24
492.0963224432704
 34
0.0
 15
301.2562872674984
 25
781.076105516869
 35
0.0
146
0.0
 13
0.0
 23
0.0
 33
0.0
 16
1.0
 26
0.0
 36
0.0
 17
0.0
 27
1.0
 37
0.0
 76
     0
330
1F
331
29
  0
MATERIAL
  5
3D
102
{ACAD_REACTORS
330
3B
102
}
102
{ACAD_XDICTIONARY
360
734
102
}
330
3B
100
AcDbMaterial
  1
ByBlock
  0
MATERIAL
  5
3C
102
{ACAD_REACTORS
330
3B
102
}
102
{ACAD_XDICTIONARY
360
732
102
}
330
3B
100
AcDbMaterial
  1
ByLayer
  0
MATERIAL
  5
3E
102
{ACAD_REACTORS
330
3B
102
}
102
{ACAD_XDICTIONARY
360
736
102
}
330
3B
100
AcDbMaterial
  1
Global
  0
MLINESTYLE
  5
18
102
{ACAD_REACTORS
330
17
102
}
330
17
100
AcDbMlineStyle
  2
Standard
 70
     0
  3

 62
   256
 51
90.0
 52
90.0
 71
     2
 49
0.5
 62
   256
  6
BYLAYER
 49
-0.5
 62
   256
  6
BYLAYER
  0
ACDBPLACEHOLDER
  5
F
102
{ACAD_REACTORS
330
E
102
}
330
E
  0
SCALE
  5
40
102
{ACAD_REACTORS
330
3F
102
}
330
3F
100
AcDbScale
 70
     0
300
1:1
140
1.0
141
1.0
290
     1
  0
SCALE
  5
41
102
{ACAD_REACTORS
330
3F
102
}
330
3F
100
AcDbScale
 70
     0
300
1:2
140
1.0
141
2.0
290
     0
  0
SCALE
  5
42
102
{ACAD_REACTORS
330
3F
102
}
330
3F
100
AcDbScale
 70
     0
300
1:4
140
1.0
141
4.0
290
     0
  0
SCALE
  5
43
102
{ACAD_REACTORS
330
3F
102
}
330
3F
100
AcDbScale
 70
     0
300
1:5
140
1.0
141
5.0
290
     0
  0
SCALE
  5
44
102
{ACAD_REACTORS
330
3F
102
}
330
3F
100
AcDbScale
 70
     0
300
1:8
140
1.0
141
8.0
290
     0
  0
SCALE
  5
45
102
{ACAD_REACTORS
330
3F
102
}
330
3F
100
AcDbScale
 70
     0
300
1:10
140
1.0
141
10.0
290
     0
  0
SCALE
  5
46
102
{ACAD_REACTORS
330
3F
102
}
330
3F
100
AcDbScale
 70
     0
300
1:16
140
1.0
141
16.0
290
     0
  0
SCALE
  5
47
102
{ACAD_REACTORS
330
3F
102
}
330
3F
100
AcDbScale
 70
     0
300
1:20
140
1.0
141
20.0
290
     0
  0
SCALE
  5
48
102
{ACAD_REACTORS
330
3F
102
}
330
3F
100
AcDbScale
 70
     0
300
1:30
140
1.0
141
30.0
290
     0
  0
SCALE
  5
49
102
{ACAD_REACTORS
330
3F
102
}
330
3F
100
AcDbScale
 70
     0
300
1:40
140
1.0
141
40.0
290
     0
  0
SCALE
  5
4A
102
{ACAD_REACTORS
330
3F
102
}
330
3F
100
AcDbScale
 70
     0
300
1:50
140
1.0
141
50.0
290
     0
  0
SCALE
  5
4B
102
{ACAD_REACTORS
330
3F
102
}
330
3F
100
AcDbScale
 70
     0
300
1:100
140
1.0
141
100.0
290
     0
  0
SCALE
  5
4C
102
{ACAD_REACTORS
330
3F
102
}
330
3F
100
AcDbScale
 70
     0
300
2:1
140
2.0
141
1.0
290
     0
  0
SCALE
  5
4D
102
{ACAD_REACTORS
330
3F
102
}
330
3F
100
AcDbScale
 70
     0
300
4:1
140
4.0
141
1.0
290
     0
  0
SCALE
  5
4E
102
{ACAD_REACTORS
330
3F
102
}
330
3F
100
AcDbScale
 70
     0
300
8:1
140
8.0
141
1.0
290
     0
  0
SCALE
  5
4F
102
{ACAD_REACTORS
330
3F
102
}
330
3F
100
AcDbScale
 70
     0
300
10:1
140
10.0
141
1.0
290
     0
  0
SCALE
  5
50
102
{ACAD_REACTORS
330
3F
102
}
330
3F
100
AcDbScale
 70
     0
300
100:1
140
100.0
141
1.0
290
     0
  0
SCALE
  5
51
102
{ACAD_REACTORS
330
3F
102
}
330
3F
100
AcDbScale
 70
     0
300
1/128" = 1'-0"
140
0.0078125
141
12.0
290
     0
  0
SCALE
  5
52
102
{ACAD_REACTORS
330
3F
102
}
330
3F
100
AcDbScale
 70
     0
300
1/64" = 1'-0"
140
0.015625
141
12.0
290
     0
  0
SCALE
  5
53
102
{ACAD_REACTORS
330
3F
102
}
330
3F
100
AcDbScale
 70
     0
300
1/32" = 1'-0"
140
0.03125
141
12.0
290
     0
  0
SCALE
  5
54
102
{ACAD_REACTORS
330
3F
102
}
330
3F
100
AcDbScale
 70
     0
300
1/16" = 1'-0"
140
0.0625
141
12.0
290
     0
  0
SCALE
  5
55
102
{ACAD_REACTORS
330
3F
102
}
330
3F
100
AcDbScale
 70
     0
300
3/32" = 1'-0"
140
0.09375
141
12.0
290
     0
  0
SCALE
  5
56
102
{ACAD_REACTORS
330
3F
102
}
330
3F
100
AcDbScale
 70
     0
300
1/8" = 1'-0"
140
0.125
141
12.0
290
     0
  0
SCALE
  5
57
102
{ACAD_REACTORS
330
3F
102
}
330
3F
100
AcDbScale
 70
     0
300
3/16" = 1'-0"
140
0.1875
141
12.0
290
     0
  0
SCALE
  5
58
102
{ACAD_REACTORS
330
3F
102
}
330
3F
100
AcDbScale
 70
     0
300
1/4" = 1'-0"
140
0.25
141
12.0
290
     0
  0
SCALE
  5
59
102
{ACAD_REACTORS
330
3F
102
}
330
3F
100
AcDbScale
 70
     0
300
3/8" = 1'-0"
140
0.375
141
12.0
290
     0
  0
SCALE
  5
5A
102
{ACAD_REACTORS
330
3F
102
}
330
3F
100
AcDbScale
 70
     0
300
1/2" = 1'-0"
140
0.5
141
12.0
290
     0
  0
SCALE
  5
5B
102
{ACAD_REACTORS
330
3F
102
}
330
3F
100
AcDbScale
 70
     0
300
3/4" = 1'-0"
140
0.75
141
12.0
290
     0
  0
SCALE
  5
5C
102
{ACAD_REACTORS
330
3F
102
}
330
3F
100
AcDbScale
 70
     0
300
1" = 1'-0"
140
1.0
141
12.0
290
     0
  0
SCALE
  5
5D
102
{ACAD_REACTORS
330
3F
102
}
330
3F
100
AcDbScale
 70
     0
300
1-1/2" = 1'-0"
140
1.5
141
12.0
290
     0
  0
SCALE
  5
5E
102
{ACAD_REACTORS
330
3F
102
}
330
3F
100
AcDbScale
 70
     0
300
3" = 1'-0"
140
3.0
141
12.0
290
     0
  0
SCALE
  5
5F
102
{ACAD_REACTORS
330
3F
102
}
330
3F
100
AcDbScale
 70
     0
300
6" = 1'-0"
140
6.0
141
12.0
290
     0
  0
SCALE
  5
60
102
{ACAD_REACTORS
330
3F
102
}
330
3F
100
AcDbScale
 70
     0
300
1'-0" = 1'-0"
140
12.0
141
12.0
290
     0
  0
VISUALSTYLE
  5
2F
102
{ACAD_REACTORS
330
2A
102
}
102
{ACAD_XDICTIONARY
360
71A
102
}
330
2A
100
AcDbVisualStyle
  2
2dWireframe
 70
     4
 71
     0
 72
     2
 73
     0
 90
        0
 40
0.6
 41
30.0
 62
     5
 63
     7
421
 16777215
 74
     1
 91
        4
 64
     7
 65
   257
 75
     1
175
     1
 42
1.0
 92
        0
 66
   257
 43
1.0
 76
     1
 77
     6
 78
     2
 67
     7
 79
     5
170
     0
171
     0
290
     0
174
     0
 93
        1
 44
0.0
173
     0
291
     0
 45
0.0
1001
ACAD
1000
AcDbSavedByObjectVersion
1070
     0
  0
VISUALSTYLE
  5
31
102
{ACAD_REACTORS
330
2A
102
}
102
{ACAD_XDICTIONARY
360
71E
102
}
330
2A
100
AcDbVisualStyle
  2
3D Hidden
 70
     6
 71
     1
 72
     2
 73
     2
 90
        0
 40
0.6
 41
30.0
 62
     5
 63
     7
421
 16777215
 74
     2
 91
        2
 64
     7
 65
   257
 75
     2
175
     1
 42
40.0
 92
        0
 66
   257
 43
1.0
 76
     1
 77
     6
 78
     2
 67
     7
 79
     3
170
     0
171
     0
290
     0
174
     0
 93
        1
 44
0.0
173
     0
291
     0
 45
0.0
1001
ACAD
1000
AcDbSavedByObjectVersion
1070
     0
  0
VISUALSTYLE
  5
30
102
{ACAD_REACTORS
330
2A
102
}
102
{ACAD_XDICTIONARY
360
71C
102
}
330
2A
100
AcDbVisualStyle
  2
3dWireframe
 70
     5
 71
     0
 72
     2
 73
     0
 90
        0
 40
0.6
 41
30.0
 62
     5
 63
     7
421
 16777215
 74
     1
 91
        4
 64
     7
 65
   257
 75
     1
175
     1
 42
1.0
 92
        0
 66
   257
 43
1.0
 76
     1
 77
     6
 78
     2
 67
     7
 79
     5
170
     0
171
     0
290
     0
174
     0
 93
        1
 44
0.0
173
     0
291
     0
 45
0.0
1001
ACAD
1000
AcDbSavedByObjectVersion
1070
     0
  0
VISUALSTYLE
  5
32
102
{ACAD_REACTORS
330
2A
102
}
102
{ACAD_XDICTIONARY
360
720
102
}
330
2A
100
AcDbVisualStyle
  2
Basic
 70
     7
 71
     1
 72
     0
 73
     1
 90
        0
 40
0.6
 41
30.0
 62
     5
 63
     7
421
 16777215
 74
     0
 91
        4
 64
     7
 65
   257
 75
     1
175
     1
 42
1.0
 92
        8
 66
     7
 43
1.0
 76
     1
 77
     6
 78
     2
 67
     7
 79
     5
170
     0
171
     0
290
     0
174
     0
 93
        1
 44
0.0
173
     0
291
     1
 45
0.0
1001
ACAD
1000
AcDbSavedByObjectVersion
1070
     0
  0
VISUALSTYLE
  5
36
102
{ACAD_REACTORS
330
2A
102
}
102
{ACAD_XDICTIONARY
360
728
102
}
330
2A
100
AcDbVisualStyle
  2
Brighten
 70
    12
 71
     2
 72
     2
 73
     0
 90
        0
 40
0.6
 41
30.0
 62
     5
 63
     7
421
 16777215
 74
     1
 91
        4
 64
     7
 65
   257
 75
     1
175
     1
 42
1.0
 92
        8
 66
     7
 43
1.0
 76
     1
 77
     6
 78
     2
 67
     7
 79
     5
170
     0
171
     0
290
     0
174
     0
 93
        1
 44
50.0
173
     0
291
     1
 45
0.0
1001
ACAD
1000
AcDbSavedByObjectVersion
1070
     0
  0
VISUALSTYLE
  5
3A
102
{ACAD_REACTORS
330
2A
102
}
102
{ACAD_XDICTIONARY
360
730
102
}
330
2A
100
AcDbVisualStyle
  2
ColorChange
 70
    16
 71
     2
 72
     2
 73
     3
 90
        0
 40
0.6
 41
30.0
 62
     5
 63
     8
421
  8421504
 74
     1
 91
        4
 64
     7
 65
   257
 75
     1
175
     1
 42
1.0
 92
        8
 66
     8
424
  8421504
 43
1.0
 76
     1
 77
     6
 78
     2
 67
     7
 79
     5
170
     0
171
     0
290
     0
174
     0
 93
        1
 44
0.0
173
     0
291
     1
 45
0.0
1001
ACAD
1000
AcDbSavedByObjectVersion
1070
     0
  0
VISUALSTYLE
  5
34
102
{ACAD_REACTORS
330
2A
102
}
102
{ACAD_XDICTIONARY
360
724
102
}
330
2A
100
AcDbVisualStyle
  2
Conceptual
 70
     9
 71
     3
 72
     2
 73
     0
 90
        0
 40
0.6
 41
30.0
 62
     5
 63
     7
421
 16777215
 74
     2
 91
        2
 64
     7
 65
   257
 75
     1
175
     1
 42
40.0
 92
        8
 66
     7
 43
1.0
 76
     1
 77
     6
 78
     2
 67
     7
 79
     3
170
     0
171
     0
290
     0
174
     0
 93
        1
 44
0.0
173
     0
291
     0
 45
0.0
1001
ACAD
1000
AcDbSavedByObjectVersion
1070
     0
  0
VISUALSTYLE
  5
35
102
{ACAD_REACTORS
330
2A
102
}
102
{ACAD_XDICTIONARY
360
726
102
}
330
2A
100
AcDbVisualStyle
  2
Dim
 70
    11
 71
     2
 72
     2
 73
     0
 90
        0
 40
0.6
 41
30.0
 62
     5
 63
     7
421
 16777215
 74
     1
 91
        4
 64
     7
 65
   257
 75
     1
175
     1
 42
1.0
 92
        8
 66
     7
 43
1.0
 76
     1
 77
     6
 78
     2
 67
     7
 79
     5
170
     0
171
     0
290
     0
174
     0
 93
        1
 44
-50.0
173
     0
291
     1
 45
0.0
1001
ACAD
1000
AcDbSavedByObjectVersion
1070
     0
  0
VISUALSTYLE
  5
39
102
{ACAD_REACTORS
330
2A
102
}
102
{ACAD_XDICTIONARY
360
72E
102
}
330
2A
100
AcDbVisualStyle
  2
Facepattern
 70
    15
 71
     2
 72
     2
 73
     0
 90
        0
 40
0.6
 41
30.0
 62
     5
 63
     7
421
 16777215
 74
     1
 91
        4
 64
     7
 65
   257
 75
     1
175
     1
 42
1.0
 92
        8
 66
     7
 43
1.0
 76
     1
 77
     6
 78
     2
 67
     7
 79
     5
170
     0
171
     0
290
     0
174
     0
 93
        1
 44
0.0
173
     0
291
     1
 45
0.0
1001
ACAD
1000
AcDbSavedByObjectVersion
1070
     0
  0
VISUALSTYLE
  5
2B
102
{ACAD_REACTORS
330
2A
102
}
102
{ACAD_XDICTIONARY
360
712
102
}
330
2A
100
AcDbVisualStyle
  2
Flat
 70
     0
 71
     2
 72
     1
 73
     1
 90
        2
 40
0.6
 41
30.0
 62
     5
 63
     7
421
 16777215
 74
     0
 91
        4
 64
     7
 65
   257
 75
     1
175
     1
 42
1.0
 92
        8
 66
     7
 43
1.0
 76
     1
 77
     6
 78
     2
 67
     7
 79
     5
170
     0
171
     0
290
     0
174
     0
 93
       13
 44
0.0
173
     0
291
     1
 45
0.0
1001
ACAD
1000
AcDbSavedByObjectVersion
1070
     0
  0
VISUALSTYLE
  5
2C
102
{ACAD_REACTORS
330
2A
102
}
102
{ACAD_XDICTIONARY
360
714
102
}
330
2A
100
AcDbVisualStyle
  2
FlatWithEdges
 70
     1
 71
     2
 72
     1
 73
     1
 90
        2
 40
0.6
 41
30.0
 62
     5
 63
     7
421
 16777215
 74
     1
 91
        4
 64
     7
 65
   257
 75
     1
175
     1
 42
1.0
 92
        0
 66
   257
 43
1.0
 76
     1
 77
     6
 78
     2
 67
     7
 79
     5
170
     0
171
     0
290
     0
174
     0
 93
       13
 44
0.0
173
     0
291
     1
 45
0.0
1001
ACAD
1000
AcDbSavedByObjectVersion
1070
     0
  0
VISUALSTYLE
  5
2D
102
{ACAD_REACTORS
330
2A
102
}
102
{ACAD_XDICTIONARY
360
716
102
}
330
2A
100
AcDbVisualStyle
  2
Gouraud
 70
     2
 71
     2
 72
     2
 73
     1
 90
        2
 40
0.6
 41
30.0
 62
     5
 63
     7
421
 16777215
 74
     0
 91
        4
 64
     7
 65
   257
 75
     1
175
     1
 42
1.0
 92
        0
 66
     7
 43
1.0
 76
     1
 77
     6
 78
     2
 67
     7
 79
     5
170
     0
171
     0
290
     0
174
     0
 93
       13
 44
0.0
173
     0
291
     1
 45
0.0
1001
ACAD
1000
AcDbSavedByObjectVersion
1070
     0
  0
VISUALSTYLE
  5
2E
102
{ACAD_REACTORS
330
2A
102
}
102
{ACAD_XDICTIONARY
360
718
102
}
330
2A
100
AcDbVisualStyle
  2
GouraudWithEdges
 70
     3
 71
     2
 72
     2
 73
     1
 90
        2
 40
0.6
 41
30.0
 62
     5
 63
     7
421
 16777215
 74
     1
 91
        4
 64
     7
 65
   257
 75
     1
175
     1
 42
1.0
 92
        0
 66
   257
 43
1.0
 76
     1
 77
     6
 78
     2
 67
     7
 79
     5
170
     0
171
     0
290
     0
174
     0
 93
       13
 44
0.0
173
     0
291
     1
 45
0.0
1001
ACAD
1000
AcDbSavedByObjectVersion
1070
     0
  0
VISUALSTYLE
  5
38
102
{ACAD_REACTORS
330
2A
102
}
102
{ACAD_XDICTIONARY
360
72C
102
}
330
2A
100
AcDbVisualStyle
  2
Linepattern
 70
    14
 71
     2
 72
     2
 73
     0
 90
        0
 40
0.6
 41
30.0
 62
     5
 63
     7
421
 16777215
 74
     1
 91
        4
 64
     7
 65
   257
 75
     7
175
     7
 42
1.0
 92
        8
 66
     7
 43
1.0
 76
     1
 77
     6
 78
     2
 67
     7
 79
     5
170
     0
171
     0
290
     0
174
     0
 93
        1
 44
0.0
173
     0
291
     1
 45
0.0
1001
ACAD
1000
AcDbSavedByObjectVersion
1070
     0
  0
VISUALSTYLE
  5
33
102
{ACAD_REACTORS
330
2A
102
}
102
{ACAD_XDICTIONARY
360
722
102
}
330
2A
100
AcDbVisualStyle
  2
Realistic
 70
     8
 71
     2
 72
     3
 73
     0
 90
        2
 40
0.6
 41
30.0
 62
     5
 63
     7
421
 16777215
 74
     0
 91
        0
 64
     7
 65
   257
 75
     1
175
     1
 42
1.0
 92
        8
 66
   257
 43
1.0
 76
     1
 77
     6
 78
     2
 67
     7
 79
     3
170
     0
171
     0
290
     0
174
     0
 93
       13
 44
0.0
173
     0
291
     0
 45
0.0
1001
ACAD
1000
AcDbSavedByObjectVersion
1070
     0
  0
VISUALSTYLE
  5
37
102
{ACAD_REACTORS
330
2A
102
}
102
{ACAD_XDICTIONARY
360
72A
102
}
330
2A
100
AcDbVisualStyle
  2
Thicken
 70
    13
 71
     2
 72
     2
 73
     0
 90
        0
 40
0.6
 41
30.0
 62
     5
 63
     7
421
 16777215
 74
     1
 91
        4
 64
     7
 65
   257
 75
     1
175
     1
 42
1.0
 92
       12
 66
     7
 43
1.0
 76
     1
 77
     6
 78
     2
 67
     7
 79
     5
170
     0
171
     0
290
     0
174
     0
 93
        1
 44
0.0
173
     0
291
     1
 45
0.0
1001
ACAD
1000
AcDbSavedByObjectVersion
1070
     0
  0
DICTIONARYVAR
  5
710
102
{ACAD_REACTORS
330
70F
102
}
330
70F
100
DictionaryVariables
280
     0
  1
1:1
  0
DICTIONARYVAR
  5
711
102
{ACAD_REACTORS
330
70F
102
}
330
70F
100
DictionaryVariables
280
     0
  1
1
  0
DICTIONARY
  5
734
330
3D
100
AcDbDictionary
280
     1
281
     1
  3
ACAD_XREC_ROUNDTRIP
360
735
  0
DICTIONARY
  5
732
330
3C
100
AcDbDictionary
280
     1
281
     1
  3
ACAD_XREC_ROUNDTRIP
360
733
  0
DICTIONARY
  5
736
330
3E
100
AcDbDictionary
280
     1
281
     1
  3
ACAD_XREC_ROUNDTRIP
360
737
  0
DICTIONARY
  5
71A
330
2F
100
AcDbDictionary
280
     1
281
     1
  3
ACAD_XREC_ROUNDTRIP
360
71B
  0
DICTIONARY
  5
71E
330
31
100
AcDbDictionary
280
     1
281
     1
  3
ACAD_XREC_ROUNDTRIP
360
71F
  0
DICTIONARY
  5
71C
330
30
100
AcDbDictionary
280
     1
281
     1
  3
ACAD_XREC_ROUNDTRIP
360
71D
  0
DICTIONARY
  5
720
330
32
100
AcDbDictionary
280
     1
281
     1
  3
ACAD_XREC_ROUNDTRIP
360
721
  0
DICTIONARY
  5
728
330
36
100
AcDbDictionary
280
     1
281
     1
  3
ACAD_XREC_ROUNDTRIP
360
729
  0
DICTIONARY
  5
730
330
3A
100
AcDbDictionary
280
     1
281
     1
  3
ACAD_XREC_ROUNDTRIP
360
731
  0
DICTIONARY
  5
724
330
34
100
AcDbDictionary
280
     1
281
     1
  3
ACAD_XREC_ROUNDTRIP
360
725
  0
DICTIONARY
  5
726
330
35
100
AcDbDictionary
280
     1
281
     1
  3
ACAD_XREC_ROUNDTRIP
360
727
  0
DICTIONARY
  5
72E
330
39
100
AcDbDictionary
280
     1
281
     1
  3
ACAD_XREC_ROUNDTRIP
360
72F
  0
DICTIONARY
  5
712
330
2B
100
AcDbDictionary
280
     1
281
     1
  3
ACAD_XREC_ROUNDTRIP
360
713
  0
DICTIONARY
  5
714
330
2C
100
AcDbDictionary
280
     1
281
     1
  3
ACAD_XREC_ROUNDTRIP
360
715
  0
DICTIONARY
  5
716
330
2D
100
AcDbDictionary
280
     1
281
     1
  3
ACAD_XREC_ROUNDTRIP
360
717
  0
DICTIONARY
  5
718
330
2E
100
AcDbDictionary
280
     1
281
     1
  3
ACAD_XREC_ROUNDTRIP
360
719
  0
DICTIONARY
  5
72C
330
38
100
AcDbDictionary
280
     1
281
     1
  3
ACAD_XREC_ROUNDTRIP
360
72D
  0
DICTIONARY
  5
722
330
33
100
AcDbDictionary
280
     1
281
     1
  3
ACAD_XREC_ROUNDTRIP
360
723
  0
DICTIONARY
  5
72A
330
37
100
AcDbDictionary
280
     1
281
     1
  3
ACAD_XREC_ROUNDTRIP
360
72B
  0
XRECORD
  5
735
102
{ACAD_REACTORS
330
734
102
}
330
734
100
AcDbXrecord
280
     1
102
MATERIAL
148
0.0
149
0.0
149
0.0
 93
        0
 94
      127
282
     0
 72
     1
 77
     1
171
     1
175
     1
179
     1
273
     0
  0
XRECORD
  5
733
102
{ACAD_REACTORS
330
732
102
}
330
732
100
AcDbXrecord
280
     1
102
MATERIAL
148
0.0
149
0.0
149
0.0
 93
        0
 94
      127
282
     0
 72
     1
 77
     1
171
     1
175
     1
179
     1
273
     0
  0
XRECORD
  5
737
102
{ACAD_REACTORS
330
736
102
}
330
736
100
AcDbXrecord
280
     1
102
MATERIAL
148
0.0
149
0.0
149
0.0
 93
        0
 94
      127
282
     0
 72
     1
 77
     1
171
     1
175
     1
179
     1
273
     0
  0
XRECORD
  5
71B
102
{ACAD_REACTORS
330
71A
102
}
330
71A
100
AcDbXrecord
280
     1
102
RTVSPropertyOp0
 70
     1
102
RTVSPropertyOp1
 70
     1
102
RTVSPropertyOp2
 70
     1
102
RTVSPropertyOp3
 70
     1
102
RTVSPropertyOp4
 70
     1
102
RTVSPropertyOp5
 70
     1
102
RTVSPropertyOp6
 70
     1
102
RTVSPropertyOp7
 70
     1
102
RTVSPropertyOp8
 70
     1
102
RTVSPropertyOp9
 70
     1
102
RTVSPropertyOp10
 70
     1
102
RTVSPropertyOp11
 70
     1
102
RTVSPropertyOp12
 70
     1
102
RTVSPropertyOp13
 70
     1
102
RTVSPropertyOp14
 70
     1
102
RTVSPropertyOp15
 70
     1
102
RTVSPropertyOp16
 70
     1
102
RTVSPropertyOp17
 70
     1
102
RTVSPropertyOp18
 70
     1
102
RTVSPropertyOp19
 70
     1
102
RTVSPropertyOp20
 70
     1
102
RTVSPropertyOp21
 70
     1
102
RTVSPropertyOp22
 70
     1
102
RTVSPropertyOp23
 70
     1
102
RTVSPropertyOp24
 70
     1
102
RTVSPropertyOp25
 70
     1
102
RTVSPropertyOp26
 70
     1
102
RTVSPropertyOp27
 70
     1
102
RTVSPropertyOp28
 70
     1
102
RTVSPropertyOp29
 70
     1
102
RTVSPropertyOp30
 70
     1
102
RTVSPropertyOp31
 70
     1
102
RTVSPropertyOp32
 70
     1
102
RTVSPropertyOp33
 70
     1
102
RTVSPropertyOp34
 70
     1
102
RTVSPropertyOp35
 70
     1
102
RTVSPropertyOp36
 70
     1
102
RTVSPropertyOp37
 70
     1
102
RTVSPropertyOp38
 70
     1
102
RTVSPropertyOp39
 70
     1
102
RTVSPropertyOp40
 70
     1
102
RTVSPropertyOp41
 70
     1
102
RTVSPropertyOp42
 70
     1
102
RTVSPropertyOp43
 70
     1
102
RTVSPropertyOp44
 70
     1
102
RTVSPropertyOp45
 70
     1
102
RTVSPropertyOp46
 70
     1
102
RTVSPropertyOp47
 70
     1
102
RTVSPropertyOp48
 70
     1
102
RTVSPropertyOp49
 70
     1
102
RTVSPropertyOp50
 70
     1
102
RTVSPropertyOp51
 70
     0
102
RTVSPropertyOp52
 70
     0
102
RTVSPropertyOp53
 70
     1
102
RTVSPropertyOp54
 70
     1
102
RTVSPropertyOp55
 70
     1
102
RTVSPropertyOp56
 70
     1
102
RTVSPropertyOp57
 70
     1
102
RTVSPost2010Prop28
280
     1
102
RTVSPost2010PropOp28
 70
     1
102
RTVSPost2010Prop29
280
     1
102
RTVSPost2010PropOp29
 70
     1
102
RTVSPost2010Prop30
280
     0
102
RTVSPost2010PropOp30
 70
     1
102
RTVSPost2010Prop31
280
     0
102
RTVSPost2010PropOp31
 70
     1
102
RTVSPost2010Prop32
280
     0
102
RTVSPost2010PropOp32
 70
     1
102
RTVSPost2010Prop33
280
     0
102
RTVSPost2010PropOp33
 70
     1
102
RTVSPost2010Prop34
280
     0
102
RTVSPost2010PropOp34
 70
     1
102
RTVSPost2010Prop35
280
     0
102
RTVSPost2010PropOp35
 70
     1
102
RTVSPost2010Prop36
280
     0
102
RTVSPost2010PropOp36
 70
     1
102
RTVSPost2010Prop37
 90
       50
102
RTVSPost2010PropOp37
 70
     1
102
RTVSPost2010Prop38
140
0.0
102
RTVSPost2010PropOp38
 70
     1
102
RTVSPost2010Prop39
140
1.0
102
RTVSPost2010PropOp39
 70
     1
102
RTVSPost2010Prop40
 90
        0
102
RTVSPost2010PropOp40
 70
     1
102
RTVSPost2010Prop41ColorIndex
 90
       18
102
RTVSPost2010Prop41ColorRGB
 90
        0
102
RTVSPost2010PropOp41
 70
     1
102
RTVSPost2010Prop42
 90
       50
102
RTVSPost2010PropOp42
 70
     1
102
RTVSPost2010Prop43
 90
        3
102
RTVSPost2010PropOp43
 70
     1
102
RTVSPost2010Prop44ColorIndex
 90
        5
102
RTVSPost2010Prop44ColorRGB
 90
      255
102
RTVSPost2010PropOp44
 70
     1
102
RTVSPost2010Prop45
280
     0
102
RTVSPost2010PropOp45
 70
     1
102
RTVSPost2010Prop46
 90
       50
102
RTVSPost2010PropOp46
 70
     1
102
RTVSPost2010Prop47
 90
       50
102
RTVSPost2010PropOp47
 70
     1
102
RTVSPost2010Prop48
 90
       50
102
RTVSPost2010PropOp48
 70
     1
102
RTVSPost2010Prop49
280
     0
102
RTVSPost2010PropOp49
 70
     1
102
RTVSPost2010Prop50
 90
       50
102
RTVSPost2010PropOp50
 70
     1
102
RTVSPost2010Prop51ColorIndex
 90
      256
102
RTVSPost2010Prop51ColorRGB
 90
-16777216
102
RTVSPost2010PropOp51
 70
     0
102
RTVSPost2010Prop52
140
1.0
102
RTVSPost2010PropOp52
 70
     0
102
RTVSPost2010Prop53
 90
        2
102
RTVSPost2010PropOp53
 70
     1
102
RTVSPost2010Prop54
  1
strokes_ogs.tif
102
RTVSPost2010PropOp54
 70
     1
102
RTVSPost2010Prop55
280
     0
102
RTVSPost2010PropOp55
 70
     1
102
RTVSPost2010Prop56
140
1.0
102
RTVSPost2010PropOp56
 70
     1
102
RTVSPost2010Prop57
140
1.0
102
RTVSPost2010PropOp57
 70
     1
  0
XRECORD
  5
71F
102
{ACAD_REACTORS
330
71E
102
}
330
71E
100
AcDbXrecord
280
     1
102
RTVSPropertyOp0
 70
     1
102
RTVSPropertyOp1
 70
     1
102
RTVSPropertyOp2
 70
     1
102
RTVSPropertyOp3
 70
     1
102
RTVSPropertyOp4
 70
     1
102
RTVSPropertyOp5
 70
     1
102
RTVSPropertyOp6
 70
     1
102
RTVSPropertyOp7
 70
     1
102
RTVSPropertyOp8
 70
     1
102
RTVSPropertyOp9
 70
     1
102
RTVSPropertyOp10
 70
     1
102
RTVSPropertyOp11
 70
     1
102
RTVSPropertyOp12
 70
     1
102
RTVSPropertyOp13
 70
     1
102
RTVSPropertyOp14
 70
     1
102
RTVSPropertyOp15
 70
     1
102
RTVSPropertyOp16
 70
     1
102
RTVSPropertyOp17
 70
     1
102
RTVSPropertyOp18
 70
     1
102
RTVSPropertyOp19
 70
     1
102
RTVSPropertyOp20
 70
     1
102
RTVSPropertyOp21
 70
     1
102
RTVSPropertyOp22
 70
     1
102
RTVSPropertyOp23
 70
     1
102
RTVSPropertyOp24
 70
     1
102
RTVSPropertyOp25
 70
     1
102
RTVSPropertyOp26
 70
     1
102
RTVSPropertyOp27
 70
     1
102
RTVSPropertyOp28
 70
     1
102
RTVSPropertyOp29
 70
     1
102
RTVSPropertyOp30
 70
     1
102
RTVSPropertyOp31
 70
     1
102
RTVSPropertyOp32
 70
     1
102
RTVSPropertyOp33
 70
     1
102
RTVSPropertyOp34
 70
     1
102
RTVSPropertyOp35
 70
     1
102
RTVSPropertyOp36
 70
     1
102
RTVSPropertyOp37
 70
     1
102
RTVSPropertyOp38
 70
     1
102
RTVSPropertyOp39
 70
     1
102
RTVSPropertyOp40
 70
     1
102
RTVSPropertyOp41
 70
     1
102
RTVSPropertyOp42
 70
     1
102
RTVSPropertyOp43
 70
     1
102
RTVSPropertyOp44
 70
     1
102
RTVSPropertyOp45
 70
     1
102
RTVSPropertyOp46
 70
     1
102
RTVSPropertyOp47
 70
     1
102
RTVSPropertyOp48
 70
     1
102
RTVSPropertyOp49
 70
     1
102
RTVSPropertyOp50
 70
     1
102
RTVSPropertyOp51
 70
     0
102
RTVSPropertyOp52
 70
     0
102
RTVSPropertyOp53
 70
     1
102
RTVSPropertyOp54
 70
     1
102
RTVSPropertyOp55
 70
     1
102
RTVSPropertyOp56
 70
     1
102
RTVSPropertyOp57
 70
     1
102
RTVSPost2010Prop28
280
     0
102
RTVSPost2010PropOp28
 70
     1
102
RTVSPost2010Prop29
280
     1
102
RTVSPost2010PropOp29
 70
     1
102
RTVSPost2010Prop30
280
     1
102
RTVSPost2010PropOp30
 70
     1
102
RTVSPost2010Prop31
280
     0
102
RTVSPost2010PropOp31
 70
     1
102
RTVSPost2010Prop32
280
     0
102
RTVSPost2010PropOp32
 70
     1
102
RTVSPost2010Prop33
280
     0
102
RTVSPost2010PropOp33
 70
     1
102
RTVSPost2010Prop34
280
     0
102
RTVSPost2010PropOp34
 70
     1
102
RTVSPost2010Prop35
280
     0
102
RTVSPost2010PropOp35
 70
     1
102
RTVSPost2010Prop36
280
     0
102
RTVSPost2010PropOp36
 70
     1
102
RTVSPost2010Prop37
 90
       50
102
RTVSPost2010PropOp37
 70
     1
102
RTVSPost2010Prop38
140
0.0
102
RTVSPost2010PropOp38
 70
     1
102
RTVSPost2010Prop39
140
1.0
102
RTVSPost2010PropOp39
 70
     1
102
RTVSPost2010Prop40
 90
        0
102
RTVSPost2010PropOp40
 70
     1
102
RTVSPost2010Prop41ColorIndex
 90
       18
102
RTVSPost2010Prop41ColorRGB
 90
        0
102
RTVSPost2010PropOp41
 70
     1
102
RTVSPost2010Prop42
 90
       50
102
RTVSPost2010PropOp42
 70
     1
102
RTVSPost2010Prop43
 90
        3
102
RTVSPost2010PropOp43
 70
     1
102
RTVSPost2010Prop44ColorIndex
 90
        5
102
RTVSPost2010Prop44ColorRGB
 90
      255
102
RTVSPost2010PropOp44
 70
     1
102
RTVSPost2010Prop45
280
     0
102
RTVSPost2010PropOp45
 70
     1
102
RTVSPost2010Prop46
 90
       50
102
RTVSPost2010PropOp46
 70
     1
102
RTVSPost2010Prop47
 90
       50
102
RTVSPost2010PropOp47
 70
     1
102
RTVSPost2010Prop48
 90
       50
102
RTVSPost2010PropOp48
 70
     1
102
RTVSPost2010Prop49
280
     0
102
RTVSPost2010PropOp49
 70
     1
102
RTVSPost2010Prop50
 90
       50
102
RTVSPost2010PropOp50
 70
     1
102
RTVSPost2010Prop51ColorIndex
 90
      256
102
RTVSPost2010Prop51ColorRGB
 90
-16777216
102
RTVSPost2010PropOp51
 70
     0
102
RTVSPost2010Prop52
140
1.0
102
RTVSPost2010PropOp52
 70
     0
102
RTVSPost2010Prop53
 90
        2
102
RTVSPost2010PropOp53
 70
     1
102
RTVSPost2010Prop54
  1
strokes_ogs.tif
102
RTVSPost2010PropOp54
 70
     1
102
RTVSPost2010Prop55
280
     0
102
RTVSPost2010PropOp55
 70
     1
102
RTVSPost2010Prop56
140
1.0
102
RTVSPost2010PropOp56
 70
     1
102
RTVSPost2010Prop57
140
1.0
102
RTVSPost2010PropOp57
 70
     1
  0
XRECORD
  5
71D
102
{ACAD_REACTORS
330
71C
102
}
330
71C
100
AcDbXrecord
280
     1
102
RTVSPropertyOp0
 70
     1
102
RTVSPropertyOp1
 70
     1
102
RTVSPropertyOp2
 70
     1
102
RTVSPropertyOp3
 70
     1
102
RTVSPropertyOp4
 70
     1
102
RTVSPropertyOp5
 70
     1
102
RTVSPropertyOp6
 70
     1
102
RTVSPropertyOp7
 70
     1
102
RTVSPropertyOp8
 70
     1
102
RTVSPropertyOp9
 70
     1
102
RTVSPropertyOp10
 70
     1
102
RTVSPropertyOp11
 70
     1
102
RTVSPropertyOp12
 70
     1
102
RTVSPropertyOp13
 70
     1
102
RTVSPropertyOp14
 70
     1
102
RTVSPropertyOp15
 70
     1
102
RTVSPropertyOp16
 70
     1
102
RTVSPropertyOp17
 70
     1
102
RTVSPropertyOp18
 70
     1
102
RTVSPropertyOp19
 70
     1
102
RTVSPropertyOp20
 70
     1
102
RTVSPropertyOp21
 70
     1
102
RTVSPropertyOp22
 70
     1
102
RTVSPropertyOp23
 70
     1
102
RTVSPropertyOp24
 70
     1
102
RTVSPropertyOp25
 70
     1
102
RTVSPropertyOp26
 70
     1
102
RTVSPropertyOp27
 70
     1
102
RTVSPropertyOp28
 70
     1
102
RTVSPropertyOp29
 70
     1
102
RTVSPropertyOp30
 70
     1
102
RTVSPropertyOp31
 70
     1
102
RTVSPropertyOp32
 70
     1
102
RTVSPropertyOp33
 70
     1
102
RTVSPropertyOp34
 70
     1
102
RTVSPropertyOp35
 70
     1
102
RTVSPropertyOp36
 70
     1
102
RTVSPropertyOp37
 70
     1
102
RTVSPropertyOp38
 70
     1
102
RTVSPropertyOp39
 70
     1
102
RTVSPropertyOp40
 70
     1
102
RTVSPropertyOp41
 70
     1
102
RTVSPropertyOp42
 70
     1
102
RTVSPropertyOp43
 70
     1
102
RTVSPropertyOp44
 70
     1
102
RTVSPropertyOp45
 70
     1
102
RTVSPropertyOp46
 70
     1
102
RTVSPropertyOp47
 70
     1
102
RTVSPropertyOp48
 70
     1
102
RTVSPropertyOp49
 70
     1
102
RTVSPropertyOp50
 70
     1
102
RTVSPropertyOp51
 70
     0
102
RTVSPropertyOp52
 70
     0
102
RTVSPropertyOp53
 70
     1
102
RTVSPropertyOp54
 70
     1
102
RTVSPropertyOp55
 70
     1
102
RTVSPropertyOp56
 70
     1
102
RTVSPropertyOp57
 70
     1
102
RTVSPost2010Prop28
280
     0
102
RTVSPost2010PropOp28
 70
     1
102
RTVSPost2010Prop29
280
     1
102
RTVSPost2010PropOp29
 70
     1
102
RTVSPost2010Prop30
280
     1
102
RTVSPost2010PropOp30
 70
     1
102
RTVSPost2010Prop31
280
     0
102
RTVSPost2010PropOp31
 70
     1
102
RTVSPost2010Prop32
280
     0
102
RTVSPost2010PropOp32
 70
     1
102
RTVSPost2010Prop33
280
     0
102
RTVSPost2010PropOp33
 70
     1
102
RTVSPost2010Prop34
280
     0
102
RTVSPost2010PropOp34
 70
     1
102
RTVSPost2010Prop35
280
     0
102
RTVSPost2010PropOp35
 70
     1
102
RTVSPost2010Prop36
280
     0
102
RTVSPost2010PropOp36
 70
     1
102
RTVSPost2010Prop37
 90
       50
102
RTVSPost2010PropOp37
 70
     1
102
RTVSPost2010Prop38
140
0.0
102
RTVSPost2010PropOp38
 70
     1
102
RTVSPost2010Prop39
140
1.0
102
RTVSPost2010PropOp39
 70
     1
102
RTVSPost2010Prop40
 90
        0
102
RTVSPost2010PropOp40
 70
     1
102
RTVSPost2010Prop41ColorIndex
 90
       18
102
RTVSPost2010Prop41ColorRGB
 90
        0
102
RTVSPost2010PropOp41
 70
     1
102
RTVSPost2010Prop42
 90
       50
102
RTVSPost2010PropOp42
 70
     1
102
RTVSPost2010Prop43
 90
        3
102
RTVSPost2010PropOp43
 70
     1
102
RTVSPost2010Prop44ColorIndex
 90
        5
102
RTVSPost2010Prop44ColorRGB
 90
      255
102
RTVSPost2010PropOp44
 70
     1
102
RTVSPost2010Prop45
280
     0
102
RTVSPost2010PropOp45
 70
     1
102
RTVSPost2010Prop46
 90
       50
102
RTVSPost2010PropOp46
 70
     1
102
RTVSPost2010Prop47
 90
       50
102
RTVSPost2010PropOp47
 70
     1
102
RTVSPost2010Prop48
 90
       50
102
RTVSPost2010PropOp48
 70
     1
102
RTVSPost2010Prop49
280
     0
102
RTVSPost2010PropOp49
 70
     1
102
RTVSPost2010Prop50
 90
       50
102
RTVSPost2010PropOp50
 70
     1
102
RTVSPost2010Prop51ColorIndex
 90
      256
102
RTVSPost2010Prop51ColorRGB
 90
-16777216
102
RTVSPost2010PropOp51
 70
     0
102
RTVSPost2010Prop52
140
1.0
102
RTVSPost2010PropOp52
 70
     0
102
RTVSPost2010Prop53
 90
        2
102
RTVSPost2010PropOp53
 70
     1
102
RTVSPost2010Prop54
  1
strokes_ogs.tif
102
RTVSPost2010PropOp54
 70
     1
102
RTVSPost2010Prop55
280
     0
102
RTVSPost2010PropOp55
 70
     1
102
RTVSPost2010Prop56
140
1.0
102
RTVSPost2010PropOp56
 70
     1
102
RTVSPost2010Prop57
140
1.0
102
RTVSPost2010PropOp57
 70
     1
  0
XRECORD
  5
721
102
{ACAD_REACTORS
330
720
102
}
330
720
100
AcDbXrecord
280
     1
102
RTVSPropertyOp0
 70
     1
102
RTVSPropertyOp1
 70
     1
102
RTVSPropertyOp2
 70
     1
102
RTVSPropertyOp3
 70
     1
102
RTVSPropertyOp4
 70
     1
102
RTVSPropertyOp5
 70
     1
102
RTVSPropertyOp6
 70
     1
102
RTVSPropertyOp7
 70
     1
102
RTVSPropertyOp8
 70
     1
102
RTVSPropertyOp9
 70
     1
102
RTVSPropertyOp10
 70
     1
102
RTVSPropertyOp11
 70
     1
102
RTVSPropertyOp12
 70
     1
102
RTVSPropertyOp13
 70
     1
102
RTVSPropertyOp14
 70
     1
102
RTVSPropertyOp15
 70
     1
102
RTVSPropertyOp16
 70
     1
102
RTVSPropertyOp17
 70
     1
102
RTVSPropertyOp18
 70
     1
102
RTVSPropertyOp19
 70
     1
102
RTVSPropertyOp20
 70
     1
102
RTVSPropertyOp21
 70
     1
102
RTVSPropertyOp22
 70
     1
102
RTVSPropertyOp23
 70
     1
102
RTVSPropertyOp24
 70
     1
102
RTVSPropertyOp25
 70
     1
102
RTVSPropertyOp26
 70
     1
102
RTVSPropertyOp27
 70
     1
102
RTVSPropertyOp28
 70
     1
102
RTVSPropertyOp29
 70
     1
102
RTVSPropertyOp30
 70
     1
102
RTVSPropertyOp31
 70
     1
102
RTVSPropertyOp32
 70
     1
102
RTVSPropertyOp33
 70
     1
102
RTVSPropertyOp34
 70
     1
102
RTVSPropertyOp35
 70
     1
102
RTVSPropertyOp36
 70
     1
102
RTVSPropertyOp37
 70
     1
102
RTVSPropertyOp38
 70
     1
102
RTVSPropertyOp39
 70
     1
102
RTVSPropertyOp40
 70
     1
102
RTVSPropertyOp41
 70
     1
102
RTVSPropertyOp42
 70
     1
102
RTVSPropertyOp43
 70
     1
102
RTVSPropertyOp44
 70
     1
102
RTVSPropertyOp45
 70
     1
102
RTVSPropertyOp46
 70
     1
102
RTVSPropertyOp47
 70
     1
102
RTVSPropertyOp48
 70
     1
102
RTVSPropertyOp49
 70
     1
102
RTVSPropertyOp50
 70
     1
102
RTVSPropertyOp51
 70
     0
102
RTVSPropertyOp52
 70
     0
102
RTVSPropertyOp53
 70
     1
102
RTVSPropertyOp54
 70
     1
102
RTVSPropertyOp55
 70
     1
102
RTVSPropertyOp56
 70
     1
102
RTVSPropertyOp57
 70
     1
102
RTVSPost2010Prop28
280
     0
102
RTVSPost2010PropOp28
 70
     1
102
RTVSPost2010Prop29
280
     1
102
RTVSPost2010PropOp29
 70
     1
102
RTVSPost2010Prop30
280
     1
102
RTVSPost2010PropOp30
 70
     1
102
RTVSPost2010Prop31
280
     0
102
RTVSPost2010PropOp31
 70
     1
102
RTVSPost2010Prop32
280
     0
102
RTVSPost2010PropOp32
 70
     1
102
RTVSPost2010Prop33
280
     0
102
RTVSPost2010PropOp33
 70
     1
102
RTVSPost2010Prop34
280
     0
102
RTVSPost2010PropOp34
 70
     1
102
RTVSPost2010Prop35
280
     0
102
RTVSPost2010PropOp35
 70
     1
102
RTVSPost2010Prop36
280
     0
102
RTVSPost2010PropOp36
 70
     1
102
RTVSPost2010Prop37
 90
       50
102
RTVSPost2010PropOp37
 70
     1
102
RTVSPost2010Prop38
140
0.0
102
RTVSPost2010PropOp38
 70
     1
102
RTVSPost2010Prop39
140
1.0
102
RTVSPost2010PropOp39
 70
     1
102
RTVSPost2010Prop40
 90
        0
102
RTVSPost2010PropOp40
 70
     1
102
RTVSPost2010Prop41ColorIndex
 90
       18
102
RTVSPost2010Prop41ColorRGB
 90
        0
102
RTVSPost2010PropOp41
 70
     1
102
RTVSPost2010Prop42
 90
       50
102
RTVSPost2010PropOp42
 70
     1
102
RTVSPost2010Prop43
 90
        3
102
RTVSPost2010PropOp43
 70
     1
102
RTVSPost2010Prop44ColorIndex
 90
        5
102
RTVSPost2010Prop44ColorRGB
 90
      255
102
RTVSPost2010PropOp44
 70
     1
102
RTVSPost2010Prop45
280
     0
102
RTVSPost2010PropOp45
 70
     1
102
RTVSPost2010Prop46
 90
       50
102
RTVSPost2010PropOp46
 70
     1
102
RTVSPost2010Prop47
 90
       50
102
RTVSPost2010PropOp47
 70
     1
102
RTVSPost2010Prop48
 90
       50
102
RTVSPost2010PropOp48
 70
     1
102
RTVSPost2010Prop49
280
     0
102
RTVSPost2010PropOp49
 70
     1
102
RTVSPost2010Prop50
 90
       50
102
RTVSPost2010PropOp50
 70
     1
102
RTVSPost2010Prop51ColorIndex
 90
      256
102
RTVSPost2010Prop51ColorRGB
 90
-16777216
102
RTVSPost2010PropOp51
 70
     0
102
RTVSPost2010Prop52
140
1.0
102
RTVSPost2010PropOp52
 70
     0
102
RTVSPost2010Prop53
 90
        2
102
RTVSPost2010PropOp53
 70
     1
102
RTVSPost2010Prop54
  1
strokes_ogs.tif
102
RTVSPost2010PropOp54
 70
     1
102
RTVSPost2010Prop55
280
     0
102
RTVSPost2010PropOp55
 70
     1
102
RTVSPost2010Prop56
140
1.0
102
RTVSPost2010PropOp56
 70
     1
102
RTVSPost2010Prop57
140
1.0
102
RTVSPost2010PropOp57
 70
     1
  0
XRECORD
  5
729
102
{ACAD_REACTORS
330
728
102
}
330
728
100
AcDbXrecord
280
     1
102
RTVSPropertyOp0
 70
     1
102
RTVSPropertyOp1
 70
     1
102
RTVSPropertyOp2
 70
     1
102
RTVSPropertyOp3
 70
     1
102
RTVSPropertyOp4
 70
     1
102
RTVSPropertyOp5
 70
     1
102
RTVSPropertyOp6
 70
     1
102
RTVSPropertyOp7
 70
     1
102
RTVSPropertyOp8
 70
     1
102
RTVSPropertyOp9
 70
     1
102
RTVSPropertyOp10
 70
     1
102
RTVSPropertyOp11
 70
     1
102
RTVSPropertyOp12
 70
     1
102
RTVSPropertyOp13
 70
     1
102
RTVSPropertyOp14
 70
     1
102
RTVSPropertyOp15
 70
     1
102
RTVSPropertyOp16
 70
     1
102
RTVSPropertyOp17
 70
     1
102
RTVSPropertyOp18
 70
     1
102
RTVSPropertyOp19
 70
     1
102
RTVSPropertyOp20
 70
     1
102
RTVSPropertyOp21
 70
     1
102
RTVSPropertyOp22
 70
     1
102
RTVSPropertyOp23
 70
     1
102
RTVSPropertyOp24
 70
     1
102
RTVSPropertyOp25
 70
     1
102
RTVSPropertyOp26
 70
     1
102
RTVSPropertyOp27
 70
     1
102
RTVSPropertyOp28
 70
     1
102
RTVSPropertyOp29
 70
     1
102
RTVSPropertyOp30
 70
     1
102
RTVSPropertyOp31
 70
     1
102
RTVSPropertyOp32
 70
     1
102
RTVSPropertyOp33
 70
     1
102
RTVSPropertyOp34
 70
     1
102
RTVSPropertyOp35
 70
     1
102
RTVSPropertyOp36
 70
     1
102
RTVSPropertyOp37
 70
     1
102
RTVSPropertyOp38
 70
     1
102
RTVSPropertyOp39
 70
     1
102
RTVSPropertyOp40
 70
     1
102
RTVSPropertyOp41
 70
     1
102
RTVSPropertyOp42
 70
     1
102
RTVSPropertyOp43
 70
     1
102
RTVSPropertyOp44
 70
     1
102
RTVSPropertyOp45
 70
     1
102
RTVSPropertyOp46
 70
     1
102
RTVSPropertyOp47
 70
     1
102
RTVSPropertyOp48
 70
     1
102
RTVSPropertyOp49
 70
     1
102
RTVSPropertyOp50
 70
     1
102
RTVSPropertyOp51
 70
     0
102
RTVSPropertyOp52
 70
     0
102
RTVSPropertyOp53
 70
     1
102
RTVSPropertyOp54
 70
     1
102
RTVSPropertyOp55
 70
     1
102
RTVSPropertyOp56
 70
     1
102
RTVSPropertyOp57
 70
     1
102
RTVSPost2010Prop28
280
     0
102
RTVSPost2010PropOp28
 70
     1
102
RTVSPost2010Prop29
280
     1
102
RTVSPost2010PropOp29
 70
     1
102
RTVSPost2010Prop30
280
     1
102
RTVSPost2010PropOp30
 70
     1
102
RTVSPost2010Prop31
280
     0
102
RTVSPost2010PropOp31
 70
     1
102
RTVSPost2010Prop32
280
     0
102
RTVSPost2010PropOp32
 70
     1
102
RTVSPost2010Prop33
280
     0
102
RTVSPost2010PropOp33
 70
     1
102
RTVSPost2010Prop34
280
     0
102
RTVSPost2010PropOp34
 70
     1
102
RTVSPost2010Prop35
280
     0
102
RTVSPost2010PropOp35
 70
     1
102
RTVSPost2010Prop36
280
     0
102
RTVSPost2010PropOp36
 70
     1
102
RTVSPost2010Prop37
 90
       50
102
RTVSPost2010PropOp37
 70
     1
102
RTVSPost2010Prop38
140
0.0
102
RTVSPost2010PropOp38
 70
     1
102
RTVSPost2010Prop39
140
1.0
102
RTVSPost2010PropOp39
 70
     1
102
RTVSPost2010Prop40
 90
        0
102
RTVSPost2010PropOp40
 70
     1
102
RTVSPost2010Prop41ColorIndex
 90
       18
102
RTVSPost2010Prop41ColorRGB
 90
        0
102
RTVSPost2010PropOp41
 70
     1
102
RTVSPost2010Prop42
 90
       50
102
RTVSPost2010PropOp42
 70
     1
102
RTVSPost2010Prop43
 90
        3
102
RTVSPost2010PropOp43
 70
     1
102
RTVSPost2010Prop44ColorIndex
 90
        5
102
RTVSPost2010Prop44ColorRGB
 90
      255
102
RTVSPost2010PropOp44
 70
     1
102
RTVSPost2010Prop45
280
     0
102
RTVSPost2010PropOp45
 70
     1
102
RTVSPost2010Prop46
 90
       50
102
RTVSPost2010PropOp46
 70
     1
102
RTVSPost2010Prop47
 90
       50
102
RTVSPost2010PropOp47
 70
     1
102
RTVSPost2010Prop48
 90
       50
102
RTVSPost2010PropOp48
 70
     1
102
RTVSPost2010Prop49
280
     0
102
RTVSPost2010PropOp49
 70
     1
102
RTVSPost2010Prop50
 90
       50
102
RTVSPost2010PropOp50
 70
     1
102
RTVSPost2010Prop51ColorIndex
 90
      256
102
RTVSPost2010Prop51ColorRGB
 90
-16777216
102
RTVSPost2010PropOp51
 70
     0
102
RTVSPost2010Prop52
140
1.0
102
RTVSPost2010PropOp52
 70
     0
102
RTVSPost2010Prop53
 90
        2
102
RTVSPost2010PropOp53
 70
     1
102
RTVSPost2010Prop54
  1
strokes_ogs.tif
102
RTVSPost2010PropOp54
 70
     1
102
RTVSPost2010Prop55
280
     0
102
RTVSPost2010PropOp55
 70
     1
102
RTVSPost2010Prop56
140
1.0
102
RTVSPost2010PropOp56
 70
     1
102
RTVSPost2010Prop57
140
1.0
102
RTVSPost2010PropOp57
 70
     1
  0
XRECORD
  5
731
102
{ACAD_REACTORS
330
730
102
}
330
730
100
AcDbXrecord
280
     1
102
RTVSPropertyOp0
 70
     1
102
RTVSPropertyOp1
 70
     1
102
RTVSPropertyOp2
 70
     1
102
RTVSPropertyOp3
 70
     1
102
RTVSPropertyOp4
 70
     1
102
RTVSPropertyOp5
 70
     1
102
RTVSPropertyOp6
 70
     1
102
RTVSPropertyOp7
 70
     1
102
RTVSPropertyOp8
 70
     1
102
RTVSPropertyOp9
 70
     1
102
RTVSPropertyOp10
 70
     1
102
RTVSPropertyOp11
 70
     1
102
RTVSPropertyOp12
 70
     1
102
RTVSPropertyOp13
 70
     1
102
RTVSPropertyOp14
 70
     1
102
RTVSPropertyOp15
 70
     1
102
RTVSPropertyOp16
 70
     1
102
RTVSPropertyOp17
 70
     1
102
RTVSPropertyOp18
 70
     1
102
RTVSPropertyOp19
 70
     1
102
RTVSPropertyOp20
 70
     1
102
RTVSPropertyOp21
 70
     1
102
RTVSPropertyOp22
 70
     1
102
RTVSPropertyOp23
 70
     1
102
RTVSPropertyOp24
 70
     1
102
RTVSPropertyOp25
 70
     1
102
RTVSPropertyOp26
 70
     1
102
RTVSPropertyOp27
 70
     1
102
RTVSPropertyOp28
 70
     1
102
RTVSPropertyOp29
 70
     1
102
RTVSPropertyOp30
 70
     1
102
RTVSPropertyOp31
 70
     1
102
RTVSPropertyOp32
 70
     1
102
RTVSPropertyOp33
 70
     1
102
RTVSPropertyOp34
 70
     1
102
RTVSPropertyOp35
 70
     1
102
RTVSPropertyOp36
 70
     1
102
RTVSPropertyOp37
 70
     1
102
RTVSPropertyOp38
 70
     1
102
RTVSPropertyOp39
 70
     1
102
RTVSPropertyOp40
 70
     1
102
RTVSPropertyOp41
 70
     1
102
RTVSPropertyOp42
 70
     1
102
RTVSPropertyOp43
 70
     1
102
RTVSPropertyOp44
 70
     1
102
RTVSPropertyOp45
 70
     1
102
RTVSPropertyOp46
 70
     1
102
RTVSPropertyOp47
 70
     1
102
RTVSPropertyOp48
 70
     1
102
RTVSPropertyOp49
 70
     1
102
RTVSPropertyOp50
 70
     1
102
RTVSPropertyOp51
 70
     0
102
RTVSPropertyOp52
 70
     0
102
RTVSPropertyOp53
 70
     1
102
RTVSPropertyOp54
 70
     1
102
RTVSPropertyOp55
 70
     1
102
RTVSPropertyOp56
 70
     1
102
RTVSPropertyOp57
 70
     1
102
RTVSPost2010Prop28
280
     0
102
RTVSPost2010PropOp28
 70
     1
102
RTVSPost2010Prop29
280
     1
102
RTVSPost2010PropOp29
 70
     1
102
RTVSPost2010Prop30
280
     1
102
RTVSPost2010PropOp30
 70
     1
102
RTVSPost2010Prop31
280
     0
102
RTVSPost2010PropOp31
 70
     1
102
RTVSPost2010Prop32
280
     0
102
RTVSPost2010PropOp32
 70
     1
102
RTVSPost2010Prop33
280
     0
102
RTVSPost2010PropOp33
 70
     1
102
RTVSPost2010Prop34
280
     0
102
RTVSPost2010PropOp34
 70
     1
102
RTVSPost2010Prop35
280
     0
102
RTVSPost2010PropOp35
 70
     1
102
RTVSPost2010Prop36
280
     0
102
RTVSPost2010PropOp36
 70
     1
102
RTVSPost2010Prop37
 90
       50
102
RTVSPost2010PropOp37
 70
     1
102
RTVSPost2010Prop38
140
0.0
102
RTVSPost2010PropOp38
 70
     1
102
RTVSPost2010Prop39
140
1.0
102
RTVSPost2010PropOp39
 70
     1
102
RTVSPost2010Prop40
 90
        0
102
RTVSPost2010PropOp40
 70
     1
102
RTVSPost2010Prop41ColorIndex
 90
       18
102
RTVSPost2010Prop41ColorRGB
 90
        0
102
RTVSPost2010PropOp41
 70
     1
102
RTVSPost2010Prop42
 90
       50
102
RTVSPost2010PropOp42
 70
     1
102
RTVSPost2010Prop43
 90
        3
102
RTVSPost2010PropOp43
 70
     1
102
RTVSPost2010Prop44ColorIndex
 90
        5
102
RTVSPost2010Prop44ColorRGB
 90
      255
102
RTVSPost2010PropOp44
 70
     1
102
RTVSPost2010Prop45
280
     0
102
RTVSPost2010PropOp45
 70
     1
102
RTVSPost2010Prop46
 90
       50
102
RTVSPost2010PropOp46
 70
     1
102
RTVSPost2010Prop47
 90
       50
102
RTVSPost2010PropOp47
 70
     1
102
RTVSPost2010Prop48
 90
       50
102
RTVSPost2010PropOp48
 70
     1
102
RTVSPost2010Prop49
280
     0
102
RTVSPost2010PropOp49
 70
     1
102
RTVSPost2010Prop50
 90
       50
102
RTVSPost2010PropOp50
 70
     1
102
RTVSPost2010Prop51ColorIndex
 90
      256
102
RTVSPost2010Prop51ColorRGB
 90
-16777216
102
RTVSPost2010PropOp51
 70
     0
102
RTVSPost2010Prop52
140
1.0
102
RTVSPost2010PropOp52
 70
     0
102
RTVSPost2010Prop53
 90
        2
102
RTVSPost2010PropOp53
 70
     1
102
RTVSPost2010Prop54
  1
strokes_ogs.tif
102
RTVSPost2010PropOp54
 70
     1
102
RTVSPost2010Prop55
280
     0
102
RTVSPost2010PropOp55
 70
     1
102
RTVSPost2010Prop56
140
1.0
102
RTVSPost2010PropOp56
 70
     1
102
RTVSPost2010Prop57
140
1.0
102
RTVSPost2010PropOp57
 70
     1
  0
XRECORD
  5
725
102
{ACAD_REACTORS
330
724
102
}
330
724
100
AcDbXrecord
280
     1
102
RTVSPropertyOp0
 70
     1
102
RTVSPropertyOp1
 70
     1
102
RTVSPropertyOp2
 70
     1
102
RTVSPropertyOp3
 70
     1
102
RTVSPropertyOp4
 70
     1
102
RTVSPropertyOp5
 70
     1
102
RTVSPropertyOp6
 70
     1
102
RTVSPropertyOp7
 70
     1
102
RTVSPropertyOp8
 70
     1
102
RTVSPropertyOp9
 70
     1
102
RTVSPropertyOp10
 70
     1
102
RTVSPropertyOp11
 70
     1
102
RTVSPropertyOp12
 70
     1
102
RTVSPropertyOp13
 70
     1
102
RTVSPropertyOp14
 70
     1
102
RTVSPropertyOp15
 70
     1
102
RTVSPropertyOp16
 70
     1
102
RTVSPropertyOp17
 70
     1
102
RTVSPropertyOp18
 70
     1
102
RTVSPropertyOp19
 70
     1
102
RTVSPropertyOp20
 70
     1
102
RTVSPropertyOp21
 70
     1
102
RTVSPropertyOp22
 70
     1
102
RTVSPropertyOp23
 70
     1
102
RTVSPropertyOp24
 70
     1
102
RTVSPropertyOp25
 70
     1
102
RTVSPropertyOp26
 70
     1
102
RTVSPropertyOp27
 70
     1
102
RTVSPropertyOp28
 70
     1
102
RTVSPropertyOp29
 70
     1
102
RTVSPropertyOp30
 70
     1
102
RTVSPropertyOp31
 70
     1
102
RTVSPropertyOp32
 70
     1
102
RTVSPropertyOp33
 70
     1
102
RTVSPropertyOp34
 70
     1
102
RTVSPropertyOp35
 70
     1
102
RTVSPropertyOp36
 70
     1
102
RTVSPropertyOp37
 70
     1
102
RTVSPropertyOp38
 70
     1
102
RTVSPropertyOp39
 70
     1
102
RTVSPropertyOp40
 70
     1
102
RTVSPropertyOp41
 70
     1
102
RTVSPropertyOp42
 70
     1
102
RTVSPropertyOp43
 70
     1
102
RTVSPropertyOp44
 70
     1
102
RTVSPropertyOp45
 70
     1
102
RTVSPropertyOp46
 70
     1
102
RTVSPropertyOp47
 70
     1
102
RTVSPropertyOp48
 70
     1
102
RTVSPropertyOp49
 70
     1
102
RTVSPropertyOp50
 70
     1
102
RTVSPropertyOp51
 70
     0
102
RTVSPropertyOp52
 70
     0
102
RTVSPropertyOp53
 70
     1
102
RTVSPropertyOp54
 70
     1
102
RTVSPropertyOp55
 70
     1
102
RTVSPropertyOp56
 70
     1
102
RTVSPropertyOp57
 70
     1
102
RTVSPost2010Prop28
280
     0
102
RTVSPost2010PropOp28
 70
     1
102
RTVSPost2010Prop29
280
     1
102
RTVSPost2010PropOp29
 70
     1
102
RTVSPost2010Prop30
280
     1
102
RTVSPost2010PropOp30
 70
     1
102
RTVSPost2010Prop31
280
     0
102
RTVSPost2010PropOp31
 70
     1
102
RTVSPost2010Prop32
280
     0
102
RTVSPost2010PropOp32
 70
     1
102
RTVSPost2010Prop33
280
     0
102
RTVSPost2010PropOp33
 70
     1
102
RTVSPost2010Prop34
280
     0
102
RTVSPost2010PropOp34
 70
     1
102
RTVSPost2010Prop35
280
     0
102
RTVSPost2010PropOp35
 70
     1
102
RTVSPost2010Prop36
280
     0
102
RTVSPost2010PropOp36
 70
     1
102
RTVSPost2010Prop37
 90
       50
102
RTVSPost2010PropOp37
 70
     1
102
RTVSPost2010Prop38
140
0.0
102
RTVSPost2010PropOp38
 70
     1
102
RTVSPost2010Prop39
140
1.0
102
RTVSPost2010PropOp39
 70
     1
102
RTVSPost2010Prop40
 90
        0
102
RTVSPost2010PropOp40
 70
     1
102
RTVSPost2010Prop41ColorIndex
 90
       18
102
RTVSPost2010Prop41ColorRGB
 90
        0
102
RTVSPost2010PropOp41
 70
     1
102
RTVSPost2010Prop42
 90
       50
102
RTVSPost2010PropOp42
 70
     1
102
RTVSPost2010Prop43
 90
        3
102
RTVSPost2010PropOp43
 70
     1
102
RTVSPost2010Prop44ColorIndex
 90
        5
102
RTVSPost2010Prop44ColorRGB
 90
      255
102
RTVSPost2010PropOp44
 70
     1
102
RTVSPost2010Prop45
280
     0
102
RTVSPost2010PropOp45
 70
     1
102
RTVSPost2010Prop46
 90
       50
102
RTVSPost2010PropOp46
 70
     1
102
RTVSPost2010Prop47
 90
       50
102
RTVSPost2010PropOp47
 70
     1
102
RTVSPost2010Prop48
 90
       50
102
RTVSPost2010PropOp48
 70
     1
102
RTVSPost2010Prop49
280
     0
102
RTVSPost2010PropOp49
 70
     1
102
RTVSPost2010Prop50
 90
       50
102
RTVSPost2010PropOp50
 70
     1
102
RTVSPost2010Prop51ColorIndex
 90
      256
102
RTVSPost2010Prop51ColorRGB
 90
-16777216
102
RTVSPost2010PropOp51
 70
     0
102
RTVSPost2010Prop52
140
1.0
102
RTVSPost2010PropOp52
 70
     0
102
RTVSPost2010Prop53
 90
        2
102
RTVSPost2010PropOp53
 70
     1
102
RTVSPost2010Prop54
  1
strokes_ogs.tif
102
RTVSPost2010PropOp54
 70
     1
102
RTVSPost2010Prop55
280
     0
102
RTVSPost2010PropOp55
 70
     1
102
RTVSPost2010Prop56
140
1.0
102
RTVSPost2010PropOp56
 70
     1
102
RTVSPost2010Prop57
140
1.0
102
RTVSPost2010PropOp57
 70
     1
  0
XRECORD
  5
727
102
{ACAD_REACTORS
330
726
102
}
330
726
100
AcDbXrecord
280
     1
102
RTVSPropertyOp0
 70
     1
102
RTVSPropertyOp1
 70
     1
102
RTVSPropertyOp2
 70
     1
102
RTVSPropertyOp3
 70
     1
102
RTVSPropertyOp4
 70
     1
102
RTVSPropertyOp5
 70
     1
102
RTVSPropertyOp6
 70
     1
102
RTVSPropertyOp7
 70
     1
102
RTVSPropertyOp8
 70
     1
102
RTVSPropertyOp9
 70
     1
102
RTVSPropertyOp10
 70
     1
102
RTVSPropertyOp11
 70
     1
102
RTVSPropertyOp12
 70
     1
102
RTVSPropertyOp13
 70
     1
102
RTVSPropertyOp14
 70
     1
102
RTVSPropertyOp15
 70
     1
102
RTVSPropertyOp16
 70
     1
102
RTVSPropertyOp17
 70
     1
102
RTVSPropertyOp18
 70
     1
102
RTVSPropertyOp19
 70
     1
102
RTVSPropertyOp20
 70
     1
102
RTVSPropertyOp21
 70
     1
102
RTVSPropertyOp22
 70
     1
102
RTVSPropertyOp23
 70
     1
102
RTVSPropertyOp24
 70
     1
102
RTVSPropertyOp25
 70
     1
102
RTVSPropertyOp26
 70
     1
102
RTVSPropertyOp27
 70
     1
102
RTVSPropertyOp28
 70
     1
102
RTVSPropertyOp29
 70
     1
102
RTVSPropertyOp30
 70
     1
102
RTVSPropertyOp31
 70
     1
102
RTVSPropertyOp32
 70
     1
102
RTVSPropertyOp33
 70
     1
102
RTVSPropertyOp34
 70
     1
102
RTVSPropertyOp35
 70
     1
102
RTVSPropertyOp36
 70
     1
102
RTVSPropertyOp37
 70
     1
102
RTVSPropertyOp38
 70
     1
102
RTVSPropertyOp39
 70
     1
102
RTVSPropertyOp40
 70
     1
102
RTVSPropertyOp41
 70
     1
102
RTVSPropertyOp42
 70
     1
102
RTVSPropertyOp43
 70
     1
102
RTVSPropertyOp44
 70
     1
102
RTVSPropertyOp45
 70
     1
102
RTVSPropertyOp46
 70
     1
102
RTVSPropertyOp47
 70
     1
102
RTVSPropertyOp48
 70
     1
102
RTVSPropertyOp49
 70
     1
102
RTVSPropertyOp50
 70
     1
102
RTVSPropertyOp51
 70
     0
102
RTVSPropertyOp52
 70
     0
102
RTVSPropertyOp53
 70
     1
102
RTVSPropertyOp54
 70
     1
102
RTVSPropertyOp55
 70
     1
102
RTVSPropertyOp56
 70
     1
102
RTVSPropertyOp57
 70
     1
102
RTVSPost2010Prop28
280
     0
102
RTVSPost2010PropOp28
 70
     1
102
RTVSPost2010Prop29
280
     1
102
RTVSPost2010PropOp29
 70
     1
102
RTVSPost2010Prop30
280
     1
102
RTVSPost2010PropOp30
 70
     1
102
RTVSPost2010Prop31
280
     0
102
RTVSPost2010PropOp31
 70
     1
102
RTVSPost2010Prop32
280
     0
102
RTVSPost2010PropOp32
 70
     1
102
RTVSPost2010Prop33
280
     0
102
RTVSPost2010PropOp33
 70
     1
102
RTVSPost2010Prop34
280
     0
102
RTVSPost2010PropOp34
 70
     1
102
RTVSPost2010Prop35
280
     0
102
RTVSPost2010PropOp35
 70
     1
102
RTVSPost2010Prop36
280
     0
102
RTVSPost2010PropOp36
 70
     1
102
RTVSPost2010Prop37
 90
       50
102
RTVSPost2010PropOp37
 70
     1
102
RTVSPost2010Prop38
140
0.0
102
RTVSPost2010PropOp38
 70
     1
102
RTVSPost2010Prop39
140
1.0
102
RTVSPost2010PropOp39
 70
     1
102
RTVSPost2010Prop40
 90
        0
102
RTVSPost2010PropOp40
 70
     1
102
RTVSPost2010Prop41ColorIndex
 90
       18
102
RTVSPost2010Prop41ColorRGB
 90
        0
102
RTVSPost2010PropOp41
 70
     1
102
RTVSPost2010Prop42
 90
       50
102
RTVSPost2010PropOp42
 70
     1
102
RTVSPost2010Prop43
 90
        3
102
RTVSPost2010PropOp43
 70
     1
102
RTVSPost2010Prop44ColorIndex
 90
        5
102
RTVSPost2010Prop44ColorRGB
 90
      255
102
RTVSPost2010PropOp44
 70
     1
102
RTVSPost2010Prop45
280
     0
102
RTVSPost2010PropOp45
 70
     1
102
RTVSPost2010Prop46
 90
       50
102
RTVSPost2010PropOp46
 70
     1
102
RTVSPost2010Prop47
 90
       50
102
RTVSPost2010PropOp47
 70
     1
102
RTVSPost2010Prop48
 90
       50
102
RTVSPost2010PropOp48
 70
     1
102
RTVSPost2010Prop49
280
     0
102
RTVSPost2010PropOp49
 70
     1
102
RTVSPost2010Prop50
 90
       50
102
RTVSPost2010PropOp50
 70
     1
102
RTVSPost2010Prop51ColorIndex
 90
      256
102
RTVSPost2010Prop51ColorRGB
 90
-16777216
102
RTVSPost2010PropOp51
 70
     0
102
RTVSPost2010Prop52
140
1.0
102
RTVSPost2010PropOp52
 70
     0
102
RTVSPost2010Prop53
 90
        2
102
RTVSPost2010PropOp53
 70
     1
102
RTVSPost2010Prop54
  1
strokes_ogs.tif
102
RTVSPost2010PropOp54
 70
     1
102
RTVSPost2010Prop55
280
     0
102
RTVSPost2010PropOp55
 70
     1
102
RTVSPost2010Prop56
140
1.0
102
RTVSPost2010PropOp56
 70
     1
102
RTVSPost2010Prop57
140
1.0
102
RTVSPost2010PropOp57
 70
     1
  0
XRECORD
  5
72F
102
{ACAD_REACTORS
330
72E
102
}
330
72E
100
AcDbXrecord
280
     1
102
RTVSPropertyOp0
 70
     1
102
RTVSPropertyOp1
 70
     1
102
RTVSPropertyOp2
 70
     1
102
RTVSPropertyOp3
 70
     1
102
RTVSPropertyOp4
 70
     1
102
RTVSPropertyOp5
 70
     1
102
RTVSPropertyOp6
 70
     1
102
RTVSPropertyOp7
 70
     1
102
RTVSPropertyOp8
 70
     1
102
RTVSPropertyOp9
 70
     1
102
RTVSPropertyOp10
 70
     1
102
RTVSPropertyOp11
 70
     1
102
RTVSPropertyOp12
 70
     1
102
RTVSPropertyOp13
 70
     1
102
RTVSPropertyOp14
 70
     1
102
RTVSPropertyOp15
 70
     1
102
RTVSPropertyOp16
 70
     1
102
RTVSPropertyOp17
 70
     1
102
RTVSPropertyOp18
 70
     1
102
RTVSPropertyOp19
 70
     1
102
RTVSPropertyOp20
 70
     1
102
RTVSPropertyOp21
 70
     1
102
RTVSPropertyOp22
 70
     1
102
RTVSPropertyOp23
 70
     1
102
RTVSPropertyOp24
 70
     1
102
RTVSPropertyOp25
 70
     1
102
RTVSPropertyOp26
 70
     1
102
RTVSPropertyOp27
 70
     1
102
RTVSPropertyOp28
 70
     1
102
RTVSPropertyOp29
 70
     1
102
RTVSPropertyOp30
 70
     1
102
RTVSPropertyOp31
 70
     1
102
RTVSPropertyOp32
 70
     1
102
RTVSPropertyOp33
 70
     1
102
RTVSPropertyOp34
 70
     1
102
RTVSPropertyOp35
 70
     1
102
RTVSPropertyOp36
 70
     1
102
RTVSPropertyOp37
 70
     1
102
RTVSPropertyOp38
 70
     1
102
RTVSPropertyOp39
 70
     1
102
RTVSPropertyOp40
 70
     1
102
RTVSPropertyOp41
 70
     1
102
RTVSPropertyOp42
 70
     1
102
RTVSPropertyOp43
 70
     1
102
RTVSPropertyOp44
 70
     1
102
RTVSPropertyOp45
 70
     1
102
RTVSPropertyOp46
 70
     1
102
RTVSPropertyOp47
 70
     1
102
RTVSPropertyOp48
 70
     1
102
RTVSPropertyOp49
 70
     1
102
RTVSPropertyOp50
 70
     1
102
RTVSPropertyOp51
 70
     0
102
RTVSPropertyOp52
 70
     0
102
RTVSPropertyOp53
 70
     1
102
RTVSPropertyOp54
 70
     1
102
RTVSPropertyOp55
 70
     1
102
RTVSPropertyOp56
 70
     1
102
RTVSPropertyOp57
 70
     1
102
RTVSPost2010Prop28
280
     0
102
RTVSPost2010PropOp28
 70
     1
102
RTVSPost2010Prop29
280
     1
102
RTVSPost2010PropOp29
 70
     1
102
RTVSPost2010Prop30
280
     1
102
RTVSPost2010PropOp30
 70
     1
102
RTVSPost2010Prop31
280
     0
102
RTVSPost2010PropOp31
 70
     1
102
RTVSPost2010Prop32
280
     0
102
RTVSPost2010PropOp32
 70
     1
102
RTVSPost2010Prop33
280
     0
102
RTVSPost2010PropOp33
 70
     1
102
RTVSPost2010Prop34
280
     0
102
RTVSPost2010PropOp34
 70
     1
102
RTVSPost2010Prop35
280
     0
102
RTVSPost2010PropOp35
 70
     1
102
RTVSPost2010Prop36
280
     0
102
RTVSPost2010PropOp36
 70
     1
102
RTVSPost2010Prop37
 90
       50
102
RTVSPost2010PropOp37
 70
     1
102
RTVSPost2010Prop38
140
0.0
102
RTVSPost2010PropOp38
 70
     1
102
RTVSPost2010Prop39
140
1.0
102
RTVSPost2010PropOp39
 70
     1
102
RTVSPost2010Prop40
 90
        0
102
RTVSPost2010PropOp40
 70
     1
102
RTVSPost2010Prop41ColorIndex
 90
       18
102
RTVSPost2010Prop41ColorRGB
 90
        0
102
RTVSPost2010PropOp41
 70
     1
102
RTVSPost2010Prop42
 90
       50
102
RTVSPost2010PropOp42
 70
     1
102
RTVSPost2010Prop43
 90
        3
102
RTVSPost2010PropOp43
 70
     1
102
RTVSPost2010Prop44ColorIndex
 90
        5
102
RTVSPost2010Prop44ColorRGB
 90
      255
102
RTVSPost2010PropOp44
 70
     1
102
RTVSPost2010Prop45
280
     0
102
RTVSPost2010PropOp45
 70
     1
102
RTVSPost2010Prop46
 90
       50
102
RTVSPost2010PropOp46
 70
     1
102
RTVSPost2010Prop47
 90
       50
102
RTVSPost2010PropOp47
 70
     1
102
RTVSPost2010Prop48
 90
       50
102
RTVSPost2010PropOp48
 70
     1
102
RTVSPost2010Prop49
280
     0
102
RTVSPost2010PropOp49
 70
     1
102
RTVSPost2010Prop50
 90
       50
102
RTVSPost2010PropOp50
 70
     1
102
RTVSPost2010Prop51ColorIndex
 90
      256
102
RTVSPost2010Prop51ColorRGB
 90
-16777216
102
RTVSPost2010PropOp51
 70
     0
102
RTVSPost2010Prop52
140
1.0
102
RTVSPost2010PropOp52
 70
     0
102
RTVSPost2010Prop53
 90
        2
102
RTVSPost2010PropOp53
 70
     1
102
RTVSPost2010Prop54
  1
strokes_ogs.tif
102
RTVSPost2010PropOp54
 70
     1
102
RTVSPost2010Prop55
280
     0
102
RTVSPost2010PropOp55
 70
     1
102
RTVSPost2010Prop56
140
1.0
102
RTVSPost2010PropOp56
 70
     1
102
RTVSPost2010Prop57
140
1.0
102
RTVSPost2010PropOp57
 70
     1
  0
XRECORD
  5
713
102
{ACAD_REACTORS
330
712
102
}
330
712
100
AcDbXrecord
280
     1
102
RTVSPropertyOp0
 70
     1
102
RTVSPropertyOp1
 70
     1
102
RTVSPropertyOp2
 70
     1
102
RTVSPropertyOp3
 70
     1
102
RTVSPropertyOp4
 70
     1
102
RTVSPropertyOp5
 70
     1
102
RTVSPropertyOp6
 70
     1
102
RTVSPropertyOp7
 70
     1
102
RTVSPropertyOp8
 70
     1
102
RTVSPropertyOp9
 70
     1
102
RTVSPropertyOp10
 70
     1
102
RTVSPropertyOp11
 70
     1
102
RTVSPropertyOp12
 70
     1
102
RTVSPropertyOp13
 70
     1
102
RTVSPropertyOp14
 70
     1
102
RTVSPropertyOp15
 70
     1
102
RTVSPropertyOp16
 70
     1
102
RTVSPropertyOp17
 70
     1
102
RTVSPropertyOp18
 70
     1
102
RTVSPropertyOp19
 70
     1
102
RTVSPropertyOp20
 70
     1
102
RTVSPropertyOp21
 70
     1
102
RTVSPropertyOp22
 70
     1
102
RTVSPropertyOp23
 70
     1
102
RTVSPropertyOp24
 70
     1
102
RTVSPropertyOp25
 70
     1
102
RTVSPropertyOp26
 70
     1
102
RTVSPropertyOp27
 70
     1
102
RTVSPropertyOp28
 70
     1
102
RTVSPropertyOp29
 70
     1
102
RTVSPropertyOp30
 70
     1
102
RTVSPropertyOp31
 70
     1
102
RTVSPropertyOp32
 70
     1
102
RTVSPropertyOp33
 70
     1
102
RTVSPropertyOp34
 70
     1
102
RTVSPropertyOp35
 70
     1
102
RTVSPropertyOp36
 70
     1
102
RTVSPropertyOp37
 70
     1
102
RTVSPropertyOp38
 70
     1
102
RTVSPropertyOp39
 70
     1
102
RTVSPropertyOp40
 70
     1
102
RTVSPropertyOp41
 70
     1
102
RTVSPropertyOp42
 70
     1
102
RTVSPropertyOp43
 70
     1
102
RTVSPropertyOp44
 70
     1
102
RTVSPropertyOp45
 70
     1
102
RTVSPropertyOp46
 70
     1
102
RTVSPropertyOp47
 70
     1
102
RTVSPropertyOp48
 70
     1
102
RTVSPropertyOp49
 70
     1
102
RTVSPropertyOp50
 70
     1
102
RTVSPropertyOp51
 70
     0
102
RTVSPropertyOp52
 70
     0
102
RTVSPropertyOp53
 70
     1
102
RTVSPropertyOp54
 70
     1
102
RTVSPropertyOp55
 70
     1
102
RTVSPropertyOp56
 70
     1
102
RTVSPropertyOp57
 70
     1
102
RTVSPost2010Prop28
280
     0
102
RTVSPost2010PropOp28
 70
     1
102
RTVSPost2010Prop29
280
     1
102
RTVSPost2010PropOp29
 70
     1
102
RTVSPost2010Prop30
280
     1
102
RTVSPost2010PropOp30
 70
     1
102
RTVSPost2010Prop31
280
     0
102
RTVSPost2010PropOp31
 70
     1
102
RTVSPost2010Prop32
280
     0
102
RTVSPost2010PropOp32
 70
     1
102
RTVSPost2010Prop33
280
     0
102
RTVSPost2010PropOp33
 70
     1
102
RTVSPost2010Prop34
280
     0
102
RTVSPost2010PropOp34
 70
     1
102
RTVSPost2010Prop35
280
     0
102
RTVSPost2010PropOp35
 70
     1
102
RTVSPost2010Prop36
280
     0
102
RTVSPost2010PropOp36
 70
     1
102
RTVSPost2010Prop37
 90
       50
102
RTVSPost2010PropOp37
 70
     1
102
RTVSPost2010Prop38
140
0.0
102
RTVSPost2010PropOp38
 70
     1
102
RTVSPost2010Prop39
140
1.0
102
RTVSPost2010PropOp39
 70
     1
102
RTVSPost2010Prop40
 90
        0
102
RTVSPost2010PropOp40
 70
     1
102
RTVSPost2010Prop41ColorIndex
 90
       18
102
RTVSPost2010Prop41ColorRGB
 90
        0
102
RTVSPost2010PropOp41
 70
     1
102
RTVSPost2010Prop42
 90
       50
102
RTVSPost2010PropOp42
 70
     1
102
RTVSPost2010Prop43
 90
        3
102
RTVSPost2010PropOp43
 70
     1
102
RTVSPost2010Prop44ColorIndex
 90
        5
102
RTVSPost2010Prop44ColorRGB
 90
      255
102
RTVSPost2010PropOp44
 70
     1
102
RTVSPost2010Prop45
280
     0
102
RTVSPost2010PropOp45
 70
     1
102
RTVSPost2010Prop46
 90
       50
102
RTVSPost2010PropOp46
 70
     1
102
RTVSPost2010Prop47
 90
       50
102
RTVSPost2010PropOp47
 70
     1
102
RTVSPost2010Prop48
 90
       50
102
RTVSPost2010PropOp48
 70
     1
102
RTVSPost2010Prop49
280
     0
102
RTVSPost2010PropOp49
 70
     1
102
RTVSPost2010Prop50
 90
       50
102
RTVSPost2010PropOp50
 70
     1
102
RTVSPost2010Prop51ColorIndex
 90
      256
102
RTVSPost2010Prop51ColorRGB
 90
-16777216
102
RTVSPost2010PropOp51
 70
     0
102
RTVSPost2010Prop52
140
1.0
102
RTVSPost2010PropOp52
 70
     0
102
RTVSPost2010Prop53
 90
        2
102
RTVSPost2010PropOp53
 70
     1
102
RTVSPost2010Prop54
  1
strokes_ogs.tif
102
RTVSPost2010PropOp54
 70
     1
102
RTVSPost2010Prop55
280
     0
102
RTVSPost2010PropOp55
 70
     1
102
RTVSPost2010Prop56
140
1.0
102
RTVSPost2010PropOp56
 70
     1
102
RTVSPost2010Prop57
140
1.0
102
RTVSPost2010PropOp57
 70
     1
  0
XRECORD
  5
715
102
{ACAD_REACTORS
330
714
102
}
330
714
100
AcDbXrecord
280
     1
102
RTVSPropertyOp0
 70
     1
102
RTVSPropertyOp1
 70
     1
102
RTVSPropertyOp2
 70
     1
102
RTVSPropertyOp3
 70
     1
102
RTVSPropertyOp4
 70
     1
102
RTVSPropertyOp5
 70
     1
102
RTVSPropertyOp6
 70
     1
102
RTVSPropertyOp7
 70
     1
102
RTVSPropertyOp8
 70
     1
102
RTVSPropertyOp9
 70
     1
102
RTVSPropertyOp10
 70
     1
102
RTVSPropertyOp11
 70
     1
102
RTVSPropertyOp12
 70
     1
102
RTVSPropertyOp13
 70
     1
102
RTVSPropertyOp14
 70
     1
102
RTVSPropertyOp15
 70
     1
102
RTVSPropertyOp16
 70
     1
102
RTVSPropertyOp17
 70
     1
102
RTVSPropertyOp18
 70
     1
102
RTVSPropertyOp19
 70
     1
102
RTVSPropertyOp20
 70
     1
102
RTVSPropertyOp21
 70
     1
102
RTVSPropertyOp22
 70
     1
102
RTVSPropertyOp23
 70
     1
102
RTVSPropertyOp24
 70
     1
102
RTVSPropertyOp25
 70
     1
102
RTVSPropertyOp26
 70
     1
102
RTVSPropertyOp27
 70
     1
102
RTVSPropertyOp28
 70
     1
102
RTVSPropertyOp29
 70
     1
102
RTVSPropertyOp30
 70
     1
102
RTVSPropertyOp31
 70
     1
102
RTVSPropertyOp32
 70
     1
102
RTVSPropertyOp33
 70
     1
102
RTVSPropertyOp34
 70
     1
102
RTVSPropertyOp35
 70
     1
102
RTVSPropertyOp36
 70
     1
102
RTVSPropertyOp37
 70
     1
102
RTVSPropertyOp38
 70
     1
102
RTVSPropertyOp39
 70
     1
102
RTVSPropertyOp40
 70
     1
102
RTVSPropertyOp41
 70
     1
102
RTVSPropertyOp42
 70
     1
102
RTVSPropertyOp43
 70
     1
102
RTVSPropertyOp44
 70
     1
102
RTVSPropertyOp45
 70
     1
102
RTVSPropertyOp46
 70
     1
102
RTVSPropertyOp47
 70
     1
102
RTVSPropertyOp48
 70
     1
102
RTVSPropertyOp49
 70
     1
102
RTVSPropertyOp50
 70
     1
102
RTVSPropertyOp51
 70
     0
102
RTVSPropertyOp52
 70
     0
102
RTVSPropertyOp53
 70
     1
102
RTVSPropertyOp54
 70
     1
102
RTVSPropertyOp55
 70
     1
102
RTVSPropertyOp56
 70
     1
102
RTVSPropertyOp57
 70
     1
102
RTVSPost2010Prop28
280
     0
102
RTVSPost2010PropOp28
 70
     1
102
RTVSPost2010Prop29
280
     1
102
RTVSPost2010PropOp29
 70
     1
102
RTVSPost2010Prop30
280
     1
102
RTVSPost2010PropOp30
 70
     1
102
RTVSPost2010Prop31
280
     0
102
RTVSPost2010PropOp31
 70
     1
102
RTVSPost2010Prop32
280
     0
102
RTVSPost2010PropOp32
 70
     1
102
RTVSPost2010Prop33
280
     0
102
RTVSPost2010PropOp33
 70
     1
102
RTVSPost2010Prop34
280
     0
102
RTVSPost2010PropOp34
 70
     1
102
RTVSPost2010Prop35
280
     0
102
RTVSPost2010PropOp35
 70
     1
102
RTVSPost2010Prop36
280
     0
102
RTVSPost2010PropOp36
 70
     1
102
RTVSPost2010Prop37
 90
       50
102
RTVSPost2010PropOp37
 70
     1
102
RTVSPost2010Prop38
140
0.0
102
RTVSPost2010PropOp38
 70
     1
102
RTVSPost2010Prop39
140
1.0
102
RTVSPost2010PropOp39
 70
     1
102
RTVSPost2010Prop40
 90
        0
102
RTVSPost2010PropOp40
 70
     1
102
RTVSPost2010Prop41ColorIndex
 90
       18
102
RTVSPost2010Prop41ColorRGB
 90
        0
102
RTVSPost2010PropOp41
 70
     1
102
RTVSPost2010Prop42
 90
       50
102
RTVSPost2010PropOp42
 70
     1
102
RTVSPost2010Prop43
 90
        3
102
RTVSPost2010PropOp43
 70
     1
102
RTVSPost2010Prop44ColorIndex
 90
        5
102
RTVSPost2010Prop44ColorRGB
 90
      255
102
RTVSPost2010PropOp44
 70
     1
102
RTVSPost2010Prop45
280
     0
102
RTVSPost2010PropOp45
 70
     1
102
RTVSPost2010Prop46
 90
       50
102
RTVSPost2010PropOp46
 70
     1
102
RTVSPost2010Prop47
 90
       50
102
RTVSPost2010PropOp47
 70
     1
102
RTVSPost2010Prop48
 90
       50
102
RTVSPost2010PropOp48
 70
     1
102
RTVSPost2010Prop49
280
     0
102
RTVSPost2010PropOp49
 70
     1
102
RTVSPost2010Prop50
 90
       50
102
RTVSPost2010PropOp50
 70
     1
102
RTVSPost2010Prop51ColorIndex
 90
      256
102
RTVSPost2010Prop51ColorRGB
 90
-16777216
102
RTVSPost2010PropOp51
 70
     0
102
RTVSPost2010Prop52
140
1.0
102
RTVSPost2010PropOp52
 70
     0
102
RTVSPost2010Prop53
 90
        2
102
RTVSPost2010PropOp53
 70
     1
102
RTVSPost2010Prop54
  1
strokes_ogs.tif
102
RTVSPost2010PropOp54
 70
     1
102
RTVSPost2010Prop55
280
     0
102
RTVSPost2010PropOp55
 70
     1
102
RTVSPost2010Prop56
140
1.0
102
RTVSPost2010PropOp56
 70
     1
102
RTVSPost2010Prop57
140
1.0
102
RTVSPost2010PropOp57
 70
     1
  0
XRECORD
  5
717
102
{ACAD_REACTORS
330
716
102
}
330
716
100
AcDbXrecord
280
     1
102
RTVSPropertyOp0
 70
     1
102
RTVSPropertyOp1
 70
     1
102
RTVSPropertyOp2
 70
     1
102
RTVSPropertyOp3
 70
     1
102
RTVSPropertyOp4
 70
     1
102
RTVSPropertyOp5
 70
     1
102
RTVSPropertyOp6
 70
     1
102
RTVSPropertyOp7
 70
     1
102
RTVSPropertyOp8
 70
     1
102
RTVSPropertyOp9
 70
     1
102
RTVSPropertyOp10
 70
     1
102
RTVSPropertyOp11
 70
     1
102
RTVSPropertyOp12
 70
     1
102
RTVSPropertyOp13
 70
     1
102
RTVSPropertyOp14
 70
     1
102
RTVSPropertyOp15
 70
     1
102
RTVSPropertyOp16
 70
     1
102
RTVSPropertyOp17
 70
     1
102
RTVSPropertyOp18
 70
     1
102
RTVSPropertyOp19
 70
     1
102
RTVSPropertyOp20
 70
     1
102
RTVSPropertyOp21
 70
     1
102
RTVSPropertyOp22
 70
     1
102
RTVSPropertyOp23
 70
     1
102
RTVSPropertyOp24
 70
     1
102
RTVSPropertyOp25
 70
     1
102
RTVSPropertyOp26
 70
     1
102
RTVSPropertyOp27
 70
     1
102
RTVSPropertyOp28
 70
     1
102
RTVSPropertyOp29
 70
     1
102
RTVSPropertyOp30
 70
     1
102
RTVSPropertyOp31
 70
     1
102
RTVSPropertyOp32
 70
     1
102
RTVSPropertyOp33
 70
     1
102
RTVSPropertyOp34
 70
     1
102
RTVSPropertyOp35
 70
     1
102
RTVSPropertyOp36
 70
     1
102
RTVSPropertyOp37
 70
     1
102
RTVSPropertyOp38
 70
     1
102
RTVSPropertyOp39
 70
     1
102
RTVSPropertyOp40
 70
     1
102
RTVSPropertyOp41
 70
     1
102
RTVSPropertyOp42
 70
     1
102
RTVSPropertyOp43
 70
     1
102
RTVSPropertyOp44
 70
     1
102
RTVSPropertyOp45
 70
     1
102
RTVSPropertyOp46
 70
     1
102
RTVSPropertyOp47
 70
     1
102
RTVSPropertyOp48
 70
     1
102
RTVSPropertyOp49
 70
     1
102
RTVSPropertyOp50
 70
     1
102
RTVSPropertyOp51
 70
     0
102
RTVSPropertyOp52
 70
     0
102
RTVSPropertyOp53
 70
     1
102
RTVSPropertyOp54
 70
     1
102
RTVSPropertyOp55
 70
     1
102
RTVSPropertyOp56
 70
     1
102
RTVSPropertyOp57
 70
     1
102
RTVSPost2010Prop28
280
     0
102
RTVSPost2010PropOp28
 70
     1
102
RTVSPost2010Prop29
280
     1
102
RTVSPost2010PropOp29
 70
     1
102
RTVSPost2010Prop30
280
     1
102
RTVSPost2010PropOp30
 70
     1
102
RTVSPost2010Prop31
280
     0
102
RTVSPost2010PropOp31
 70
     1
102
RTVSPost2010Prop32
280
     0
102
RTVSPost2010PropOp32
 70
     1
102
RTVSPost2010Prop33
280
     0
102
RTVSPost2010PropOp33
 70
     1
102
RTVSPost2010Prop34
280
     0
102
RTVSPost2010PropOp34
 70
     1
102
RTVSPost2010Prop35
280
     0
102
RTVSPost2010PropOp35
 70
     1
102
RTVSPost2010Prop36
280
     0
102
RTVSPost2010PropOp36
 70
     1
102
RTVSPost2010Prop37
 90
       50
102
RTVSPost2010PropOp37
 70
     1
102
RTVSPost2010Prop38
140
0.0
102
RTVSPost2010PropOp38
 70
     1
102
RTVSPost2010Prop39
140
1.0
102
RTVSPost2010PropOp39
 70
     1
102
RTVSPost2010Prop40
 90
        0
102
RTVSPost2010PropOp40
 70
     1
102
RTVSPost2010Prop41ColorIndex
 90
       18
102
RTVSPost2010Prop41ColorRGB
 90
        0
102
RTVSPost2010PropOp41
 70
     1
102
RTVSPost2010Prop42
 90
       50
102
RTVSPost2010PropOp42
 70
     1
102
RTVSPost2010Prop43
 90
        3
102
RTVSPost2010PropOp43
 70
     1
102
RTVSPost2010Prop44ColorIndex
 90
        5
102
RTVSPost2010Prop44ColorRGB
 90
      255
102
RTVSPost2010PropOp44
 70
     1
102
RTVSPost2010Prop45
280
     0
102
RTVSPost2010PropOp45
 70
     1
102
RTVSPost2010Prop46
 90
       50
102
RTVSPost2010PropOp46
 70
     1
102
RTVSPost2010Prop47
 90
       50
102
RTVSPost2010PropOp47
 70
     1
102
RTVSPost2010Prop48
 90
       50
102
RTVSPost2010PropOp48
 70
     1
102
RTVSPost2010Prop49
280
     0
102
RTVSPost2010PropOp49
 70
     1
102
RTVSPost2010Prop50
 90
       50
102
RTVSPost2010PropOp50
 70
     1
102
RTVSPost2010Prop51ColorIndex
 90
      256
102
RTVSPost2010Prop51ColorRGB
 90
-16777216
102
RTVSPost2010PropOp51
 70
     0
102
RTVSPost2010Prop52
140
1.0
102
RTVSPost2010PropOp52
 70
     0
102
RTVSPost2010Prop53
 90
        2
102
RTVSPost2010PropOp53
 70
     1
102
RTVSPost2010Prop54
  1
strokes_ogs.tif
102
RTVSPost2010PropOp54
 70
     1
102
RTVSPost2010Prop55
280
     0
102
RTVSPost2010PropOp55
 70
     1
102
RTVSPost2010Prop56
140
1.0
102
RTVSPost2010PropOp56
 70
     1
102
RTVSPost2010Prop57
140
1.0
102
RTVSPost2010PropOp57
 70
     1
  0
XRECORD
  5
719
102
{ACAD_REACTORS
330
718
102
}
330
718
100
AcDbXrecord
280
     1
102
RTVSPropertyOp0
 70
     1
102
RTVSPropertyOp1
 70
     1
102
RTVSPropertyOp2
 70
     1
102
RTVSPropertyOp3
 70
     1
102
RTVSPropertyOp4
 70
     1
102
RTVSPropertyOp5
 70
     1
102
RTVSPropertyOp6
 70
     1
102
RTVSPropertyOp7
 70
     1
102
RTVSPropertyOp8
 70
     1
102
RTVSPropertyOp9
 70
     1
102
RTVSPropertyOp10
 70
     1
102
RTVSPropertyOp11
 70
     1
102
RTVSPropertyOp12
 70
     1
102
RTVSPropertyOp13
 70
     1
102
RTVSPropertyOp14
 70
     1
102
RTVSPropertyOp15
 70
     1
102
RTVSPropertyOp16
 70
     1
102
RTVSPropertyOp17
 70
     1
102
RTVSPropertyOp18
 70
     1
102
RTVSPropertyOp19
 70
     1
102
RTVSPropertyOp20
 70
     1
102
RTVSPropertyOp21
 70
     1
102
RTVSPropertyOp22
 70
     1
102
RTVSPropertyOp23
 70
     1
102
RTVSPropertyOp24
 70
     1
102
RTVSPropertyOp25
 70
     1
102
RTVSPropertyOp26
 70
     1
102
RTVSPropertyOp27
 70
     1
102
RTVSPropertyOp28
 70
     1
102
RTVSPropertyOp29
 70
     1
102
RTVSPropertyOp30
 70
     1
102
RTVSPropertyOp31
 70
     1
102
RTVSPropertyOp32
 70
     1
102
RTVSPropertyOp33
 70
     1
102
RTVSPropertyOp34
 70
     1
102
RTVSPropertyOp35
 70
     1
102
RTVSPropertyOp36
 70
     1
102
RTVSPropertyOp37
 70
     1
102
RTVSPropertyOp38
 70
     1
102
RTVSPropertyOp39
 70
     1
102
RTVSPropertyOp40
 70
     1
102
RTVSPropertyOp41
 70
     1
102
RTVSPropertyOp42
 70
     1
102
RTVSPropertyOp43
 70
     1
102
RTVSPropertyOp44
 70
     1
102
RTVSPropertyOp45
 70
     1
102
RTVSPropertyOp46
 70
     1
102
RTVSPropertyOp47
 70
     1
102
RTVSPropertyOp48
 70
     1
102
RTVSPropertyOp49
 70
     1
102
RTVSPropertyOp50
 70
     1
102
RTVSPropertyOp51
 70
     0
102
RTVSPropertyOp52
 70
     0
102
RTVSPropertyOp53
 70
     1
102
RTVSPropertyOp54
 70
     1
102
RTVSPropertyOp55
 70
     1
102
RTVSPropertyOp56
 70
     1
102
RTVSPropertyOp57
 70
     1
102
RTVSPost2010Prop28
280
     0
102
RTVSPost2010PropOp28
 70
     1
102
RTVSPost2010Prop29
280
     1
102
RTVSPost2010PropOp29
 70
     1
102
RTVSPost2010Prop30
280
     1
102
RTVSPost2010PropOp30
 70
     1
102
RTVSPost2010Prop31
280
     0
102
RTVSPost2010PropOp31
 70
     1
102
RTVSPost2010Prop32
280
     0
102
RTVSPost2010PropOp32
 70
     1
102
RTVSPost2010Prop33
280
     0
102
RTVSPost2010PropOp33
 70
     1
102
RTVSPost2010Prop34
280
     0
102
RTVSPost2010PropOp34
 70
     1
102
RTVSPost2010Prop35
280
     0
102
RTVSPost2010PropOp35
 70
     1
102
RTVSPost2010Prop36
280
     0
102
RTVSPost2010PropOp36
 70
     1
102
RTVSPost2010Prop37
 90
       50
102
RTVSPost2010PropOp37
 70
     1
102
RTVSPost2010Prop38
140
0.0
102
RTVSPost2010PropOp38
 70
     1
102
RTVSPost2010Prop39
140
1.0
102
RTVSPost2010PropOp39
 70
     1
102
RTVSPost2010Prop40
 90
        0
102
RTVSPost2010PropOp40
 70
     1
102
RTVSPost2010Prop41ColorIndex
 90
       18
102
RTVSPost2010Prop41ColorRGB
 90
        0
102
RTVSPost2010PropOp41
 70
     1
102
RTVSPost2010Prop42
 90
       50
102
RTVSPost2010PropOp42
 70
     1
102
RTVSPost2010Prop43
 90
        3
102
RTVSPost2010PropOp43
 70
     1
102
RTVSPost2010Prop44ColorIndex
 90
        5
102
RTVSPost2010Prop44ColorRGB
 90
      255
102
RTVSPost2010PropOp44
 70
     1
102
RTVSPost2010Prop45
280
     0
102
RTVSPost2010PropOp45
 70
     1
102
RTVSPost2010Prop46
 90
       50
102
RTVSPost2010PropOp46
 70
     1
102
RTVSPost2010Prop47
 90
       50
102
RTVSPost2010PropOp47
 70
     1
102
RTVSPost2010Prop48
 90
       50
102
RTVSPost2010PropOp48
 70
     1
102
RTVSPost2010Prop49
280
     0
102
RTVSPost2010PropOp49
 70
     1
102
RTVSPost2010Prop50
 90
       50
102
RTVSPost2010PropOp50
 70
     1
102
RTVSPost2010Prop51ColorIndex
 90
      256
102
RTVSPost2010Prop51ColorRGB
 90
-16777216
102
RTVSPost2010PropOp51
 70
     0
102
RTVSPost2010Prop52
140
1.0
102
RTVSPost2010PropOp52
 70
     0
102
RTVSPost2010Prop53
 90
        2
102
RTVSPost2010PropOp53
 70
     1
102
RTVSPost2010Prop54
  1
strokes_ogs.tif
102
RTVSPost2010PropOp54
 70
     1
102
RTVSPost2010Prop55
280
     0
102
RTVSPost2010PropOp55
 70
     1
102
RTVSPost2010Prop56
140
1.0
102
RTVSPost2010PropOp56
 70
     1
102
RTVSPost2010Prop57
140
1.0
102
RTVSPost2010PropOp57
 70
     1
  0
XRECORD
  5
72D
102
{ACAD_REACTORS
330
72C
102
}
330
72C
100
AcDbXrecord
280
     1
102
RTVSPropertyOp0
 70
     1
102
RTVSPropertyOp1
 70
     1
102
RTVSPropertyOp2
 70
     1
102
RTVSPropertyOp3
 70
     1
102
RTVSPropertyOp4
 70
     1
102
RTVSPropertyOp5
 70
     1
102
RTVSPropertyOp6
 70
     1
102
RTVSPropertyOp7
 70
     1
102
RTVSPropertyOp8
 70
     1
102
RTVSPropertyOp9
 70
     1
102
RTVSPropertyOp10
 70
     1
102
RTVSPropertyOp11
 70
     1
102
RTVSPropertyOp12
 70
     1
102
RTVSPropertyOp13
 70
     1
102
RTVSPropertyOp14
 70
     1
102
RTVSPropertyOp15
 70
     1
102
RTVSPropertyOp16
 70
     1
102
RTVSPropertyOp17
 70
     1
102
RTVSPropertyOp18
 70
     1
102
RTVSPropertyOp19
 70
     1
102
RTVSPropertyOp20
 70
     1
102
RTVSPropertyOp21
 70
     1
102
RTVSPropertyOp22
 70
     1
102
RTVSPropertyOp23
 70
     1
102
RTVSPropertyOp24
 70
     1
102
RTVSPropertyOp25
 70
     1
102
RTVSPropertyOp26
 70
     1
102
RTVSPropertyOp27
 70
     1
102
RTVSPropertyOp28
 70
     1
102
RTVSPropertyOp29
 70
     1
102
RTVSPropertyOp30
 70
     1
102
RTVSPropertyOp31
 70
     1
102
RTVSPropertyOp32
 70
     1
102
RTVSPropertyOp33
 70
     1
102
RTVSPropertyOp34
 70
     1
102
RTVSPropertyOp35
 70
     1
102
RTVSPropertyOp36
 70
     1
102
RTVSPropertyOp37
 70
     1
102
RTVSPropertyOp38
 70
     1
102
RTVSPropertyOp39
 70
     1
102
RTVSPropertyOp40
 70
     1
102
RTVSPropertyOp41
 70
     1
102
RTVSPropertyOp42
 70
     1
102
RTVSPropertyOp43
 70
     1
102
RTVSPropertyOp44
 70
     1
102
RTVSPropertyOp45
 70
     1
102
RTVSPropertyOp46
 70
     1
102
RTVSPropertyOp47
 70
     1
102
RTVSPropertyOp48
 70
     1
102
RTVSPropertyOp49
 70
     1
102
RTVSPropertyOp50
 70
     1
102
RTVSPropertyOp51
 70
     0
102
RTVSPropertyOp52
 70
     0
102
RTVSPropertyOp53
 70
     1
102
RTVSPropertyOp54
 70
     1
102
RTVSPropertyOp55
 70
     1
102
RTVSPropertyOp56
 70
     1
102
RTVSPropertyOp57
 70
     1
102
RTVSPost2010Prop28
280
     0
102
RTVSPost2010PropOp28
 70
     1
102
RTVSPost2010Prop29
280
     1
102
RTVSPost2010PropOp29
 70
     1
102
RTVSPost2010Prop30
280
     1
102
RTVSPost2010PropOp30
 70
     1
102
RTVSPost2010Prop31
280
     0
102
RTVSPost2010PropOp31
 70
     1
102
RTVSPost2010Prop32
280
     0
102
RTVSPost2010PropOp32
 70
     1
102
RTVSPost2010Prop33
280
     0
102
RTVSPost2010PropOp33
 70
     1
102
RTVSPost2010Prop34
280
     0
102
RTVSPost2010PropOp34
 70
     1
102
RTVSPost2010Prop35
280
     0
102
RTVSPost2010PropOp35
 70
     1
102
RTVSPost2010Prop36
280
     0
102
RTVSPost2010PropOp36
 70
     1
102
RTVSPost2010Prop37
 90
       50
102
RTVSPost2010PropOp37
 70
     1
102
RTVSPost2010Prop38
140
0.0
102
RTVSPost2010PropOp38
 70
     1
102
RTVSPost2010Prop39
140
1.0
102
RTVSPost2010PropOp39
 70
     1
102
RTVSPost2010Prop40
 90
        0
102
RTVSPost2010PropOp40
 70
     1
102
RTVSPost2010Prop41ColorIndex
 90
       18
102
RTVSPost2010Prop41ColorRGB
 90
        0
102
RTVSPost2010PropOp41
 70
     1
102
RTVSPost2010Prop42
 90
       50
102
RTVSPost2010PropOp42
 70
     1
102
RTVSPost2010Prop43
 90
        3
102
RTVSPost2010PropOp43
 70
     1
102
RTVSPost2010Prop44ColorIndex
 90
        5
102
RTVSPost2010Prop44ColorRGB
 90
      255
102
RTVSPost2010PropOp44
 70
     1
102
RTVSPost2010Prop45
280
     0
102
RTVSPost2010PropOp45
 70
     1
102
RTVSPost2010Prop46
 90
       50
102
RTVSPost2010PropOp46
 70
     1
102
RTVSPost2010Prop47
 90
       50
102
RTVSPost2010PropOp47
 70
     1
102
RTVSPost2010Prop48
 90
       50
102
RTVSPost2010PropOp48
 70
     1
102
RTVSPost2010Prop49
280
     0
102
RTVSPost2010PropOp49
 70
     1
102
RTVSPost2010Prop50
 90
       50
102
RTVSPost2010PropOp50
 70
     1
102
RTVSPost2010Prop51ColorIndex
 90
      256
102
RTVSPost2010Prop51ColorRGB
 90
-16777216
102
RTVSPost2010PropOp51
 70
     0
102
RTVSPost2010Prop52
140
1.0
102
RTVSPost2010PropOp52
 70
     0
102
RTVSPost2010Prop53
 90
        2
102
RTVSPost2010PropOp53
 70
     1
102
RTVSPost2010Prop54
  1
strokes_ogs.tif
102
RTVSPost2010PropOp54
 70
     1
102
RTVSPost2010Prop55
280
     0
102
RTVSPost2010PropOp55
 70
     1
102
RTVSPost2010Prop56
140
1.0
102
RTVSPost2010PropOp56
 70
     1
102
RTVSPost2010Prop57
140
1.0
102
RTVSPost2010PropOp57
 70
     1
  0
XRECORD
  5
723
102
{ACAD_REACTORS
330
722
102
}
330
722
100
AcDbXrecord
280
     1
102
RTVSPropertyOp0
 70
     1
102
RTVSPropertyOp1
 70
     1
102
RTVSPropertyOp2
 70
     1
102
RTVSPropertyOp3
 70
     1
102
RTVSPropertyOp4
 70
     1
102
RTVSPropertyOp5
 70
     1
102
RTVSPropertyOp6
 70
     1
102
RTVSPropertyOp7
 70
     1
102
RTVSPropertyOp8
 70
     1
102
RTVSPropertyOp9
 70
     1
102
RTVSPropertyOp10
 70
     1
102
RTVSPropertyOp11
 70
     1
102
RTVSPropertyOp12
 70
     1
102
RTVSPropertyOp13
 70
     1
102
RTVSPropertyOp14
 70
     1
102
RTVSPropertyOp15
 70
     1
102
RTVSPropertyOp16
 70
     1
102
RTVSPropertyOp17
 70
     1
102
RTVSPropertyOp18
 70
     1
102
RTVSPropertyOp19
 70
     1
102
RTVSPropertyOp20
 70
     1
102
RTVSPropertyOp21
 70
     1
102
RTVSPropertyOp22
 70
     1
102
RTVSPropertyOp23
 70
     1
102
RTVSPropertyOp24
 70
     1
102
RTVSPropertyOp25
 70
     1
102
RTVSPropertyOp26
 70
     1
102
RTVSPropertyOp27
 70
     1
102
RTVSPropertyOp28
 70
     1
102
RTVSPropertyOp29
 70
     1
102
RTVSPropertyOp30
 70
     1
102
RTVSPropertyOp31
 70
     1
102
RTVSPropertyOp32
 70
     1
102
RTVSPropertyOp33
 70
     1
102
RTVSPropertyOp34
 70
     1
102
RTVSPropertyOp35
 70
     1
102
RTVSPropertyOp36
 70
     1
102
RTVSPropertyOp37
 70
     1
102
RTVSPropertyOp38
 70
     1
102
RTVSPropertyOp39
 70
     1
102
RTVSPropertyOp40
 70
     1
102
RTVSPropertyOp41
 70
     1
102
RTVSPropertyOp42
 70
     1
102
RTVSPropertyOp43
 70
     1
102
RTVSPropertyOp44
 70
     1
102
RTVSPropertyOp45
 70
     1
102
RTVSPropertyOp46
 70
     1
102
RTVSPropertyOp47
 70
     1
102
RTVSPropertyOp48
 70
     1
102
RTVSPropertyOp49
 70
     1
102
RTVSPropertyOp50
 70
     1
102
RTVSPropertyOp51
 70
     0
102
RTVSPropertyOp52
 70
     0
102
RTVSPropertyOp53
 70
     1
102
RTVSPropertyOp54
 70
     1
102
RTVSPropertyOp55
 70
     1
102
RTVSPropertyOp56
 70
     1
102
RTVSPropertyOp57
 70
     1
102
RTVSPost2010Prop28
280
     0
102
RTVSPost2010PropOp28
 70
     1
102
RTVSPost2010Prop29
280
     1
102
RTVSPost2010PropOp29
 70
     1
102
RTVSPost2010Prop30
280
     1
102
RTVSPost2010PropOp30
 70
     1
102
RTVSPost2010Prop31
280
     0
102
RTVSPost2010PropOp31
 70
     1
102
RTVSPost2010Prop32
280
     0
102
RTVSPost2010PropOp32
 70
     1
102
RTVSPost2010Prop33
280
     0
102
RTVSPost2010PropOp33
 70
     1
102
RTVSPost2010Prop34
280
     0
102
RTVSPost2010PropOp34
 70
     1
102
RTVSPost2010Prop35
280
     0
102
RTVSPost2010PropOp35
 70
     1
102
RTVSPost2010Prop36
280
     0
102
RTVSPost2010PropOp36
 70
     1
102
RTVSPost2010Prop37
 90
       50
102
RTVSPost2010PropOp37
 70
     1
102
RTVSPost2010Prop38
140
0.0
102
RTVSPost2010PropOp38
 70
     1
102
RTVSPost2010Prop39
140
1.0
102
RTVSPost2010PropOp39
 70
     1
102
RTVSPost2010Prop40
 90
        0
102
RTVSPost2010PropOp40
 70
     1
102
RTVSPost2010Prop41ColorIndex
 90
       18
102
RTVSPost2010Prop41ColorRGB
 90
        0
102
RTVSPost2010PropOp41
 70
     1
102
RTVSPost2010Prop42
 90
       50
102
RTVSPost2010PropOp42
 70
     1
102
RTVSPost2010Prop43
 90
        3
102
RTVSPost2010PropOp43
 70
     1
102
RTVSPost2010Prop44ColorIndex
 90
        5
102
RTVSPost2010Prop44ColorRGB
 90
      255
102
RTVSPost2010PropOp44
 70
     1
102
RTVSPost2010Prop45
280
     0
102
RTVSPost2010PropOp45
 70
     1
102
RTVSPost2010Prop46
 90
       50
102
RTVSPost2010PropOp46
 70
     1
102
RTVSPost2010Prop47
 90
       50
102
RTVSPost2010PropOp47
 70
     1
102
RTVSPost2010Prop48
 90
       50
102
RTVSPost2010PropOp48
 70
     1
102
RTVSPost2010Prop49
280
     0
102
RTVSPost2010PropOp49
 70
     1
102
RTVSPost2010Prop50
 90
       50
102
RTVSPost2010PropOp50
 70
     1
102
RTVSPost2010Prop51ColorIndex
 90
      256
102
RTVSPost2010Prop51ColorRGB
 90
-16777216
102
RTVSPost2010PropOp51
 70
     0
102
RTVSPost2010Prop52
140
1.0
102
RTVSPost2010PropOp52
 70
     0
102
RTVSPost2010Prop53
 90
        2
102
RTVSPost2010PropOp53
 70
     1
102
RTVSPost2010Prop54
  1
strokes_ogs.tif
102
RTVSPost2010PropOp54
 70
     1
102
RTVSPost2010Prop55
280
     0
102
RTVSPost2010PropOp55
 70
     1
102
RTVSPost2010Prop56
140
1.0
102
RTVSPost2010PropOp56
 70
     1
102
RTVSPost2010Prop57
140
1.0
102
RTVSPost2010PropOp57
 70
     1
  0
XRECORD
  5
72B
102
{ACAD_REACTORS
330
72A
102
}
330
72A
100
AcDbXrecord
280
     1
102
RTVSPropertyOp0
 70
     1
102
RTVSPropertyOp1
 70
     1
102
RTVSPropertyOp2
 70
     1
102
RTVSPropertyOp3
 70
     1
102
RTVSPropertyOp4
 70
     1
102
RTVSPropertyOp5
 70
     1
102
RTVSPropertyOp6
 70
     1
102
RTVSPropertyOp7
 70
     1
102
RTVSPropertyOp8
 70
     1
102
RTVSPropertyOp9
 70
     1
102
RTVSPropertyOp10
 70
     1
102
RTVSPropertyOp11
 70
     1
102
RTVSPropertyOp12
 70
     1
102
RTVSPropertyOp13
 70
     1
102
RTVSPropertyOp14
 70
     1
102
RTVSPropertyOp15
 70
     1
102
RTVSPropertyOp16
 70
     1
102
RTVSPropertyOp17
 70
     1
102
RTVSPropertyOp18
 70
     1
102
RTVSPropertyOp19
 70
     1
102
RTVSPropertyOp20
 70
     1
102
RTVSPropertyOp21
 70
     1
102
RTVSPropertyOp22
 70
     1
102
RTVSPropertyOp23
 70
     1
102
RTVSPropertyOp24
 70
     1
102
RTVSPropertyOp25
 70
     1
102
RTVSPropertyOp26
 70
     1
102
RTVSPropertyOp27
 70
     1
102
RTVSPropertyOp28
 70
     1
102
RTVSPropertyOp29
 70
     1
102
RTVSPropertyOp30
 70
     1
102
RTVSPropertyOp31
 70
     1
102
RTVSPropertyOp32
 70
     1
102
RTVSPropertyOp33
 70
     1
102
RTVSPropertyOp34
 70
     1
102
RTVSPropertyOp35
 70
     1
102
RTVSPropertyOp36
 70
     1
102
RTVSPropertyOp37
 70
     1
102
RTVSPropertyOp38
 70
     1
102
RTVSPropertyOp39
 70
     1
102
RTVSPropertyOp40
 70
     1
102
RTVSPropertyOp41
 70
     1
102
RTVSPropertyOp42
 70
     1
102
RTVSPropertyOp43
 70
     1
102
RTVSPropertyOp44
 70
     1
102
RTVSPropertyOp45
 70
     1
102
RTVSPropertyOp46
 70
     1
102
RTVSPropertyOp47
 70
     1
102
RTVSPropertyOp48
 70
     1
102
RTVSPropertyOp49
 70
     1
102
RTVSPropertyOp50
 70
     1
102
RTVSPropertyOp51
 70
     0
102
RTVSPropertyOp52
 70
     0
102
RTVSPropertyOp53
 70
     1
102
RTVSPropertyOp54
 70
     1
102
RTVSPropertyOp55
 70
     1
102
RTVSPropertyOp56
 70
     1
102
RTVSPropertyOp57
 70
     1
102
RTVSPost2010Prop28
280
     0
102
RTVSPost2010PropOp28
 70
     1
102
RTVSPost2010Prop29
280
     1
102
RTVSPost2010PropOp29
 70
     1
102
RTVSPost2010Prop30
280
     1
102
RTVSPost2010PropOp30
 70
     1
102
RTVSPost2010Prop31
280
     0
102
RTVSPost2010PropOp31
 70
     1
102
RTVSPost2010Prop32
280
     0
102
RTVSPost2010PropOp32
 70
     1
102
RTVSPost2010Prop33
280
     0
102
RTVSPost2010PropOp33
 70
     1
102
RTVSPost2010Prop34
280
     0
102
RTVSPost2010PropOp34
 70
     1
102
RTVSPost2010Prop35
280
     0
102
RTVSPost2010PropOp35
 70
     1
102
RTVSPost2010Prop36
280
     0
102
RTVSPost2010PropOp36
 70
     1
102
RTVSPost2010Prop37
 90
       50
102
RTVSPost2010PropOp37
 70
     1
102
RTVSPost2010Prop38
140
0.0
102
RTVSPost2010PropOp38
 70
     1
102
RTVSPost2010Prop39
140
1.0
102
RTVSPost2010PropOp39
 70
     1
102
RTVSPost2010Prop40
 90
        0
102
RTVSPost2010PropOp40
 70
     1
102
RTVSPost2010Prop41ColorIndex
 90
       18
102
RTVSPost2010Prop41ColorRGB
 90
        0
102
RTVSPost2010PropOp41
 70
     1
102
RTVSPost2010Prop42
 90
       50
102
RTVSPost2010PropOp42
 70
     1
102
RTVSPost2010Prop43
 90
        3
102
RTVSPost2010PropOp43
 70
     1
102
RTVSPost2010Prop44ColorIndex
 90
        5
102
RTVSPost2010Prop44ColorRGB
 90
      255
102
RTVSPost2010PropOp44
 70
     1
102
RTVSPost2010Prop45
280
     0
102
RTVSPost2010PropOp45
 70
     1
102
RTVSPost2010Prop46
 90
       50
102
RTVSPost2010PropOp46
 70
     1
102
RTVSPost2010Prop47
 90
       50
102
RTVSPost2010PropOp47
 70
     1
102
RTVSPost2010Prop48
 90
       50
102
RTVSPost2010PropOp48
 70
     1
102
RTVSPost2010Prop49
280
     0
102
RTVSPost2010PropOp49
 70
     1
102
RTVSPost2010Prop50
 90
       50
102
RTVSPost2010PropOp50
 70
     1
102
RTVSPost2010Prop51ColorIndex
 90
      256
102
RTVSPost2010Prop51ColorRGB
 90
-16777216
102
RTVSPost2010PropOp51
 70
     0
102
RTVSPost2010Prop52
140
1.0
102
RTVSPost2010PropOp52
 70
     0
102
RTVSPost2010Prop53
 90
        2
102
RTVSPost2010PropOp53
 70
     1
102
RTVSPost2010Prop54
  1
strokes_ogs.tif
102
RTVSPost2010PropOp54
 70
     1
102
RTVSPost2010Prop55
280
     0
102
RTVSPost2010PropOp55
 70
     1
102
RTVSPost2010Prop56
140
1.0
102
RTVSPost2010PropOp56
 70
     1
102
RTVSPost2010Prop57
140
1.0
102
RTVSPost2010PropOp57
 70
     1
  0
ENDSEC
  0
EOF
