  0
SECTION
  2
HEADER
  9
$ACADVER
  1
AC1018
  9
$ACADMAINTVER
 70
     0
  9
$DWGCODEPAGE
  3
ANSI_936
  9
$INSBASE
 10
0.0
 20
0.0
 30
0.0
  9
$EXTMIN
 10
-0.0000000021431003
 20
949.6807064562169
 30
0.0
  9
$EXTMAX
 10
315.0000000021431
 20
1025.032577058933
 30
0.0
  9
$LIMMIN
 10
0.0
 20
0.0
  9
$LIMMAX
 10
12.0
 20
9.0
  9
$ORTHOMODE
 70
     0
  9
$REGENMODE
 70
     1
  9
$FILLMODE
 70
     1
  9
$QTEXTMODE
 70
     0
  9
$MIRRTEXT
 70
     1
  9
$LTSCALE
 40
1.0
  9
$ATTMODE
 70
     1
  9
$TEXTSIZE
 40
0.2
  9
$TRACEWID
 40
0.05
  9
$TEXTSTYLE
  7
Standard
  9
$CLAYER
  8
E9096
  9
$CELTYPE
  6
ByLayer
  9
$CECOLOR
 62
   256
  9
$CELTSCALE
 40
1.0
  9
$DISPSILH
 70
     0
  9
$DIMSCALE
 40
1.0
  9
$DIMASZ
 40
0.18
  9
$DIMEXO
 40
0.0625
  9
$DIMDLI
 40
0.38
  9
$DIMRND
 40
0.0
  9
$DIMDLE
 40
0.0
  9
$DIMEXE
 40
0.18
  9
$DIMTP
 40
0.0
  9
$DIMTM
 40
0.0
  9
$DIMTXT
 40
0.18
  9
$DIMCEN
 40
0.09
  9
$DIMTSZ
 40
0.0
  9
$DIMTOL
 70
     0
  9
$DIMLIM
 70
     0
  9
$DIMTIH
 70
     1
  9
$DIMTOH
 70
     1
  9
$DIMSE1
 70
     0
  9
$DIMSE2
 70
     0
  9
$DIMTAD
 70
     0
  9
$DIMZIN
 70
     0
  9
$DIMBLK
  1

  9
$DIMASO
 70
     1
  9
$DIMSHO
 70
     1
  9
$DIMPOST
  1

  9
$DIMAPOST
  1

  9
$DIMALT
 70
     0
  9
$DIMALTD
 70
     2
  9
$DIMALTF
 40
25.4
  9
$DIMLFAC
 40
1.0
  9
$DIMTOFL
 70
     0
  9
$DIMTVP
 40
0.0
  9
$DIMTIX
 70
     0
  9
$DIMSOXD
 70
     0
  9
$DIMSAH
 70
     0
  9
$DIMBLK1
  1

  9
$DIMBLK2
  1

  9
$DIMSTYLE
  2
Standard
  9
$DIMCLRD
 70
     0
  9
$DIMCLRE
 70
     0
  9
$DIMCLRT
 70
     0
  9
$DIMTFAC
 40
1.0
  9
$DIMGAP
 40
0.09
  9
$DIMJUST
 70
     0
  9
$DIMSD1
 70
     0
  9
$DIMSD2
 70
     0
  9
$DIMTOLJ
 70
     1
  9
$DIMTZIN
 70
     0
  9
$DIMALTZ
 70
     0
  9
$DIMALTTZ
 70
     0
  9
$DIMUPT
 70
     0
  9
$DIMDEC
 70
     4
  9
$DIMTDEC
 70
     4
  9
$DIMALTU
 70
     2
  9
$DIMALTTD
 70
     2
  9
$DIMTXSTY
  7
Standard
  9
$DIMAUNIT
 70
     0
  9
$DIMADEC
 70
     0
  9
$DIMALTRND
 40
0.0
  9
$DIMAZIN
 70
     0
  9
$DIMDSEP
 70
    46
  9
$DIMATFIT
 70
     3
  9
$DIMFRAC
 70
     0
  9
$DIMLDRBLK
  1

  9
$DIMLUNIT
 70
     2
  9
$DIMLWD
 70
    -2
  9
$DIMLWE
 70
    -2
  9
$DIMTMOVE
 70
     2
  9
$LUNITS
 70
     2
  9
$LUPREC
 70
     2
  9
$SKETCHINC
 40
0.1
  9
$FILLETRAD
 40
0.5
  9
$AUNITS
 70
     0
  9
$AUPREC
 70
     0
  9
$MENU
  1
.
  9
$ELEVATION
 40
0.0
  9
$PELEVATION
 40
0.0
  9
$THICKNESS
 40
0.0
  9
$LIMCHECK
 70
     0
  9
$CHAMFERA
 40
0.5
  9
$CHAMFERB
 40
0.5
  9
$CHAMFERC
 40
1.0
  9
$CHAMFERD
 40
0.0
  9
$SKPOLY
 70
     0
  9
$TDCREATE
 40
2456723.853112245
  9
$TDUCREATE
 40
2456723.519778912
  9
$TDUPDATE
 40
2456723.853123252
  9
$TDUUPDATE
 40
2456723.519789919
  9
$TDINDWG
 40
0.0000000116
  9
$TDUSRTIMER
 40
0.0000000116
  9
$USRTIMER
 70
     1
  9
$ANGBASE
 50
0.0
  9
$ANGDIR
 70
     0
  9
$PDMODE
 70
     0
  9
$PDSIZE
 40
0.0
  9
$PLINEWID
 40
0.0
  9
$SPLFRAME
 70
     0
  9
$SPLINETYPE
 70
     6
  9
$SPLINESEGS
 70
     8
  9
$HANDSEED
  5
563
  9
$SURFTAB1
 70
     6
  9
$SURFTAB2
 70
     6
  9
$SURFTYPE
 70
     6
  9
$SURFU
 70
     6
  9
$SURFV
 70
     6
  9
$UCSBASE
  2

  9
$UCSNAME
  2

  9
$UCSORG
 10
0.0
 20
0.0
 30
0.0
  9
$UCSXDIR
 10
1.0
 20
0.0
 30
0.0
  9
$UCSYDIR
 10
0.0
 20
1.0
 30
0.0
  9
$UCSORTHOREF
  2

  9
$UCSORTHOVIEW
 70
     0
  9
$UCSORGTOP
 10
0.0
 20
0.0
 30
0.0
  9
$UCSORGBOTTOM
 10
0.0
 20
0.0
 30
0.0
  9
$UCSORGLEFT
 10
0.0
 20
0.0
 30
0.0
  9
$UCSORGRIGHT
 10
0.0
 20
0.0
 30
0.0
  9
$UCSORGFRONT
 10
0.0
 20
0.0
 30
0.0
  9
$UCSORGBACK
 10
0.0
 20
0.0
 30
0.0
  9
$PUCSBASE
  2

  9
$PUCSNAME
  2

  9
$PUCSORG
 10
0.0
 20
0.0
 30
0.0
  9
$PUCSXDIR
 10
1.0
 20
0.0
 30
0.0
  9
$PUCSYDIR
 10
0.0
 20
1.0
 30
0.0
  9
$PUCSORTHOREF
  2

  9
$PUCSORTHOVIEW
 70
     0
  9
$PUCSORGTOP
 10
0.0
 20
0.0
 30
0.0
  9
$PUCSORGBOTTOM
 10
0.0
 20
0.0
 30
0.0
  9
$PUCSORGLEFT
 10
0.0
 20
0.0
 30
0.0
  9
$PUCSORGRIGHT
 10
0.0
 20
0.0
 30
0.0
  9
$PUCSORGFRONT
 10
0.0
 20
0.0
 30
0.0
  9
$PUCSORGBACK
 10
0.0
 20
0.0
 30
0.0
  9
$USERI1
 70
     0
  9
$USERI2
 70
     0
  9
$USERI3
 70
     0
  9
$USERI4
 70
     0
  9
$USERI5
 70
     0
  9
$USERR1
 40
0.0
  9
$USERR2
 40
0.0
  9
$USERR3
 40
0.0
  9
$USERR4
 40
0.0
  9
$USERR5
 40
0.0
  9
$WORLDVIEW
 70
     1
  9
$SHADEDGE
 70
     3
  9
$SHADEDIF
 70
    70
  9
$TILEMODE
 70
     1
  9
$MAXACTVP
 70
    64
  9
$PINSBASE
 10
0.0
 20
0.0
 30
0.0
  9
$PLIMCHECK
 70
     0
  9
$PEXTMIN
 10
1.000000000000000E+20
 20
1.000000000000000E+20
 30
1.000000000000000E+20
  9
$PEXTMAX
 10
-1.000000000000000E+20
 20
-1.000000000000000E+20
 30
-1.000000000000000E+20
  9
$PLIMMIN
 10
0.0
 20
0.0
  9
$PLIMMAX
 10
12.0
 20
9.0
  9
$UNITMODE
 70
     0
  9
$VISRETAIN
 70
     1
  9
$PLINEGEN
 70
     0
  9
$PSLTSCALE
 70
     1
  9
$TREEDEPTH
 70
  3020
  9
$CMLSTYLE
  2
Standard
  9
$CMLJUST
 70
     0
  9
$CMLSCALE
 40
1.0
  9
$PROXYGRAPHICS
 70
     1
  9
$MEASUREMENT
 70
     0
  9
$CELWEIGHT
370
    -1
  9
$ENDCAPS
280
     0
  9
$JOINSTYLE
280
     0
  9
$LWDISPLAY
290
     0
  9
$INSUNITS
 70
     4
  9
$HYPERLINKBASE
  1

  9
$STYLESHEET
  1

  9
$XEDIT
290
     1
  9
$CEPSNTYPE
380
     0
  9
$PSTYLEMODE
290
     1
  9
$FINGERPRINTGUID
  2
{7091642D-4ACE-43C1-9D50-DA31BBF86A5A}
  9
$VERSIONGUID
  2
{FAEB1C32-E019-11D5-929B-00C0DF256EC4}
  9
$EXTNAMES
290
     1
  9
$PSVPSCALE
 40
0.0
  9
$OLESTARTUP
290
     0
  9
$SORTENTS
280
   127
  9
$INDEXCTL
280
     0
  9
$HIDETEXT
280
     1
  9
$XCLIPFRAME
290
     0
  9
$HALOGAP
280
     0
  9
$OBSCOLOR
 70
   257
  9
$OBSLTYPE
280
     0
  9
$INTERSECTIONDISPLAY
280
     0
  9
$INTERSECTIONCOLOR
 70
   257
  9
$DIMASSOC
280
     2
  9
$PROJECTNAME
  1

  0
ENDSEC
  0
SECTION
  2
CLASSES
  0
CLASS
  1
ACDBDICTIONARYWDFLT
  2
AcDbDictionaryWithDefault
  3
ObjectDBX Classes
 90
        0
 91
        4
280
     0
281
     0
  0
CLASS
  1
VISUALSTYLE
  2
AcDbVisualStyle
  3
ObjectDBX Classes
 90
     4095
 91
        4
280
     0
281
     0
  0
CLASS
  1
MATERIAL
  2
AcDbMaterial
  3
ObjectDBX Classes
 90
     1153
 91
        4
280
     0
281
     0
  0
CLASS
  1
SCALE
  2
AcDbScale
  3
ObjectDBX Classes
 90
     1153
 91
        4
280
     0
281
     0
  0
CLASS
  1
SUN
  2
AcDbSun
  3
SCENEOE
 90
     1153
 91
        4
280
     0
281
     0
  0
CLASS
  1
DICTIONARYVAR
  2
AcDbDictionaryVar
  3
ObjectDBX Classes
 90
        0
 91
        4
280
     0
281
     0
  0
ENDSEC
  0
SECTION
  2
TABLES
  0
TABLE
  2
VPORT
  5
8
330
0
100
AcDbSymbolTable
 70
     1
  0
VPORT
  5
29
330
8
100
AcDbSymbolTableRecord
100
AcDbViewportTableRecord
  2
*Active
 70
     0
 10
0.0
 20
0.0
 11
1.0
 21
1.0
 12
157.4999999999999
 22
987.3566417575751
 13
0.0
 23
0.0
 14
0.5
 24
0.5
 15
0.5
 25
0.5
 16
0.0
 26
0.0
 36
1.0
 17
0.0
 27
0.0
 37
0.0
 40
76.85890801477098
 41
4.180387261529289
 42
50.0
 43
0.0
 44
0.0
 50
0.0
 51
0.0
 71
     0
 72
   100
 73
     1
 74
     3
 75
     0
 76
     0
 77
     0
 78
     0
281
     0
 65
     1
110
0.0
120
0.0
130
0.0
111
1.0
121
0.0
131
0.0
112
0.0
122
1.0
132
0.0
 79
     0
146
0.0
  0
ENDTAB
  0
TABLE
  2
LTYPE
  5
5
330
0
100
AcDbSymbolTable
 70
     1
  0
LTYPE
  5
14
330
5
100
AcDbSymbolTableRecord
100
AcDbLinetypeTableRecord
  2
ByBlock
 70
     0
  3

 72
    65
 73
     0
 40
0.0
  0
LTYPE
  5
15
330
5
100
AcDbSymbolTableRecord
100
AcDbLinetypeTableRecord
  2
ByLayer
 70
     0
  3

 72
    65
 73
     0
 40
0.0
  0
LTYPE
  5
16
330
5
100
AcDbSymbolTableRecord
100
AcDbLinetypeTableRecord
  2
Continuous
 70
     0
  3
Solid line
 72
    65
 73
     0
 40
0.0
  0
ENDTAB
  0
TABLE
  2
LAYER
  5
2
330
0
100
AcDbSymbolTable
 70
     3
  0
LAYER
  5
10
330
2
100
AcDbSymbolTableRecord
100
AcDbLayerTableRecord
  2
0
 70
     0
 62
     7
  6
Continuous
370
    -3
390
F
  0
LAYER
  5
62
330
2
100
AcDbSymbolTableRecord
100
AcDbLayerTableRecord
  2
Make2D$可见线$普通线
 70
     0
 62
    18
420
        0
  6
Continuous
370
    -3
390
F
  0
LAYER
  5
AE
330
2
100
AcDbSymbolTableRecord
100
AcDbLayerTableRecord
  2
E9096
 70
     0
 62
    18
420
        0
  6
Continuous
370
    -3
390
F
  0
ENDTAB
  0
TABLE
  2
STYLE
  5
3
330
0
100
AcDbSymbolTable
 70
     1
  0
STYLE
  5
11
330
3
100
AcDbSymbolTableRecord
100
AcDbTextStyleTableRecord
  2
Standard
 70
     0
 40
0.0
 41
1.0
 50
0.0
 71
     0
 42
0.2
  3
txt
  4

  0
ENDTAB
  0
TABLE
  2
VIEW
  5
6
330
0
100
AcDbSymbolTable
 70
     0
  0
ENDTAB
  0
TABLE
  2
UCS
  5
7
330
0
100
AcDbSymbolTable
 70
     0
  0
ENDTAB
  0
TABLE
  2
APPID
  5
9
330
0
100
AcDbSymbolTable
 70
     1
  0
APPID
  5
12
330
9
100
AcDbSymbolTableRecord
100
AcDbRegAppTableRecord
  2
ACAD
 70
     0
  0
ENDTAB
  0
TABLE
  2
DIMSTYLE
  5
A
330
0
100
AcDbSymbolTable
 70
     1
100
AcDbDimStyleTable
  0
DIMSTYLE
105
27
330
A
100
AcDbSymbolTableRecord
100
AcDbDimStyleTableRecord
  2
Standard
 70
     0
178
     0
340
11
  0
ENDTAB
  0
TABLE
  2
BLOCK_RECORD
  5
1
330
0
100
AcDbSymbolTable
 70
     1
  0
BLOCK_RECORD
  5
1F
330
1
100
AcDbSymbolTableRecord
100
AcDbBlockTableRecord
  2
*Model_Space
340
22
  0
BLOCK_RECORD
  5
1B
330
1
100
AcDbSymbolTableRecord
100
AcDbBlockTableRecord
  2
*Paper_Space
340
1E
  0
BLOCK_RECORD
  5
23
330
1
100
AcDbSymbolTableRecord
100
AcDbBlockTableRecord
  2
*Paper_Space0
340
26
  0
ENDTAB
  0
ENDSEC
  0
SECTION
  2
BLOCKS
  0
BLOCK
  5
20
330
1F
100
AcDbEntity
  8
0
100
AcDbBlockBegin
  2
*Model_Space
 70
     0
 10
0.0
 20
0.0
 30
0.0
  3
*Model_Space
  1
*Model_Space
  0
ENDBLK
  5
21
330
1F
100
AcDbEntity
  8
0
100
AcDbBlockEnd
  0
BLOCK
  5
1C
330
1B
100
AcDbEntity
 67
     1
  8
0
100
AcDbBlockBegin
  2
*Paper_Space
 70
     0
 10
0.0
 20
0.0
 30
0.0
  3
*Paper_Space
  1
*Paper_Space
  0
ENDBLK
  5
1D
330
1B
100
AcDbEntity
 67
     1
  8
0
100
AcDbBlockEnd
  0
BLOCK
  5
24
330
23
100
AcDbEntity
  8
0
100
AcDbBlockBegin
  2
*Paper_Space0
 70
     0
 10
0.0
 20
0.0
 30
0.0
  3
*Paper_Space0
  1
*Paper_Space0
  0
ENDBLK
  5
25
330
23
100
AcDbEntity
  8
0
100
AcDbBlockEnd
  0
ENDSEC
  0
SECTION
  2
ENTITIES
  0
POLYLINE
  5
63
330
1F
100
AcDbEntity
  8
Make2D$可见线$普通线
100
AcDb2dPolyline
 66
     1
 10
0.0
 20
0.0
 30
0.0
  0
VERTEX
  5
64
330
63
100
AcDbEntity
  8
Make2D$可见线$普通线
100
AcDbVertex
100
AcDb2dVertex
 10
167.1334775660718
 20
959.7506455332066
 30
0.0
 42
0.3628268633410254
  0
VERTEX
  5
65
330
63
100
AcDbEntity
  8
Make2D$可见线$普通线
100
AcDbVertex
100
AcDb2dVertex
 10
166.7186279364028
 20
959.2550586595507
 30
0.0
  0
VERTEX
  5
66
330
63
100
AcDbEntity
  8
Make2D$可见线$普通线
100
AcDbVertex
100
AcDb2dVertex
 10
166.7186279364031
 20
958.2449359770401
 30
0.0
 42
0.3589818407710424
  0
VERTEX
  5
67
330
63
100
AcDbEntity
  8
Make2D$可见线$普通线
100
AcDbVertex
100
AcDb2dVertex
 10
167.1319496570916
 20
957.7489157880813
 30
0.0
  0
SEQEND
  5
68
330
63
100
AcDbEntity
  8
Make2D$可见线$普通线
  0
POLYLINE
  5
69
330
1F
100
AcDbEntity
  8
Make2D$可见线$普通线
100
AcDb2dPolyline
 66
     1
 10
0.0
 20
0.0
 30
0.0
  0
VERTEX
  5
6A
330
69
100
AcDbEntity
  8
Make2D$可见线$普通线
100
AcDbVertex
100
AcDb2dVertex
 10
147.8665224335609
 20
959.7506455332721
 30
0.0
 42
-0.3628268635514305
  0
VERTEX
  5
6B
330
69
100
AcDbEntity
  8
Make2D$可见线$普通线
100
AcDbVertex
100
AcDb2dVertex
 10
148.2813720635971
 20
959.2550586595507
 30
0.0
  0
VERTEX
  5
6C
330
69
100
AcDbEntity
  8
Make2D$可见线$普通线
100
AcDbVertex
100
AcDb2dVertex
 10
148.2813720635971
 20
958.2449359770401
 30
0.0
 42
-0.3589818407703967
  0
VERTEX
  5
6D
330
69
100
AcDbEntity
  8
Make2D$可见线$普通线
100
AcDbVertex
100
AcDb2dVertex
 10
147.8680503429083
 20
957.7489157880811
 30
0.0
  0
SEQEND
  5
6E
330
69
100
AcDbEntity
  8
Make2D$可见线$普通线
  0
ARC
  5
6F
330
1F
100
AcDbEntity
  8
Make2D$可见线$普通线
100
AcDbCircle
 10
147.0135170991225
 20
951.5567074600048
 30
0.0
 40
0.4872838700220317
100
AcDbArc
 50
297.024264398491
 51
70.44051815477346
  0
ARC
  5
70
330
1F
100
AcDbEntity
  8
Make2D$可见线$普通线
100
AcDbCircle
 10
167.9858453410527
 20
954.0248324808684
 30
0.0
 40
0.4870475002089549
100
AcDbArc
 50
119.480945258908
 51
250.7400854599522
  0
ARC
  5
71
330
1F
100
AcDbEntity
  8
Make2D$可见线$普通线
100
AcDbCircle
 10
167.9870865000048
 20
952.3810371424543
 30
0.0
 40
0.4875686538398597
100
AcDbArc
 50
119.3853832314166
 51
250.7152701571269
  0
SPLINE
  5
72
330
1F
100
AcDbEntity
  8
Make2D$可见线$普通线
100
AcDbSpline
210
0.0
220
0.0
230
1.0
 70
     8
 71
     3
 72
    14
 73
    10
 74
     0
 42
0.000000001
 43
0.0000000001
 12
1.0
 22
0.0
 32
0.0
 13
1.0
 23
0.0
 33
0.0
 40
47.34935474017755
 40
47.34935474017755
 40
47.34935474017755
 40
47.34935474017755
 40
49.86250989549032
 40
49.86250989549032
 40
49.86250989549032
 40
49.87488673006036
 40
49.87488673006036
 40
49.87488673006036
 40
52.10883219427309
 40
52.10883219427309
 40
52.10883219427309
 40
52.10883219427309
 10
147.2413105809037
 20
955.2801140178359
 30
0.0
 10
147.0437305486005
 20
955.3008377487997
 30
0.0
 10
146.9433597158241
 20
955.3214916605269
 30
0.0
 10
146.9423794789419
 20
955.342221066928
 30
0.0
 10
146.9423746454087
 20
955.3423232833159
 30
0.0
 10
146.9423722286405
 20
955.3424254982591
 30
0.0
 10
146.9423722286405
 20
955.3425277116575
 30
0.0
 10
146.9423722286405
 20
955.3609537843461
 30
0.0
 10
147.0209099736893
 20
955.3793184459765
 30
0.0
 10
147.1764749209882
 20
955.397729188832
 30
0.0
  0
POLYLINE
  5
73
330
1F
100
AcDbEntity
  8
Make2D$可见线$普通线
100
AcDb2dPolyline
 66
     1
 10
0.0
 20
0.0
 30
0.0
  0
VERTEX
  5
74
330
73
100
AcDbEntity
  8
Make2D$可见线$普通线
100
AcDbVertex
100
AcDb2dVertex
 10
168.598035977088
 20
959.7584420561507
 30
0.0
 42
0.4157433317281964
  0
VERTEX
  5
75
330
73
100
AcDbEntity
  8
Make2D$可见线$普通线
100
AcDbVertex
100
AcDb2dVertex
 10
169.5949576320457
 20
960.7584420561506
 30
0.0
  0
VERTEX
  5
76
330
73
100
AcDbEntity
  8
Make2D$可见线$普通线
100
AcDbVertex
100
AcDb2dVertex
 10
169.5912691863344
 20
971.5325770589335
 30
0.0
  0
SEQEND
  5
77
330
73
100
AcDbEntity
  8
Make2D$可见线$普通线
  0
POLYLINE
  5
78
330
1F
100
AcDbEntity
  8
Make2D$可见线$普通线
100
AcDb2dPolyline
 66
     1
 10
0.0
 20
0.0
 30
0.0
  0
VERTEX
  5
79
330
78
100
AcDbEntity
  8
Make2D$可见线$普通线
100
AcDbVertex
100
AcDb2dVertex
 10
146.4019640229125
 20
959.7584420561507
 30
0.0
 42
-0.4157433317284979
  0
VERTEX
  5
7A
330
78
100
AcDbEntity
  8
Make2D$可见线$普通线
100
AcDbVertex
100
AcDb2dVertex
 10
145.4050423679543
 20
960.7584420561508
 30
0.0
  0
VERTEX
  5
7B
330
78
100
AcDbEntity
  8
Make2D$可见线$普通线
100
AcDbVertex
100
AcDb2dVertex
 10
145.4087308136656
 20
971.5325770589335
 30
0.0
  0
SEQEND
  5
7C
330
78
100
AcDbEntity
  8
Make2D$可见线$普通线
  0
POLYLINE
  5
7D
330
1F
100
AcDbEntity
  8
Make2D$可见线$普通线
100
AcDb2dPolyline
 66
     1
 10
0.0
 20
0.0
 30
0.0
  0
VERTEX
  5
7E
330
7D
100
AcDbEntity
  8
Make2D$可见线$普通线
100
AcDbVertex
100
AcDb2dVertex
 10
147.2440527001335
 20
952.7676037571059
 30
0.0
 42
0.6097573656042322
  0
VERTEX
  5
7F
330
7D
100
AcDbEntity
  8
Make2D$可见线$普通线
100
AcDbVertex
100
AcDb2dVertex
 10
147.2243309426223
 20
953.6418529650762
 30
0.0
  0
VERTEX
  5
80
330
7D
100
AcDbEntity
  8
Make2D$可见线$普通线
100
AcDbVertex
100
AcDb2dVertex
 10
147.1738476951369
 20
953.660609717378
 30
0.0
  0
SEQEND
  5
81
330
7D
100
AcDbEntity
  8
Make2D$可见线$普通线
  0
POLYLINE
  5
82
330
1F
100
AcDbEntity
  8
Make2D$可见线$普通线
100
AcDb2dPolyline
 66
     1
 10
0.0
 20
0.0
 30
0.0
  0
VERTEX
  5
83
330
82
100
AcDbEntity
  8
Make2D$可见线$普通线
100
AcDbVertex
100
AcDb2dVertex
 10
268.4999999999999
 20
1015.532642259505
 30
0.0
 42
-0.41423272497679
  0
VERTEX
  5
84
330
82
100
AcDbEntity
  8
Make2D$可见线$普通线
100
AcDbVertex
100
AcDb2dVertex
 10
270.4999999999999
 20
1017.532631392736
 30
0.0
  0
VERTEX
  5
85
330
82
100
AcDbEntity
  8
Make2D$可见线$普通线
100
AcDbVertex
100
AcDb2dVertex
 10
312.9999999999998
 20
1017.532631392736
 30
0.0
 42
-0.4142327722619097
  0
VERTEX
  5
86
330
82
100
AcDbEntity
  8
Make2D$可见线$普通线
100
AcDbVertex
100
AcDb2dVertex
 10
314.9999999999999
 20
1015.532642259505
 30
0.0
  0
VERTEX
  5
87
330
82
100
AcDbEntity
  8
Make2D$可见线$普通线
100
AcDbVertex
100
AcDb2dVertex
 10
314.9999999999999
 20
973.5325444586442
 30
0.0
 42
-0.4142374989790939
  0
VERTEX
  5
88
330
82
100
AcDbEntity
  8
Make2D$可见线$普通线
100
AcDbVertex
100
AcDb2dVertex
 10
312.9999999999999
 20
971.5325227251311
 30
0.0
  0
VERTEX
  5
89
330
82
100
AcDbEntity
  8
Make2D$可见线$普通线
100
AcDbVertex
100
AcDb2dVertex
 10
270.4999999999999
 20
971.5325227251312
 30
0.0
 42
-0.4142375462645026
  0
VERTEX
  5
8A
330
82
100
AcDbEntity
  8
Make2D$可见线$普通线
100
AcDbVertex
100
AcDb2dVertex
 10
268.4999999999998
 20
973.5325444586476
 30
0.0
  0
VERTEX
  5
8B
330
82
100
AcDbEntity
  8
Make2D$可见线$普通线
100
AcDbVertex
100
AcDb2dVertex
 10
267.4999999999999
 20
973.5325770589316
 30
0.0
  0
VERTEX
  5
8C
330
82
100
AcDbEntity
  8
Make2D$可见线$普通线
100
AcDbVertex
100
AcDb2dVertex
 10
267.4999999999999
 20
973.5325228486558
 30
0.0
  0
VERTEX
  5
8D
330
82
100
AcDbEntity
  8
Make2D$可见线$普通线
100
AcDbVertex
100
AcDb2dVertex
 10
267.4999999999999
 20
973.5325127350513
 30
0.0
  0
VERTEX
  5
8E
330
82
100
AcDbEntity
  8
Make2D$可见线$普通线
100
AcDbVertex
100
AcDb2dVertex
 10
267.4999999999999
 20
973.5325119223171
 30
0.0
  0
VERTEX
  5
8F
330
82
100
AcDbEntity
  8
Make2D$可见线$普通线
100
AcDbVertex
100
AcDb2dVertex
 10
267.4999999999999
 20
973.5325139375084
 30
0.0
  0
VERTEX
  5
90
330
82
100
AcDbEntity
  8
Make2D$可见线$普通线
100
AcDbVertex
100
AcDb2dVertex
 10
267.4999999999999
 20
973.5326317335397
 30
0.0
  0
VERTEX
  5
91
330
82
100
AcDbEntity
  8
Make2D$可见线$普通线
100
AcDbVertex
100
AcDb2dVertex
 10
267.4999999999999
 20
973.5334078455048
 30
0.0
  0
VERTEX
  5
92
330
82
100
AcDbEntity
  8
Make2D$可见线$普通线
100
AcDbVertex
100
AcDb2dVertex
 10
267.4999999999999
 20
973.5371065218096
 30
0.0
  0
VERTEX
  5
93
330
82
100
AcDbEntity
  8
Make2D$可见线$普通线
100
AcDbVertex
100
AcDb2dVertex
 10
267.4999999999999
 20
973.552964666047
 30
0.0
  0
VERTEX
  5
94
330
82
100
AcDbEntity
  8
Make2D$可见线$普通线
100
AcDbVertex
100
AcDb2dVertex
 10
267.4999999999998
 20
973.6175239780617
 30
0.0
  0
VERTEX
  5
95
330
82
100
AcDbEntity
  8
Make2D$可见线$普通线
100
AcDbVertex
100
AcDb2dVertex
 10
267.5
 20
1015.532642259505
 30
0.0
 42
0.4142327722614425
  0
VERTEX
  5
96
330
82
100
AcDbEntity
  8
Make2D$可见线$普通线
100
AcDbVertex
100
AcDb2dVertex
 10
265.5
 20
1017.532631392736
 30
0.0
  0
VERTEX
  5
97
330
82
100
AcDbEntity
  8
Make2D$可见线$普通线
100
AcDbVertex
100
AcDb2dVertex
 10
49.49999999999996
 20
1017.532631392736
 30
0.0
 42
0.414232724976676
  0
VERTEX
  5
98
330
82
100
AcDbEntity
  8
Make2D$可见线$普通线
100
AcDbVertex
100
AcDb2dVertex
 10
47.49999999999984
 20
1015.532642259505
 30
0.0
  0
SEQEND
  5
99
330
82
100
AcDbEntity
  8
Make2D$可见线$普通线
  0
POLYLINE
  5
9A
330
1F
100
AcDbEntity
  8
Make2D$可见线$普通线
100
AcDb2dPolyline
 66
     1
 10
0.0
 20
0.0
 30
0.0
  0
VERTEX
  5
9B
330
9A
100
AcDbEntity
  8
Make2D$可见线$普通线
100
AcDbVertex
100
AcDb2dVertex
 10
46.49999999999999
 20
1015.532642259505
 30
0.0
 42
0.4142327249766857
  0
VERTEX
  5
9C
330
9A
100
AcDbEntity
  8
Make2D$可见线$普通线
100
AcDbVertex
100
AcDb2dVertex
 10
44.49999999999999
 20
1017.532631392736
 30
0.0
  0
VERTEX
  5
9D
330
9A
100
AcDbEntity
  8
Make2D$可见线$普通线
100
AcDbVertex
100
AcDb2dVertex
 10
2.00000000000006
 20
1017.532631392736
 30
0.0
 42
0.4142327722622524
  0
VERTEX
  5
9E
330
9A
100
AcDbEntity
  8
Make2D$可见线$普通线
100
AcDbVertex
100
AcDb2dVertex
 10
-0.0000000000000491
 20
1015.532642259505
 30
0.0
  0
VERTEX
  5
9F
330
9A
100
AcDbEntity
  8
Make2D$可见线$普通线
100
AcDbVertex
100
AcDb2dVertex
 10
0.0000000000000828
 20
973.5325444586442
 30
0.0
 42
0.4142374989790084
  0
VERTEX
  5
A0
330
9A
100
AcDbEntity
  8
Make2D$可见线$普通线
100
AcDbVertex
100
AcDb2dVertex
 10
2.000000000000028
 20
971.532522725131
 30
0.0
  0
VERTEX
  5
A1
330
9A
100
AcDbEntity
  8
Make2D$可见线$普通线
100
AcDbVertex
100
AcDb2dVertex
 10
44.49999999999997
 20
971.5325227251313
 30
0.0
 42
0.4142375462641487
  0
VERTEX
  5
A2
330
9A
100
AcDbEntity
  8
Make2D$可见线$普通线
100
AcDbVertex
100
AcDb2dVertex
 10
46.49999999999992
 20
973.5325444586476
 30
0.0
  0
VERTEX
  5
A3
330
9A
100
AcDbEntity
  8
Make2D$可见线$普通线
100
AcDbVertex
100
AcDb2dVertex
 10
47.50000000000014
 20
973.5325444586476
 30
0.0
 42
0.4142375462615263
  0
VERTEX
  5
A4
330
9A
100
AcDbEntity
  8
Make2D$可见线$普通线
100
AcDbVertex
100
AcDb2dVertex
 10
49.49999999999994
 20
971.5325227251313
 30
0.0
  0
VERTEX
  5
A5
330
9A
100
AcDbEntity
  8
Make2D$可见线$普通线
100
AcDbVertex
100
AcDb2dVertex
 10
265.5
 20
971.5325227251311
 30
0.0
 42
0.4142327249767719
  0
VERTEX
  5
A6
330
9A
100
AcDbEntity
  8
Make2D$可见线$普通线
100
AcDbVertex
100
AcDb2dVertex
 10
267.5000000000001
 20
973.5325118583617
 30
0.0
  0
SEQEND
  5
A7
330
9A
100
AcDbEntity
  8
Make2D$可见线$普通线
  0
POLYLINE
  5
A8
330
1F
100
AcDbEntity
  8
Make2D$可见线$普通线
100
AcDb2dPolyline
 66
     1
 10
0.0
 20
0.0
 30
0.0
  0
VERTEX
  5
A9
330
A8
100
AcDbEntity
  8
Make2D$可见线$普通线
100
AcDbVertex
100
AcDb2dVertex
 10
267.4999999999999
 20
1015.532577058933
 30
0.0
  0
VERTEX
  5
AA
330
A8
100
AcDbEntity
  8
Make2D$可见线$普通线
100
AcDbVertex
100
AcDb2dVertex
 10
268.4999999999999
 20
1015.532577058935
 30
0.0
  0
VERTEX
  5
AB
330
A8
100
AcDbEntity
  8
Make2D$可见线$普通线
100
AcDbVertex
100
AcDb2dVertex
 10
268.4999999999999
 20
973.5377506248641
 30
0.0
  0
SEQEND
  5
AC
330
A8
100
AcDbEntity
  8
Make2D$可见线$普通线
  0
LINE
  5
AD
330
1F
100
AcDbEntity
  8
Make2D$可见线$普通线
100
AcDbLine
 10
146.450363912384
 20
959.7584420561507
 30
0.0
 11
168.5519690944915
 21
959.7584420561508
 31
0.0
  0
POLYLINE
  5
AF
330
1F
100
AcDbEntity
  8
E9096
100
AcDb2dPolyline
 66
     1
 10
0.0
 20
0.0
 30
0.0
  0
VERTEX
  5
B0
330
AF
100
AcDbEntity
  8
E9096
100
AcDbVertex
100
AcDb2dVertex
 10
201.4999999999999
 20
1017.532577058934
 30
0.0
  0
VERTEX
  5
B1
330
AF
100
AcDbEntity
  8
E9096
100
AcDbVertex
100
AcDb2dVertex
 10
201.4999999999999
 20
1020.032577058934
 30
0.0
  0
VERTEX
  5
B2
330
AF
100
AcDbEntity
  8
E9096
100
AcDbVertex
100
AcDb2dVertex
 10
201.5048828846774
 20
1020.340194174256
 30
0.0
  0
VERTEX
  5
B3
330
AF
100
AcDbEntity
  8
E9096
100
AcDbVertex
100
AcDb2dVertex
 10
201.5195313896983
 20
1020.638045669235
 30
0.0
  0
VERTEX
  5
B4
330
AF
100
AcDbEntity
  8
E9096
100
AcDbVertex
100
AcDb2dVertex
 10
201.5305177498375
 20
1020.783309309096
 30
0.0
  0
VERTEX
  5
B5
330
AF
100
AcDbEntity
  8
E9096
100
AcDbVertex
100
AcDb2dVertex
 10
201.5439455150625
 20
1020.926131543871
 30
0.0
  0
VERTEX
  5
B6
330
AF
100
AcDbEntity
  8
E9096
100
AcDbVertex
100
AcDb2dVertex
 10
201.5598146853735
 20
1021.06651237356
 30
0.0
  0
VERTEX
  5
B7
330
AF
100
AcDbEntity
  8
E9096
100
AcDbVertex
100
AcDb2dVertex
 10
201.5781252607702
 20
1021.204451798163
 30
0.0
  0
VERTEX
  5
B8
330
AF
100
AcDbEntity
  8
E9096
100
AcDbVertex
100
AcDb2dVertex
 10
201.5988772412528
 20
1021.339949817681
 30
0.0
  0
VERTEX
  5
B9
330
AF
100
AcDbEntity
  8
E9096
100
AcDbVertex
100
AcDb2dVertex
 10
201.6220706268213
 20
1021.473006432112
 30
0.0
  0
VERTEX
  5
BA
330
AF
100
AcDbEntity
  8
E9096
100
AcDbVertex
100
AcDb2dVertex
 10
201.6477054174755
 20
1021.603621641458
 30
0.0
  0
VERTEX
  5
BB
330
AF
100
AcDbEntity
  8
E9096
100
AcDbVertex
100
AcDb2dVertex
 10
201.6757816132157
 20
1021.731795445718
 30
0.0
  0
VERTEX
  5
BC
330
AF
100
AcDbEntity
  8
E9096
100
AcDbVertex
100
AcDb2dVertex
 10
201.7062992140417
 20
1021.857527844892
 30
0.0
  0
VERTEX
  5
BD
330
AF
100
AcDbEntity
  8
E9096
100
AcDbVertex
100
AcDb2dVertex
 10
201.7392582199535
 20
1021.98081883898
 30
0.0
  0
VERTEX
  5
BE
330
AF
100
AcDbEntity
  8
E9096
100
AcDbVertex
100
AcDb2dVertex
 10
201.7746586309512
 20
1022.101668427982
 30
0.0
  0
VERTEX
  5
BF
330
AF
100
AcDbEntity
  8
E9096
100
AcDbVertex
100
AcDb2dVertex
 10
201.8125004470347
 20
1022.220076611899
 30
0.0
  0
VERTEX
  5
C0
330
AF
100
AcDbEntity
  8
E9096
100
AcDbVertex
100
AcDb2dVertex
 10
201.852783668204
 20
1022.336043390729
 30
0.0
  0
VERTEX
  5
C1
330
AF
100
AcDbEntity
  8
E9096
100
AcDbVertex
100
AcDb2dVertex
 10
201.8955082944593
 20
1022.449568764474
 30
0.0
  0
VERTEX
  5
C2
330
AF
100
AcDbEntity
  8
E9096
100
AcDbVertex
100
AcDb2dVertex
 10
201.9406743258003
 20
1022.560652733133
 30
0.0
  0
VERTEX
  5
C3
330
AF
100
AcDbEntity
  8
E9096
100
AcDbVertex
100
AcDb2dVertex
 10
201.9882817622272
 20
1022.669295296706
 30
0.0
  0
VERTEX
  5
C4
330
AF
100
AcDbEntity
  8
E9096
100
AcDbVertex
100
AcDb2dVertex
 10
202.03833060374
 20
1022.775496455193
 30
0.0
  0
VERTEX
  5
C5
330
AF
100
AcDbEntity
  8
E9096
100
AcDbVertex
100
AcDb2dVertex
 10
202.0908208503386
 20
1022.879256208595
 30
0.0
  0
VERTEX
  5
C6
330
AF
100
AcDbEntity
  8
E9096
100
AcDbVertex
100
AcDb2dVertex
 10
202.1457525020231
 20
1022.98057455691
 30
0.0
  0
VERTEX
  5
C7
330
AF
100
AcDbEntity
  8
E9096
100
AcDbVertex
100
AcDb2dVertex
 10
202.2031255587934
 20
1023.07945150014
 30
0.0
  0
VERTEX
  5
C8
330
AF
100
AcDbEntity
  8
E9096
100
AcDbVertex
100
AcDb2dVertex
 10
202.2629400206495
 20
1023.175887038284
 30
0.0
  0
VERTEX
  5
C9
330
AF
100
AcDbEntity
  8
E9096
100
AcDbVertex
100
AcDb2dVertex
 10
202.3251958875915
 20
1023.269881171342
 30
0.0
  0
VERTEX
  5
CA
330
AF
100
AcDbEntity
  8
E9096
100
AcDbVertex
100
AcDb2dVertex
 10
202.3898931596194
 20
1023.361433899314
 30
0.0
  0
VERTEX
  5
CB
330
AF
100
AcDbEntity
  8
E9096
100
AcDbVertex
100
AcDb2dVertex
 10
202.4570318367331
 20
1023.4505452222
 30
0.0
  0
VERTEX
  5
CC
330
AF
100
AcDbEntity
  8
E9096
100
AcDbVertex
100
AcDb2dVertex
 10
202.5266119189326
 20
1023.537215140001
 30
0.0
  0
VERTEX
  5
CD
330
AF
100
AcDbEntity
  8
E9096
100
AcDbVertex
100
AcDb2dVertex
 10
202.598633406218
 20
1023.621443652715
 30
0.0
  0
VERTEX
  5
CE
330
AF
100
AcDbEntity
  8
E9096
100
AcDbVertex
100
AcDb2dVertex
 10
202.6730962985892
 20
1023.703230760344
 30
0.0
  0
VERTEX
  5
CF
330
AF
100
AcDbEntity
  8
E9096
100
AcDbVertex
100
AcDb2dVertex
 10
202.7500005960463
 20
1023.782576462887
 30
0.0
  0
VERTEX
  5
D0
330
AF
100
AcDbEntity
  8
E9096
100
AcDbVertex
100
AcDb2dVertex
 10
202.8293462985892
 20
1023.859480760344
 30
0.0
  0
VERTEX
  5
D1
330
AF
100
AcDbEntity
  8
E9096
100
AcDbVertex
100
AcDb2dVertex
 10
202.911133406218
 20
1023.933943652715
 30
0.0
  0
VERTEX
  5
D2
330
AF
100
AcDbEntity
  8
E9096
100
AcDbVertex
100
AcDb2dVertex
 10
202.9953619189326
 20
1024.005965140001
 30
0.0
  0
VERTEX
  5
D3
330
AF
100
AcDbEntity
  8
E9096
100
AcDbVertex
100
AcDb2dVertex
 10
203.0820318367331
 20
1024.0755452222
 30
0.0
  0
VERTEX
  5
D4
330
AF
100
AcDbEntity
  8
E9096
100
AcDbVertex
100
AcDb2dVertex
 10
203.1711431596194
 20
1024.142683899314
 30
0.0
  0
VERTEX
  5
D5
330
AF
100
AcDbEntity
  8
E9096
100
AcDbVertex
100
AcDb2dVertex
 10
203.2626958875915
 20
1024.207381171342
 30
0.0
  0
VERTEX
  5
D6
330
AF
100
AcDbEntity
  8
E9096
100
AcDbVertex
100
AcDb2dVertex
 10
203.3566900206495
 20
1024.269637038284
 30
0.0
  0
VERTEX
  5
D7
330
AF
100
AcDbEntity
  8
E9096
100
AcDbVertex
100
AcDb2dVertex
 10
203.4531255587934
 20
1024.32945150014
 30
0.0
  0
VERTEX
  5
D8
330
AF
100
AcDbEntity
  8
E9096
100
AcDbVertex
100
AcDb2dVertex
 10
203.5520025020231
 20
1024.38682455691
 30
0.0
  0
VERTEX
  5
D9
330
AF
100
AcDbEntity
  8
E9096
100
AcDbVertex
100
AcDb2dVertex
 10
203.6533208503386
 20
1024.441756208595
 30
0.0
  0
VERTEX
  5
DA
330
AF
100
AcDbEntity
  8
E9096
100
AcDbVertex
100
AcDb2dVertex
 10
203.75708060374
 20
1024.494246455193
 30
0.0
  0
VERTEX
  5
DB
330
AF
100
AcDbEntity
  8
E9096
100
AcDbVertex
100
AcDb2dVertex
 10
203.8632817622272
 20
1024.544295296706
 30
0.0
  0
VERTEX
  5
DC
330
AF
100
AcDbEntity
  8
E9096
100
AcDbVertex
100
AcDb2dVertex
 10
203.9719243258003
 20
1024.591902733133
 30
0.0
  0
VERTEX
  5
DD
330
AF
100
AcDbEntity
  8
E9096
100
AcDbVertex
100
AcDb2dVertex
 10
204.0830082944593
 20
1024.637068764474
 30
0.0
  0
VERTEX
  5
DE
330
AF
100
AcDbEntity
  8
E9096
100
AcDbVertex
100
AcDb2dVertex
 10
204.196533668204
 20
1024.679793390729
 30
0.0
  0
VERTEX
  5
DF
330
AF
100
AcDbEntity
  8
E9096
100
AcDbVertex
100
AcDb2dVertex
 10
204.3125004470347
 20
1024.720076611899
 30
0.0
  0
VERTEX
  5
E0
330
AF
100
AcDbEntity
  8
E9096
100
AcDbVertex
100
AcDb2dVertex
 10
204.4309086309512
 20
1024.757918427982
 30
0.0
  0
VERTEX
  5
E1
330
AF
100
AcDbEntity
  8
E9096
100
AcDbVertex
100
AcDb2dVertex
 10
204.5517582199535
 20
1024.79331883898
 30
0.0
  0
VERTEX
  5
E2
330
AF
100
AcDbEntity
  8
E9096
100
AcDbVertex
100
AcDb2dVertex
 10
204.6750492140417
 20
1024.826277844892
 30
0.0
  0
VERTEX
  5
E3
330
AF
100
AcDbEntity
  8
E9096
100
AcDbVertex
100
AcDb2dVertex
 10
204.8007816132157
 20
1024.856795445718
 30
0.0
  0
VERTEX
  5
E4
330
AF
100
AcDbEntity
  8
E9096
100
AcDbVertex
100
AcDb2dVertex
 10
204.9289554174755
 20
1024.884871641458
 30
0.0
  0
VERTEX
  5
E5
330
AF
100
AcDbEntity
  8
E9096
100
AcDbVertex
100
AcDb2dVertex
 10
205.0595706268213
 20
1024.910506432112
 30
0.0
  0
VERTEX
  5
E6
330
AF
100
AcDbEntity
  8
E9096
100
AcDbVertex
100
AcDb2dVertex
 10
205.1926272412528
 20
1024.93369981768
 30
0.0
  0
VERTEX
  5
E7
330
AF
100
AcDbEntity
  8
E9096
100
AcDbVertex
100
AcDb2dVertex
 10
205.3281252607702
 20
1024.954451798163
 30
0.0
  0
VERTEX
  5
E8
330
AF
100
AcDbEntity
  8
E9096
100
AcDbVertex
100
AcDb2dVertex
 10
205.4660646853735
 20
1024.97276237356
 30
0.0
  0
VERTEX
  5
E9
330
AF
100
AcDbEntity
  8
E9096
100
AcDbVertex
100
AcDb2dVertex
 10
205.6064455150626
 20
1024.988631543871
 30
0.0
  0
VERTEX
  5
EA
330
AF
100
AcDbEntity
  8
E9096
100
AcDbVertex
100
AcDb2dVertex
 10
205.7492677498375
 20
1025.002059309096
 30
0.0
  0
VERTEX
  5
EB
330
AF
100
AcDbEntity
  8
E9096
100
AcDbVertex
100
AcDb2dVertex
 10
205.8945313896983
 20
1025.013045669235
 30
0.0
  0
VERTEX
  5
EC
330
AF
100
AcDbEntity
  8
E9096
100
AcDbVertex
100
AcDb2dVertex
 10
206.1923828846774
 20
1025.027694174256
 30
0.0
  0
VERTEX
  5
ED
330
AF
100
AcDbEntity
  8
E9096
100
AcDbVertex
100
AcDb2dVertex
 10
206.5
 20
1025.032577058933
 30
0.0
  0
VERTEX
  5
EE
330
AF
100
AcDbEntity
  8
E9096
100
AcDbVertex
100
AcDb2dVertex
 10
257.4999999999999
 20
1025.032577058933
 30
0.0
  0
VERTEX
  5
EF
330
AF
100
AcDbEntity
  8
E9096
100
AcDbVertex
100
AcDb2dVertex
 10
257.8076171875
 20
1025.027694246433
 30
0.0
  0
VERTEX
  5
F0
330
AF
100
AcDbEntity
  8
E9096
100
AcDbVertex
100
AcDb2dVertex
 10
258.10546875
 20
1025.013045808933
 30
0.0
  0
VERTEX
  5
F1
330
AF
100
AcDbEntity
  8
E9096
100
AcDbVertex
100
AcDb2dVertex
 10
258.250732421875
 20
1025.002059480808
 30
0.0
  0
VERTEX
  5
F2
330
AF
100
AcDbEntity
  8
E9096
100
AcDbVertex
100
AcDb2dVertex
 10
258.3935546875
 20
1024.988631746433
 30
0.0
  0
VERTEX
  5
F3
330
AF
100
AcDbEntity
  8
E9096
100
AcDbVertex
100
AcDb2dVertex
 10
258.533935546875
 20
1024.972762605808
 30
0.0
  0
VERTEX
  5
F4
330
AF
100
AcDbEntity
  8
E9096
100
AcDbVertex
100
AcDb2dVertex
 10
258.671875
 20
1024.954452058933
 30
0.0
  0
VERTEX
  5
F5
330
AF
100
AcDbEntity
  8
E9096
100
AcDbVertex
100
AcDb2dVertex
 10
258.807373046875
 20
1024.933700105808
 30
0.0
  0
VERTEX
  5
F6
330
AF
100
AcDbEntity
  8
E9096
100
AcDbVertex
100
AcDb2dVertex
 10
258.9404296875
 20
1024.910506746433
 30
0.0
  0
VERTEX
  5
F7
330
AF
100
AcDbEntity
  8
E9096
100
AcDbVertex
100
AcDb2dVertex
 10
259.071044921875
 20
1024.884871980808
 30
0.0
  0
VERTEX
  5
F8
330
AF
100
AcDbEntity
  8
E9096
100
AcDbVertex
100
AcDb2dVertex
 10
259.19921875
 20
1024.856795808933
 30
0.0
  0
VERTEX
  5
F9
330
AF
100
AcDbEntity
  8
E9096
100
AcDbVertex
100
AcDb2dVertex
 10
259.324951171875
 20
1024.826278230808
 30
0.0
  0
VERTEX
  5
FA
330
AF
100
AcDbEntity
  8
E9096
100
AcDbVertex
100
AcDb2dVertex
 10
259.4482421875
 20
1024.793319246433
 30
0.0
  0
VERTEX
  5
FB
330
AF
100
AcDbEntity
  8
E9096
100
AcDbVertex
100
AcDb2dVertex
 10
259.569091796875
 20
1024.757918855808
 30
0.0
  0
VERTEX
  5
FC
330
AF
100
AcDbEntity
  8
E9096
100
AcDbVertex
100
AcDb2dVertex
 10
259.6875
 20
1024.720077058933
 30
0.0
  0
VERTEX
  5
FD
330
AF
100
AcDbEntity
  8
E9096
100
AcDbVertex
100
AcDb2dVertex
 10
259.803466796875
 20
1024.679793855808
 30
0.0
  0
VERTEX
  5
FE
330
AF
100
AcDbEntity
  8
E9096
100
AcDbVertex
100
AcDb2dVertex
 10
259.9169921875
 20
1024.637069246433
 30
0.0
  0
VERTEX
  5
FF
330
AF
100
AcDbEntity
  8
E9096
100
AcDbVertex
100
AcDb2dVertex
 10
260.028076171875
 20
1024.591903230808
 30
0.0
  0
VERTEX
  5
100
330
AF
100
AcDbEntity
  8
E9096
100
AcDbVertex
100
AcDb2dVertex
 10
260.13671875
 20
1024.544295808933
 30
0.0
  0
VERTEX
  5
101
330
AF
100
AcDbEntity
  8
E9096
100
AcDbVertex
100
AcDb2dVertex
 10
260.242919921875
 20
1024.494246980808
 30
0.0
  0
VERTEX
  5
102
330
AF
100
AcDbEntity
  8
E9096
100
AcDbVertex
100
AcDb2dVertex
 10
260.3466796875
 20
1024.441756746433
 30
0.0
  0
VERTEX
  5
103
330
AF
100
AcDbEntity
  8
E9096
100
AcDbVertex
100
AcDb2dVertex
 10
260.447998046875
 20
1024.386825105808
 30
0.0
  0
VERTEX
  5
104
330
AF
100
AcDbEntity
  8
E9096
100
AcDbVertex
100
AcDb2dVertex
 10
260.546875
 20
1024.329452058933
 30
0.0
  0
VERTEX
  5
105
330
AF
100
AcDbEntity
  8
E9096
100
AcDbVertex
100
AcDb2dVertex
 10
260.643310546875
 20
1024.269637605808
 30
0.0
  0
VERTEX
  5
106
330
AF
100
AcDbEntity
  8
E9096
100
AcDbVertex
100
AcDb2dVertex
 10
260.7373046875
 20
1024.207381746433
 30
0.0
  0
VERTEX
  5
107
330
AF
100
AcDbEntity
  8
E9096
100
AcDbVertex
100
AcDb2dVertex
 10
260.828857421875
 20
1024.142684480808
 30
0.0
  0
VERTEX
  5
108
330
AF
100
AcDbEntity
  8
E9096
100
AcDbVertex
100
AcDb2dVertex
 10
260.91796875
 20
1024.075545808933
 30
0.0
  0
VERTEX
  5
109
330
AF
100
AcDbEntity
  8
E9096
100
AcDbVertex
100
AcDb2dVertex
 10
261.004638671875
 20
1024.005965730808
 30
0.0
  0
VERTEX
  5
10A
330
AF
100
AcDbEntity
  8
E9096
100
AcDbVertex
100
AcDb2dVertex
 10
261.0888671875
 20
1023.933944246433
 30
0.0
  0
VERTEX
  5
10B
330
AF
100
AcDbEntity
  8
E9096
100
AcDbVertex
100
AcDb2dVertex
 10
261.170654296875
 20
1023.859481355808
 30
0.0
  0
VERTEX
  5
10C
330
AF
100
AcDbEntity
  8
E9096
100
AcDbVertex
100
AcDb2dVertex
 10
261.25
 20
1023.782577058933
 30
0.0
  0
VERTEX
  5
10D
330
AF
100
AcDbEntity
  8
E9096
100
AcDbVertex
100
AcDb2dVertex
 10
261.326904296875
 20
1023.703231355808
 30
0.0
  0
VERTEX
  5
10E
330
AF
100
AcDbEntity
  8
E9096
100
AcDbVertex
100
AcDb2dVertex
 10
261.4013671875
 20
1023.621444246433
 30
0.0
  0
VERTEX
  5
10F
330
AF
100
AcDbEntity
  8
E9096
100
AcDbVertex
100
AcDb2dVertex
 10
261.473388671875
 20
1023.537215730808
 30
0.0
  0
VERTEX
  5
110
330
AF
100
AcDbEntity
  8
E9096
100
AcDbVertex
100
AcDb2dVertex
 10
261.54296875
 20
1023.450545808933
 30
0.0
  0
VERTEX
  5
111
330
AF
100
AcDbEntity
  8
E9096
100
AcDbVertex
100
AcDb2dVertex
 10
261.610107421875
 20
1023.361434480808
 30
0.0
  0
VERTEX
  5
112
330
AF
100
AcDbEntity
  8
E9096
100
AcDbVertex
100
AcDb2dVertex
 10
261.6748046875
 20
1023.269881746433
 30
0.0
  0
VERTEX
  5
113
330
AF
100
AcDbEntity
  8
E9096
100
AcDbVertex
100
AcDb2dVertex
 10
261.737060546875
 20
1023.175887605808
 30
0.0
  0
VERTEX
  5
114
330
AF
100
AcDbEntity
  8
E9096
100
AcDbVertex
100
AcDb2dVertex
 10
261.796875
 20
1023.079452058933
 30
0.0
  0
VERTEX
  5
115
330
AF
100
AcDbEntity
  8
E9096
100
AcDbVertex
100
AcDb2dVertex
 10
261.854248046875
 20
1022.980575105808
 30
0.0
  0
VERTEX
  5
116
330
AF
100
AcDbEntity
  8
E9096
100
AcDbVertex
100
AcDb2dVertex
 10
261.9091796875
 20
1022.879256746433
 30
0.0
  0
VERTEX
  5
117
330
AF
100
AcDbEntity
  8
E9096
100
AcDbVertex
100
AcDb2dVertex
 10
261.961669921875
 20
1022.775496980808
 30
0.0
  0
VERTEX
  5
118
330
AF
100
AcDbEntity
  8
E9096
100
AcDbVertex
100
AcDb2dVertex
 10
262.01171875
 20
1022.669295808933
 30
0.0
  0
VERTEX
  5
119
330
AF
100
AcDbEntity
  8
E9096
100
AcDbVertex
100
AcDb2dVertex
 10
262.059326171875
 20
1022.560653230808
 30
0.0
  0
VERTEX
  5
11A
330
AF
100
AcDbEntity
  8
E9096
100
AcDbVertex
100
AcDb2dVertex
 10
262.1044921875
 20
1022.449569246433
 30
0.0
  0
VERTEX
  5
11B
330
AF
100
AcDbEntity
  8
E9096
100
AcDbVertex
100
AcDb2dVertex
 10
262.147216796875
 20
1022.336043855808
 30
0.0
  0
VERTEX
  5
11C
330
AF
100
AcDbEntity
  8
E9096
100
AcDbVertex
100
AcDb2dVertex
 10
262.1875
 20
1022.220077058933
 30
0.0
  0
VERTEX
  5
11D
330
AF
100
AcDbEntity
  8
E9096
100
AcDbVertex
100
AcDb2dVertex
 10
262.225341796875
 20
1022.101668855808
 30
0.0
  0
VERTEX
  5
11E
330
AF
100
AcDbEntity
  8
E9096
100
AcDbVertex
100
AcDb2dVertex
 10
262.2607421875
 20
1021.980819246433
 30
0.0
  0
VERTEX
  5
11F
330
AF
100
AcDbEntity
  8
E9096
100
AcDbVertex
100
AcDb2dVertex
 10
262.293701171875
 20
1021.857528230808
 30
0.0
  0
VERTEX
  5
120
330
AF
100
AcDbEntity
  8
E9096
100
AcDbVertex
100
AcDb2dVertex
 10
262.32421875
 20
1021.731795808933
 30
0.0
  0
VERTEX
  5
121
330
AF
100
AcDbEntity
  8
E9096
100
AcDbVertex
100
AcDb2dVertex
 10
262.352294921875
 20
1021.603621980808
 30
0.0
  0
VERTEX
  5
122
330
AF
100
AcDbEntity
  8
E9096
100
AcDbVertex
100
AcDb2dVertex
 10
262.3779296875
 20
1021.473006746433
 30
0.0
  0
VERTEX
  5
123
330
AF
100
AcDbEntity
  8
E9096
100
AcDbVertex
100
AcDb2dVertex
 10
262.401123046875
 20
1021.339950105808
 30
0.0
  0
VERTEX
  5
124
330
AF
100
AcDbEntity
  8
E9096
100
AcDbVertex
100
AcDb2dVertex
 10
262.421875
 20
1021.204452058933
 30
0.0
  0
VERTEX
  5
125
330
AF
100
AcDbEntity
  8
E9096
100
AcDbVertex
100
AcDb2dVertex
 10
262.440185546875
 20
1021.066512605808
 30
0.0
  0
VERTEX
  5
126
330
AF
100
AcDbEntity
  8
E9096
100
AcDbVertex
100
AcDb2dVertex
 10
262.4560546875
 20
1020.926131746433
 30
0.0
  0
VERTEX
  5
127
330
AF
100
AcDbEntity
  8
E9096
100
AcDbVertex
100
AcDb2dVertex
 10
262.469482421875
 20
1020.783309480808
 30
0.0
  0
VERTEX
  5
128
330
AF
100
AcDbEntity
  8
E9096
100
AcDbVertex
100
AcDb2dVertex
 10
262.48046875
 20
1020.638045808933
 30
0.0
  0
VERTEX
  5
129
330
AF
100
AcDbEntity
  8
E9096
100
AcDbVertex
100
AcDb2dVertex
 10
262.4951171875
 20
1020.340194246433
 30
0.0
  0
VERTEX
  5
12A
330
AF
100
AcDbEntity
  8
E9096
100
AcDbVertex
100
AcDb2dVertex
 10
262.5
 20
1020.032577058933
 30
0.0
  0
VERTEX
  5
12B
330
AF
100
AcDbEntity
  8
E9096
100
AcDbVertex
100
AcDb2dVertex
 10
262.4999999999999
 20
1017.532577058933
 30
0.0
  0
SEQEND
  5
12C
330
AF
100
AcDbEntity
  8
E9096
  0
POLYLINE
  5
12D
330
1F
100
AcDbEntity
  8
E9096
100
AcDb2dPolyline
 66
     1
 10
0.0
 20
0.0
 30
0.0
  0
VERTEX
  5
12E
330
12D
100
AcDbEntity
  8
E9096
100
AcDbVertex
100
AcDb2dVertex
 10
201.4999999999999
 20
971.5325770589335
 30
0.0
  0
VERTEX
  5
12F
330
12D
100
AcDbEntity
  8
E9096
100
AcDbVertex
100
AcDb2dVertex
 10
201.4999999999999
 20
969.0325770589335
 30
0.0
  0
VERTEX
  5
130
330
12D
100
AcDbEntity
  8
E9096
100
AcDbVertex
100
AcDb2dVertex
 10
201.5048828124999
 20
968.7249599436111
 30
0.0
  0
VERTEX
  5
131
330
12D
100
AcDbEntity
  8
E9096
100
AcDbVertex
100
AcDb2dVertex
 10
201.5195312499999
 20
968.427108448632
 30
0.0
  0
VERTEX
  5
132
330
12D
100
AcDbEntity
  8
E9096
100
AcDbVertex
100
AcDb2dVertex
 10
201.5305175781249
 20
968.2818448087712
 30
0.0
  0
VERTEX
  5
133
330
12D
100
AcDbEntity
  8
E9096
100
AcDbVertex
100
AcDb2dVertex
 10
201.5439453124999
 20
968.1390225739963
 30
0.0
  0
VERTEX
  5
134
330
12D
100
AcDbEntity
  8
E9096
100
AcDbVertex
100
AcDb2dVertex
 10
201.5598144531249
 20
967.9986417443072
 30
0.0
  0
VERTEX
  5
135
330
12D
100
AcDbEntity
  8
E9096
100
AcDbVertex
100
AcDb2dVertex
 10
201.5781249999999
 20
967.8607023197039
 30
0.0
  0
VERTEX
  5
136
330
12D
100
AcDbEntity
  8
E9096
100
AcDbVertex
100
AcDb2dVertex
 10
201.5988769531249
 20
967.7252043001865
 30
0.0
  0
VERTEX
  5
137
330
12D
100
AcDbEntity
  8
E9096
100
AcDbVertex
100
AcDb2dVertex
 10
201.6220703124999
 20
967.592147685755
 30
0.0
  0
VERTEX
  5
138
330
12D
100
AcDbEntity
  8
E9096
100
AcDbVertex
100
AcDb2dVertex
 10
201.6477050781249
 20
967.4615324764093
 30
0.0
  0
VERTEX
  5
139
330
12D
100
AcDbEntity
  8
E9096
100
AcDbVertex
100
AcDb2dVertex
 10
201.6757812499999
 20
967.3333586721494
 30
0.0
  0
VERTEX
  5
13A
330
12D
100
AcDbEntity
  8
E9096
100
AcDbVertex
100
AcDb2dVertex
 10
201.7062988281249
 20
967.2076262729754
 30
0.0
  0
VERTEX
  5
13B
330
12D
100
AcDbEntity
  8
E9096
100
AcDbVertex
100
AcDb2dVertex
 10
201.7392578124999
 20
967.0843352788872
 30
0.0
  0
VERTEX
  5
13C
330
12D
100
AcDbEntity
  8
E9096
100
AcDbVertex
100
AcDb2dVertex
 10
201.7746582031249
 20
966.9634856898849
 30
0.0
  0
VERTEX
  5
13D
330
12D
100
AcDbEntity
  8
E9096
100
AcDbVertex
100
AcDb2dVertex
 10
201.8125
 20
966.8450775059684
 30
0.0
  0
VERTEX
  5
13E
330
12D
100
AcDbEntity
  8
E9096
100
AcDbVertex
100
AcDb2dVertex
 10
201.852783203125
 20
966.7291107271378
 30
0.0
  0
VERTEX
  5
13F
330
12D
100
AcDbEntity
  8
E9096
100
AcDbVertex
100
AcDb2dVertex
 10
201.8955078125
 20
966.615585353393
 30
0.0
  0
VERTEX
  5
140
330
12D
100
AcDbEntity
  8
E9096
100
AcDbVertex
100
AcDb2dVertex
 10
201.940673828125
 20
966.5045013847341
 30
0.0
  0
VERTEX
  5
141
330
12D
100
AcDbEntity
  8
E9096
100
AcDbVertex
100
AcDb2dVertex
 10
201.98828125
 20
966.395858821161
 30
0.0
  0
VERTEX
  5
142
330
12D
100
AcDbEntity
  8
E9096
100
AcDbVertex
100
AcDb2dVertex
 10
202.038330078125
 20
966.2896576626738
 30
0.0
  0
VERTEX
  5
143
330
12D
100
AcDbEntity
  8
E9096
100
AcDbVertex
100
AcDb2dVertex
 10
202.0908203125
 20
966.1858979092724
 30
0.0
  0
VERTEX
  5
144
330
12D
100
AcDbEntity
  8
E9096
100
AcDbVertex
100
AcDb2dVertex
 10
202.145751953125
 20
966.0845795609569
 30
0.0
  0
VERTEX
  5
145
330
12D
100
AcDbEntity
  8
E9096
100
AcDbVertex
100
AcDb2dVertex
 10
202.203125
 20
965.9857026177272
 30
0.0
  0
VERTEX
  5
146
330
12D
100
AcDbEntity
  8
E9096
100
AcDbVertex
100
AcDb2dVertex
 10
202.262939453125
 20
965.8892670795833
 30
0.0
  0
VERTEX
  5
147
330
12D
100
AcDbEntity
  8
E9096
100
AcDbVertex
100
AcDb2dVertex
 10
202.3251953125
 20
965.7952729465253
 30
0.0
  0
VERTEX
  5
148
330
12D
100
AcDbEntity
  8
E9096
100
AcDbVertex
100
AcDb2dVertex
 10
202.389892578125
 20
965.7037202185531
 30
0.0
  0
VERTEX
  5
149
330
12D
100
AcDbEntity
  8
E9096
100
AcDbVertex
100
AcDb2dVertex
 10
202.45703125
 20
965.6146088956668
 30
0.0
  0
VERTEX
  5
14A
330
12D
100
AcDbEntity
  8
E9096
100
AcDbVertex
100
AcDb2dVertex
 10
202.526611328125
 20
965.5279389778664
 30
0.0
  0
VERTEX
  5
14B
330
12D
100
AcDbEntity
  8
E9096
100
AcDbVertex
100
AcDb2dVertex
 10
202.5986328125
 20
965.4437104651518
 30
0.0
  0
VERTEX
  5
14C
330
12D
100
AcDbEntity
  8
E9096
100
AcDbVertex
100
AcDb2dVertex
 10
202.673095703125
 20
965.361923357523
 30
0.0
  0
VERTEX
  5
14D
330
12D
100
AcDbEntity
  8
E9096
100
AcDbVertex
100
AcDb2dVertex
 10
202.75
 20
965.2825776549801
 30
0.0
  0
VERTEX
  5
14E
330
12D
100
AcDbEntity
  8
E9096
100
AcDbVertex
100
AcDb2dVertex
 10
202.829345703125
 20
965.205673357523
 30
0.0
  0
VERTEX
  5
14F
330
12D
100
AcDbEntity
  8
E9096
100
AcDbVertex
100
AcDb2dVertex
 10
202.9111328125
 20
965.1312104651518
 30
0.0
  0
VERTEX
  5
150
330
12D
100
AcDbEntity
  8
E9096
100
AcDbVertex
100
AcDb2dVertex
 10
202.995361328125
 20
965.0591889778664
 30
0.0
  0
VERTEX
  5
151
330
12D
100
AcDbEntity
  8
E9096
100
AcDbVertex
100
AcDb2dVertex
 10
203.08203125
 20
964.9896088956668
 30
0.0
  0
VERTEX
  5
152
330
12D
100
AcDbEntity
  8
E9096
100
AcDbVertex
100
AcDb2dVertex
 10
203.171142578125
 20
964.9224702185531
 30
0.0
  0
VERTEX
  5
153
330
12D
100
AcDbEntity
  8
E9096
100
AcDbVertex
100
AcDb2dVertex
 10
203.2626953125
 20
964.8577729465253
 30
0.0
  0
VERTEX
  5
154
330
12D
100
AcDbEntity
  8
E9096
100
AcDbVertex
100
AcDb2dVertex
 10
203.356689453125
 20
964.7955170795833
 30
0.0
  0
VERTEX
  5
155
330
12D
100
AcDbEntity
  8
E9096
100
AcDbVertex
100
AcDb2dVertex
 10
203.453125
 20
964.7357026177272
 30
0.0
  0
VERTEX
  5
156
330
12D
100
AcDbEntity
  8
E9096
100
AcDbVertex
100
AcDb2dVertex
 10
203.552001953125
 20
964.6783295609569
 30
0.0
  0
VERTEX
  5
157
330
12D
100
AcDbEntity
  8
E9096
100
AcDbVertex
100
AcDb2dVertex
 10
203.6533203125
 20
964.6233979092724
 30
0.0
  0
VERTEX
  5
158
330
12D
100
AcDbEntity
  8
E9096
100
AcDbVertex
100
AcDb2dVertex
 10
203.757080078125
 20
964.5709076626738
 30
0.0
  0
VERTEX
  5
159
330
12D
100
AcDbEntity
  8
E9096
100
AcDbVertex
100
AcDb2dVertex
 10
203.86328125
 20
964.520858821161
 30
0.0
  0
VERTEX
  5
15A
330
12D
100
AcDbEntity
  8
E9096
100
AcDbVertex
100
AcDb2dVertex
 10
203.971923828125
 20
964.4732513847341
 30
0.0
  0
VERTEX
  5
15B
330
12D
100
AcDbEntity
  8
E9096
100
AcDbVertex
100
AcDb2dVertex
 10
204.0830078125
 20
964.428085353393
 30
0.0
  0
VERTEX
  5
15C
330
12D
100
AcDbEntity
  8
E9096
100
AcDbVertex
100
AcDb2dVertex
 10
204.196533203125
 20
964.3853607271378
 30
0.0
  0
VERTEX
  5
15D
330
12D
100
AcDbEntity
  8
E9096
100
AcDbVertex
100
AcDb2dVertex
 10
204.3125
 20
964.3450775059684
 30
0.0
  0
VERTEX
  5
15E
330
12D
100
AcDbEntity
  8
E9096
100
AcDbVertex
100
AcDb2dVertex
 10
204.430908203125
 20
964.3072356898849
 30
0.0
  0
VERTEX
  5
15F
330
12D
100
AcDbEntity
  8
E9096
100
AcDbVertex
100
AcDb2dVertex
 10
204.5517578125
 20
964.2718352788872
 30
0.0
  0
VERTEX
  5
160
330
12D
100
AcDbEntity
  8
E9096
100
AcDbVertex
100
AcDb2dVertex
 10
204.675048828125
 20
964.2388762729754
 30
0.0
  0
VERTEX
  5
161
330
12D
100
AcDbEntity
  8
E9096
100
AcDbVertex
100
AcDb2dVertex
 10
204.80078125
 20
964.2083586721494
 30
0.0
  0
VERTEX
  5
162
330
12D
100
AcDbEntity
  8
E9096
100
AcDbVertex
100
AcDb2dVertex
 10
204.928955078125
 20
964.1802824764093
 30
0.0
  0
VERTEX
  5
163
330
12D
100
AcDbEntity
  8
E9096
100
AcDbVertex
100
AcDb2dVertex
 10
205.0595703125
 20
964.154647685755
 30
0.0
  0
VERTEX
  5
164
330
12D
100
AcDbEntity
  8
E9096
100
AcDbVertex
100
AcDb2dVertex
 10
205.192626953125
 20
964.1314543001865
 30
0.0
  0
VERTEX
  5
165
330
12D
100
AcDbEntity
  8
E9096
100
AcDbVertex
100
AcDb2dVertex
 10
205.328125
 20
964.1107023197039
 30
0.0
  0
VERTEX
  5
166
330
12D
100
AcDbEntity
  8
E9096
100
AcDbVertex
100
AcDb2dVertex
 10
205.466064453125
 20
964.0923917443072
 30
0.0
  0
VERTEX
  5
167
330
12D
100
AcDbEntity
  8
E9096
100
AcDbVertex
100
AcDb2dVertex
 10
205.6064453125
 20
964.0765225739963
 30
0.0
  0
VERTEX
  5
168
330
12D
100
AcDbEntity
  8
E9096
100
AcDbVertex
100
AcDb2dVertex
 10
205.749267578125
 20
964.0630948087712
 30
0.0
  0
VERTEX
  5
169
330
12D
100
AcDbEntity
  8
E9096
100
AcDbVertex
100
AcDb2dVertex
 10
205.89453125
 20
964.052108448632
 30
0.0
  0
VERTEX
  5
16A
330
12D
100
AcDbEntity
  8
E9096
100
AcDbVertex
100
AcDb2dVertex
 10
206.1923828125
 20
964.0374599436111
 30
0.0
  0
VERTEX
  5
16B
330
12D
100
AcDbEntity
  8
E9096
100
AcDbVertex
100
AcDb2dVertex
 10
206.5
 20
964.0325770589336
 30
0.0
  0
VERTEX
  5
16C
330
12D
100
AcDbEntity
  8
E9096
100
AcDbVertex
100
AcDb2dVertex
 10
257.4999999999999
 20
964.0325770589336
 30
0.0
  0
VERTEX
  5
16D
330
12D
100
AcDbEntity
  8
E9096
100
AcDbVertex
100
AcDb2dVertex
 10
257.8076171875
 20
964.0374598714336
 30
0.0
  0
VERTEX
  5
16E
330
12D
100
AcDbEntity
  8
E9096
100
AcDbVertex
100
AcDb2dVertex
 10
258.10546875
 20
964.0521083089336
 30
0.0
  0
VERTEX
  5
16F
330
12D
100
AcDbEntity
  8
E9096
100
AcDbVertex
100
AcDb2dVertex
 10
258.250732421875
 20
964.0630946370586
 30
0.0
  0
VERTEX
  5
170
330
12D
100
AcDbEntity
  8
E9096
100
AcDbVertex
100
AcDb2dVertex
 10
258.3935546875
 20
964.0765223714336
 30
0.0
  0
VERTEX
  5
171
330
12D
100
AcDbEntity
  8
E9096
100
AcDbVertex
100
AcDb2dVertex
 10
258.533935546875
 20
964.0923915120586
 30
0.0
  0
VERTEX
  5
172
330
12D
100
AcDbEntity
  8
E9096
100
AcDbVertex
100
AcDb2dVertex
 10
258.671875
 20
964.1107020589336
 30
0.0
  0
VERTEX
  5
173
330
12D
100
AcDbEntity
  8
E9096
100
AcDbVertex
100
AcDb2dVertex
 10
258.807373046875
 20
964.1314540120586
 30
0.0
  0
VERTEX
  5
174
330
12D
100
AcDbEntity
  8
E9096
100
AcDbVertex
100
AcDb2dVertex
 10
258.9404296875
 20
964.1546473714336
 30
0.0
  0
VERTEX
  5
175
330
12D
100
AcDbEntity
  8
E9096
100
AcDbVertex
100
AcDb2dVertex
 10
259.071044921875
 20
964.1802821370586
 30
0.0
  0
VERTEX
  5
176
330
12D
100
AcDbEntity
  8
E9096
100
AcDbVertex
100
AcDb2dVertex
 10
259.19921875
 20
964.2083583089336
 30
0.0
  0
VERTEX
  5
177
330
12D
100
AcDbEntity
  8
E9096
100
AcDbVertex
100
AcDb2dVertex
 10
259.324951171875
 20
964.2388758870586
 30
0.0
  0
VERTEX
  5
178
330
12D
100
AcDbEntity
  8
E9096
100
AcDbVertex
100
AcDb2dVertex
 10
259.4482421875
 20
964.2718348714336
 30
0.0
  0
VERTEX
  5
179
330
12D
100
AcDbEntity
  8
E9096
100
AcDbVertex
100
AcDb2dVertex
 10
259.569091796875
 20
964.3072352620586
 30
0.0
  0
VERTEX
  5
17A
330
12D
100
AcDbEntity
  8
E9096
100
AcDbVertex
100
AcDb2dVertex
 10
259.6875
 20
964.3450770589336
 30
0.0
  0
VERTEX
  5
17B
330
12D
100
AcDbEntity
  8
E9096
100
AcDbVertex
100
AcDb2dVertex
 10
259.803466796875
 20
964.3853602620586
 30
0.0
  0
VERTEX
  5
17C
330
12D
100
AcDbEntity
  8
E9096
100
AcDbVertex
100
AcDb2dVertex
 10
259.9169921875
 20
964.4280848714336
 30
0.0
  0
VERTEX
  5
17D
330
12D
100
AcDbEntity
  8
E9096
100
AcDbVertex
100
AcDb2dVertex
 10
260.028076171875
 20
964.4732508870586
 30
0.0
  0
VERTEX
  5
17E
330
12D
100
AcDbEntity
  8
E9096
100
AcDbVertex
100
AcDb2dVertex
 10
260.13671875
 20
964.5208583089336
 30
0.0
  0
VERTEX
  5
17F
330
12D
100
AcDbEntity
  8
E9096
100
AcDbVertex
100
AcDb2dVertex
 10
260.242919921875
 20
964.5709071370586
 30
0.0
  0
VERTEX
  5
180
330
12D
100
AcDbEntity
  8
E9096
100
AcDbVertex
100
AcDb2dVertex
 10
260.3466796875
 20
964.6233973714336
 30
0.0
  0
VERTEX
  5
181
330
12D
100
AcDbEntity
  8
E9096
100
AcDbVertex
100
AcDb2dVertex
 10
260.447998046875
 20
964.6783290120586
 30
0.0
  0
VERTEX
  5
182
330
12D
100
AcDbEntity
  8
E9096
100
AcDbVertex
100
AcDb2dVertex
 10
260.546875
 20
964.7357020589336
 30
0.0
  0
VERTEX
  5
183
330
12D
100
AcDbEntity
  8
E9096
100
AcDbVertex
100
AcDb2dVertex
 10
260.643310546875
 20
964.7955165120586
 30
0.0
  0
VERTEX
  5
184
330
12D
100
AcDbEntity
  8
E9096
100
AcDbVertex
100
AcDb2dVertex
 10
260.7373046875
 20
964.8577723714336
 30
0.0
  0
VERTEX
  5
185
330
12D
100
AcDbEntity
  8
E9096
100
AcDbVertex
100
AcDb2dVertex
 10
260.828857421875
 20
964.9224696370586
 30
0.0
  0
VERTEX
  5
186
330
12D
100
AcDbEntity
  8
E9096
100
AcDbVertex
100
AcDb2dVertex
 10
260.91796875
 20
964.9896083089336
 30
0.0
  0
VERTEX
  5
187
330
12D
100
AcDbEntity
  8
E9096
100
AcDbVertex
100
AcDb2dVertex
 10
261.004638671875
 20
965.0591883870586
 30
0.0
  0
VERTEX
  5
188
330
12D
100
AcDbEntity
  8
E9096
100
AcDbVertex
100
AcDb2dVertex
 10
261.0888671875
 20
965.1312098714336
 30
0.0
  0
VERTEX
  5
189
330
12D
100
AcDbEntity
  8
E9096
100
AcDbVertex
100
AcDb2dVertex
 10
261.170654296875
 20
965.2056727620586
 30
0.0
  0
VERTEX
  5
18A
330
12D
100
AcDbEntity
  8
E9096
100
AcDbVertex
100
AcDb2dVertex
 10
261.25
 20
965.2825770589336
 30
0.0
  0
VERTEX
  5
18B
330
12D
100
AcDbEntity
  8
E9096
100
AcDbVertex
100
AcDb2dVertex
 10
261.326904296875
 20
965.3619227620586
 30
0.0
  0
VERTEX
  5
18C
330
12D
100
AcDbEntity
  8
E9096
100
AcDbVertex
100
AcDb2dVertex
 10
261.4013671875
 20
965.4437098714336
 30
0.0
  0
VERTEX
  5
18D
330
12D
100
AcDbEntity
  8
E9096
100
AcDbVertex
100
AcDb2dVertex
 10
261.473388671875
 20
965.5279383870586
 30
0.0
  0
VERTEX
  5
18E
330
12D
100
AcDbEntity
  8
E9096
100
AcDbVertex
100
AcDb2dVertex
 10
261.54296875
 20
965.6146083089336
 30
0.0
  0
VERTEX
  5
18F
330
12D
100
AcDbEntity
  8
E9096
100
AcDbVertex
100
AcDb2dVertex
 10
261.610107421875
 20
965.7037196370586
 30
0.0
  0
VERTEX
  5
190
330
12D
100
AcDbEntity
  8
E9096
100
AcDbVertex
100
AcDb2dVertex
 10
261.6748046875
 20
965.7952723714336
 30
0.0
  0
VERTEX
  5
191
330
12D
100
AcDbEntity
  8
E9096
100
AcDbVertex
100
AcDb2dVertex
 10
261.737060546875
 20
965.8892665120586
 30
0.0
  0
VERTEX
  5
192
330
12D
100
AcDbEntity
  8
E9096
100
AcDbVertex
100
AcDb2dVertex
 10
261.796875
 20
965.9857020589336
 30
0.0
  0
VERTEX
  5
193
330
12D
100
AcDbEntity
  8
E9096
100
AcDbVertex
100
AcDb2dVertex
 10
261.854248046875
 20
966.0845790120586
 30
0.0
  0
VERTEX
  5
194
330
12D
100
AcDbEntity
  8
E9096
100
AcDbVertex
100
AcDb2dVertex
 10
261.9091796875
 20
966.1858973714336
 30
0.0
  0
VERTEX
  5
195
330
12D
100
AcDbEntity
  8
E9096
100
AcDbVertex
100
AcDb2dVertex
 10
261.961669921875
 20
966.2896571370586
 30
0.0
  0
VERTEX
  5
196
330
12D
100
AcDbEntity
  8
E9096
100
AcDbVertex
100
AcDb2dVertex
 10
262.01171875
 20
966.3958583089336
 30
0.0
  0
VERTEX
  5
197
330
12D
100
AcDbEntity
  8
E9096
100
AcDbVertex
100
AcDb2dVertex
 10
262.059326171875
 20
966.5045008870586
 30
0.0
  0
VERTEX
  5
198
330
12D
100
AcDbEntity
  8
E9096
100
AcDbVertex
100
AcDb2dVertex
 10
262.1044921875
 20
966.6155848714336
 30
0.0
  0
VERTEX
  5
199
330
12D
100
AcDbEntity
  8
E9096
100
AcDbVertex
100
AcDb2dVertex
 10
262.147216796875
 20
966.7291102620586
 30
0.0
  0
VERTEX
  5
19A
330
12D
100
AcDbEntity
  8
E9096
100
AcDbVertex
100
AcDb2dVertex
 10
262.1875
 20
966.8450770589336
 30
0.0
  0
VERTEX
  5
19B
330
12D
100
AcDbEntity
  8
E9096
100
AcDbVertex
100
AcDb2dVertex
 10
262.225341796875
 20
966.9634852620586
 30
0.0
  0
VERTEX
  5
19C
330
12D
100
AcDbEntity
  8
E9096
100
AcDbVertex
100
AcDb2dVertex
 10
262.2607421875
 20
967.0843348714336
 30
0.0
  0
VERTEX
  5
19D
330
12D
100
AcDbEntity
  8
E9096
100
AcDbVertex
100
AcDb2dVertex
 10
262.293701171875
 20
967.2076258870586
 30
0.0
  0
VERTEX
  5
19E
330
12D
100
AcDbEntity
  8
E9096
100
AcDbVertex
100
AcDb2dVertex
 10
262.32421875
 20
967.3333583089336
 30
0.0
  0
VERTEX
  5
19F
330
12D
100
AcDbEntity
  8
E9096
100
AcDbVertex
100
AcDb2dVertex
 10
262.352294921875
 20
967.4615321370586
 30
0.0
  0
VERTEX
  5
1A0
330
12D
100
AcDbEntity
  8
E9096
100
AcDbVertex
100
AcDb2dVertex
 10
262.3779296875
 20
967.5921473714336
 30
0.0
  0
VERTEX
  5
1A1
330
12D
100
AcDbEntity
  8
E9096
100
AcDbVertex
100
AcDb2dVertex
 10
262.401123046875
 20
967.7252040120586
 30
0.0
  0
VERTEX
  5
1A2
330
12D
100
AcDbEntity
  8
E9096
100
AcDbVertex
100
AcDb2dVertex
 10
262.421875
 20
967.8607020589336
 30
0.0
  0
VERTEX
  5
1A3
330
12D
100
AcDbEntity
  8
E9096
100
AcDbVertex
100
AcDb2dVertex
 10
262.440185546875
 20
967.9986415120586
 30
0.0
  0
VERTEX
  5
1A4
330
12D
100
AcDbEntity
  8
E9096
100
AcDbVertex
100
AcDb2dVertex
 10
262.4560546875
 20
968.1390223714336
 30
0.0
  0
VERTEX
  5
1A5
330
12D
100
AcDbEntity
  8
E9096
100
AcDbVertex
100
AcDb2dVertex
 10
262.469482421875
 20
968.2818446370586
 30
0.0
  0
VERTEX
  5
1A6
330
12D
100
AcDbEntity
  8
E9096
100
AcDbVertex
100
AcDb2dVertex
 10
262.48046875
 20
968.4271083089336
 30
0.0
  0
VERTEX
  5
1A7
330
12D
100
AcDbEntity
  8
E9096
100
AcDbVertex
100
AcDb2dVertex
 10
262.4951171875
 20
968.7249598714336
 30
0.0
  0
VERTEX
  5
1A8
330
12D
100
AcDbEntity
  8
E9096
100
AcDbVertex
100
AcDb2dVertex
 10
262.5
 20
969.0325770589335
 30
0.0
  0
VERTEX
  5
1A9
330
12D
100
AcDbEntity
  8
E9096
100
AcDbVertex
100
AcDb2dVertex
 10
262.4999999999999
 20
971.5325770589334
 30
0.0
  0
SEQEND
  5
1AA
330
12D
100
AcDbEntity
  8
E9096
  0
POLYLINE
  5
1AB
330
1F
100
AcDbEntity
  8
E9096
100
AcDb2dPolyline
 66
     1
 10
0.0
 20
0.0
 30
0.0
  0
VERTEX
  5
1AC
330
1AB
100
AcDbEntity
  8
E9096
100
AcDbVertex
100
AcDb2dVertex
 10
113.4999999999999
 20
971.5325770589335
 30
0.0
  0
VERTEX
  5
1AD
330
1AB
100
AcDbEntity
  8
E9096
100
AcDbVertex
100
AcDb2dVertex
 10
113.4999999999999
 20
969.0325770589335
 30
0.0
  0
VERTEX
  5
1AE
330
1AB
100
AcDbEntity
  8
E9096
100
AcDbVertex
100
AcDb2dVertex
 10
113.4951171874999
 20
968.7249598714336
 30
0.0
  0
VERTEX
  5
1AF
330
1AB
100
AcDbEntity
  8
E9096
100
AcDbVertex
100
AcDb2dVertex
 10
113.4804687499999
 20
968.4271083089336
 30
0.0
  0
VERTEX
  5
1B0
330
1AB
100
AcDbEntity
  8
E9096
100
AcDbVertex
100
AcDb2dVertex
 10
113.4694824218749
 20
968.2818446370586
 30
0.0
  0
VERTEX
  5
1B1
330
1AB
100
AcDbEntity
  8
E9096
100
AcDbVertex
100
AcDb2dVertex
 10
113.4560546874999
 20
968.1390223714336
 30
0.0
  0
VERTEX
  5
1B2
330
1AB
100
AcDbEntity
  8
E9096
100
AcDbVertex
100
AcDb2dVertex
 10
113.4401855468749
 20
967.9986415120586
 30
0.0
  0
VERTEX
  5
1B3
330
1AB
100
AcDbEntity
  8
E9096
100
AcDbVertex
100
AcDb2dVertex
 10
113.4218749999999
 20
967.8607020589336
 30
0.0
  0
VERTEX
  5
1B4
330
1AB
100
AcDbEntity
  8
E9096
100
AcDbVertex
100
AcDb2dVertex
 10
113.4011230468749
 20
967.7252040120586
 30
0.0
  0
VERTEX
  5
1B5
330
1AB
100
AcDbEntity
  8
E9096
100
AcDbVertex
100
AcDb2dVertex
 10
113.3779296874999
 20
967.5921473714336
 30
0.0
  0
VERTEX
  5
1B6
330
1AB
100
AcDbEntity
  8
E9096
100
AcDbVertex
100
AcDb2dVertex
 10
113.3522949218749
 20
967.4615321370586
 30
0.0
  0
VERTEX
  5
1B7
330
1AB
100
AcDbEntity
  8
E9096
100
AcDbVertex
100
AcDb2dVertex
 10
113.3242187499999
 20
967.3333583089336
 30
0.0
  0
VERTEX
  5
1B8
330
1AB
100
AcDbEntity
  8
E9096
100
AcDbVertex
100
AcDb2dVertex
 10
113.2937011718749
 20
967.2076258870586
 30
0.0
  0
VERTEX
  5
1B9
330
1AB
100
AcDbEntity
  8
E9096
100
AcDbVertex
100
AcDb2dVertex
 10
113.2607421874999
 20
967.0843348714336
 30
0.0
  0
VERTEX
  5
1BA
330
1AB
100
AcDbEntity
  8
E9096
100
AcDbVertex
100
AcDb2dVertex
 10
113.2253417968749
 20
966.9634852620586
 30
0.0
  0
VERTEX
  5
1BB
330
1AB
100
AcDbEntity
  8
E9096
100
AcDbVertex
100
AcDb2dVertex
 10
113.1874999999999
 20
966.8450770589336
 30
0.0
  0
VERTEX
  5
1BC
330
1AB
100
AcDbEntity
  8
E9096
100
AcDbVertex
100
AcDb2dVertex
 10
113.1472167968749
 20
966.7291102620586
 30
0.0
  0
VERTEX
  5
1BD
330
1AB
100
AcDbEntity
  8
E9096
100
AcDbVertex
100
AcDb2dVertex
 10
113.1044921874999
 20
966.6155848714336
 30
0.0
  0
VERTEX
  5
1BE
330
1AB
100
AcDbEntity
  8
E9096
100
AcDbVertex
100
AcDb2dVertex
 10
113.0593261718749
 20
966.5045008870586
 30
0.0
  0
VERTEX
  5
1BF
330
1AB
100
AcDbEntity
  8
E9096
100
AcDbVertex
100
AcDb2dVertex
 10
113.0117187499999
 20
966.3958583089336
 30
0.0
  0
VERTEX
  5
1C0
330
1AB
100
AcDbEntity
  8
E9096
100
AcDbVertex
100
AcDb2dVertex
 10
112.9616699218749
 20
966.2896571370586
 30
0.0
  0
VERTEX
  5
1C1
330
1AB
100
AcDbEntity
  8
E9096
100
AcDbVertex
100
AcDb2dVertex
 10
112.9091796874999
 20
966.1858973714336
 30
0.0
  0
VERTEX
  5
1C2
330
1AB
100
AcDbEntity
  8
E9096
100
AcDbVertex
100
AcDb2dVertex
 10
112.8542480468749
 20
966.0845790120586
 30
0.0
  0
VERTEX
  5
1C3
330
1AB
100
AcDbEntity
  8
E9096
100
AcDbVertex
100
AcDb2dVertex
 10
112.7968749999999
 20
965.9857020589336
 30
0.0
  0
VERTEX
  5
1C4
330
1AB
100
AcDbEntity
  8
E9096
100
AcDbVertex
100
AcDb2dVertex
 10
112.7370605468749
 20
965.8892665120586
 30
0.0
  0
VERTEX
  5
1C5
330
1AB
100
AcDbEntity
  8
E9096
100
AcDbVertex
100
AcDb2dVertex
 10
112.6748046874999
 20
965.7952723714336
 30
0.0
  0
VERTEX
  5
1C6
330
1AB
100
AcDbEntity
  8
E9096
100
AcDbVertex
100
AcDb2dVertex
 10
112.6101074218749
 20
965.7037196370586
 30
0.0
  0
VERTEX
  5
1C7
330
1AB
100
AcDbEntity
  8
E9096
100
AcDbVertex
100
AcDb2dVertex
 10
112.5429687499999
 20
965.6146083089336
 30
0.0
  0
VERTEX
  5
1C8
330
1AB
100
AcDbEntity
  8
E9096
100
AcDbVertex
100
AcDb2dVertex
 10
112.4733886718749
 20
965.5279383870586
 30
0.0
  0
VERTEX
  5
1C9
330
1AB
100
AcDbEntity
  8
E9096
100
AcDbVertex
100
AcDb2dVertex
 10
112.4013671874999
 20
965.4437098714336
 30
0.0
  0
VERTEX
  5
1CA
330
1AB
100
AcDbEntity
  8
E9096
100
AcDbVertex
100
AcDb2dVertex
 10
112.3269042968749
 20
965.3619227620586
 30
0.0
  0
VERTEX
  5
1CB
330
1AB
100
AcDbEntity
  8
E9096
100
AcDbVertex
100
AcDb2dVertex
 10
112.2499999999999
 20
965.2825770589336
 30
0.0
  0
VERTEX
  5
1CC
330
1AB
100
AcDbEntity
  8
E9096
100
AcDbVertex
100
AcDb2dVertex
 10
112.1706542968749
 20
965.2056727620586
 30
0.0
  0
VERTEX
  5
1CD
330
1AB
100
AcDbEntity
  8
E9096
100
AcDbVertex
100
AcDb2dVertex
 10
112.0888671874999
 20
965.1312098714336
 30
0.0
  0
VERTEX
  5
1CE
330
1AB
100
AcDbEntity
  8
E9096
100
AcDbVertex
100
AcDb2dVertex
 10
112.0046386718749
 20
965.0591883870586
 30
0.0
  0
VERTEX
  5
1CF
330
1AB
100
AcDbEntity
  8
E9096
100
AcDbVertex
100
AcDb2dVertex
 10
111.9179687499999
 20
964.9896083089336
 30
0.0
  0
VERTEX
  5
1D0
330
1AB
100
AcDbEntity
  8
E9096
100
AcDbVertex
100
AcDb2dVertex
 10
111.8288574218749
 20
964.9224696370586
 30
0.0
  0
VERTEX
  5
1D1
330
1AB
100
AcDbEntity
  8
E9096
100
AcDbVertex
100
AcDb2dVertex
 10
111.7373046874999
 20
964.8577723714336
 30
0.0
  0
VERTEX
  5
1D2
330
1AB
100
AcDbEntity
  8
E9096
100
AcDbVertex
100
AcDb2dVertex
 10
111.6433105468749
 20
964.7955165120586
 30
0.0
  0
VERTEX
  5
1D3
330
1AB
100
AcDbEntity
  8
E9096
100
AcDbVertex
100
AcDb2dVertex
 10
111.5468749999999
 20
964.7357020589336
 30
0.0
  0
VERTEX
  5
1D4
330
1AB
100
AcDbEntity
  8
E9096
100
AcDbVertex
100
AcDb2dVertex
 10
111.4479980468749
 20
964.6783290120586
 30
0.0
  0
VERTEX
  5
1D5
330
1AB
100
AcDbEntity
  8
E9096
100
AcDbVertex
100
AcDb2dVertex
 10
111.3466796874999
 20
964.6233973714336
 30
0.0
  0
VERTEX
  5
1D6
330
1AB
100
AcDbEntity
  8
E9096
100
AcDbVertex
100
AcDb2dVertex
 10
111.2429199218749
 20
964.5709071370586
 30
0.0
  0
VERTEX
  5
1D7
330
1AB
100
AcDbEntity
  8
E9096
100
AcDbVertex
100
AcDb2dVertex
 10
111.1367187499999
 20
964.5208583089336
 30
0.0
  0
VERTEX
  5
1D8
330
1AB
100
AcDbEntity
  8
E9096
100
AcDbVertex
100
AcDb2dVertex
 10
111.0280761718749
 20
964.4732508870586
 30
0.0
  0
VERTEX
  5
1D9
330
1AB
100
AcDbEntity
  8
E9096
100
AcDbVertex
100
AcDb2dVertex
 10
110.9169921874999
 20
964.4280848714336
 30
0.0
  0
VERTEX
  5
1DA
330
1AB
100
AcDbEntity
  8
E9096
100
AcDbVertex
100
AcDb2dVertex
 10
110.8034667968749
 20
964.3853602620586
 30
0.0
  0
VERTEX
  5
1DB
330
1AB
100
AcDbEntity
  8
E9096
100
AcDbVertex
100
AcDb2dVertex
 10
110.6874999999999
 20
964.3450770589336
 30
0.0
  0
VERTEX
  5
1DC
330
1AB
100
AcDbEntity
  8
E9096
100
AcDbVertex
100
AcDb2dVertex
 10
110.5690917968749
 20
964.3072352620586
 30
0.0
  0
VERTEX
  5
1DD
330
1AB
100
AcDbEntity
  8
E9096
100
AcDbVertex
100
AcDb2dVertex
 10
110.4482421874999
 20
964.2718348714336
 30
0.0
  0
VERTEX
  5
1DE
330
1AB
100
AcDbEntity
  8
E9096
100
AcDbVertex
100
AcDb2dVertex
 10
110.3249511718749
 20
964.2388758870586
 30
0.0
  0
VERTEX
  5
1DF
330
1AB
100
AcDbEntity
  8
E9096
100
AcDbVertex
100
AcDb2dVertex
 10
110.1992187499999
 20
964.2083583089336
 30
0.0
  0
VERTEX
  5
1E0
330
1AB
100
AcDbEntity
  8
E9096
100
AcDbVertex
100
AcDb2dVertex
 10
110.0710449218749
 20
964.1802821370586
 30
0.0
  0
VERTEX
  5
1E1
330
1AB
100
AcDbEntity
  8
E9096
100
AcDbVertex
100
AcDb2dVertex
 10
109.9404296874999
 20
964.1546473714336
 30
0.0
  0
VERTEX
  5
1E2
330
1AB
100
AcDbEntity
  8
E9096
100
AcDbVertex
100
AcDb2dVertex
 10
109.8073730468749
 20
964.1314540120586
 30
0.0
  0
VERTEX
  5
1E3
330
1AB
100
AcDbEntity
  8
E9096
100
AcDbVertex
100
AcDb2dVertex
 10
109.6718749999999
 20
964.1107020589336
 30
0.0
  0
VERTEX
  5
1E4
330
1AB
100
AcDbEntity
  8
E9096
100
AcDbVertex
100
AcDb2dVertex
 10
109.5339355468749
 20
964.0923915120586
 30
0.0
  0
VERTEX
  5
1E5
330
1AB
100
AcDbEntity
  8
E9096
100
AcDbVertex
100
AcDb2dVertex
 10
109.3935546874999
 20
964.0765223714336
 30
0.0
  0
VERTEX
  5
1E6
330
1AB
100
AcDbEntity
  8
E9096
100
AcDbVertex
100
AcDb2dVertex
 10
109.2507324218749
 20
964.0630946370586
 30
0.0
  0
VERTEX
  5
1E7
330
1AB
100
AcDbEntity
  8
E9096
100
AcDbVertex
100
AcDb2dVertex
 10
109.1054687499999
 20
964.0521083089336
 30
0.0
  0
VERTEX
  5
1E8
330
1AB
100
AcDbEntity
  8
E9096
100
AcDbVertex
100
AcDb2dVertex
 10
108.8076171874999
 20
964.0374598714336
 30
0.0
  0
VERTEX
  5
1E9
330
1AB
100
AcDbEntity
  8
E9096
100
AcDbVertex
100
AcDb2dVertex
 10
108.4999999999998
 20
964.0325770589336
 30
0.0
  0
VERTEX
  5
1EA
330
1AB
100
AcDbEntity
  8
E9096
100
AcDbVertex
100
AcDb2dVertex
 10
57.49999999999986
 20
964.0325770589336
 30
0.0
  0
VERTEX
  5
1EB
330
1AB
100
AcDbEntity
  8
E9096
100
AcDbVertex
100
AcDb2dVertex
 10
57.19238281249986
 20
964.0374598714336
 30
0.0
  0
VERTEX
  5
1EC
330
1AB
100
AcDbEntity
  8
E9096
100
AcDbVertex
100
AcDb2dVertex
 10
56.89453124999986
 20
964.0521083089336
 30
0.0
  0
VERTEX
  5
1ED
330
1AB
100
AcDbEntity
  8
E9096
100
AcDbVertex
100
AcDb2dVertex
 10
56.74926757812486
 20
964.0630946370586
 30
0.0
  0
VERTEX
  5
1EE
330
1AB
100
AcDbEntity
  8
E9096
100
AcDbVertex
100
AcDb2dVertex
 10
56.60644531249986
 20
964.0765223714336
 30
0.0
  0
VERTEX
  5
1EF
330
1AB
100
AcDbEntity
  8
E9096
100
AcDbVertex
100
AcDb2dVertex
 10
56.46606445312486
 20
964.0923915120586
 30
0.0
  0
VERTEX
  5
1F0
330
1AB
100
AcDbEntity
  8
E9096
100
AcDbVertex
100
AcDb2dVertex
 10
56.32812499999985
 20
964.1107020589336
 30
0.0
  0
VERTEX
  5
1F1
330
1AB
100
AcDbEntity
  8
E9096
100
AcDbVertex
100
AcDb2dVertex
 10
56.19262695312484
 20
964.1314540120586
 30
0.0
  0
VERTEX
  5
1F2
330
1AB
100
AcDbEntity
  8
E9096
100
AcDbVertex
100
AcDb2dVertex
 10
56.05957031249984
 20
964.1546473714336
 30
0.0
  0
VERTEX
  5
1F3
330
1AB
100
AcDbEntity
  8
E9096
100
AcDbVertex
100
AcDb2dVertex
 10
55.92895507812484
 20
964.1802821370586
 30
0.0
  0
VERTEX
  5
1F4
330
1AB
100
AcDbEntity
  8
E9096
100
AcDbVertex
100
AcDb2dVertex
 10
55.80078124999984
 20
964.2083583089336
 30
0.0
  0
VERTEX
  5
1F5
330
1AB
100
AcDbEntity
  8
E9096
100
AcDbVertex
100
AcDb2dVertex
 10
55.67504882812484
 20
964.2388758870586
 30
0.0
  0
VERTEX
  5
1F6
330
1AB
100
AcDbEntity
  8
E9096
100
AcDbVertex
100
AcDb2dVertex
 10
55.55175781249984
 20
964.2718348714336
 30
0.0
  0
VERTEX
  5
1F7
330
1AB
100
AcDbEntity
  8
E9096
100
AcDbVertex
100
AcDb2dVertex
 10
55.43090820312484
 20
964.3072352620586
 30
0.0
  0
VERTEX
  5
1F8
330
1AB
100
AcDbEntity
  8
E9096
100
AcDbVertex
100
AcDb2dVertex
 10
55.31249999999984
 20
964.3450770589336
 30
0.0
  0
VERTEX
  5
1F9
330
1AB
100
AcDbEntity
  8
E9096
100
AcDbVertex
100
AcDb2dVertex
 10
55.19653320312484
 20
964.3853602620586
 30
0.0
  0
VERTEX
  5
1FA
330
1AB
100
AcDbEntity
  8
E9096
100
AcDbVertex
100
AcDb2dVertex
 10
55.08300781249984
 20
964.4280848714336
 30
0.0
  0
VERTEX
  5
1FB
330
1AB
100
AcDbEntity
  8
E9096
100
AcDbVertex
100
AcDb2dVertex
 10
54.97192382812484
 20
964.4732508870586
 30
0.0
  0
VERTEX
  5
1FC
330
1AB
100
AcDbEntity
  8
E9096
100
AcDbVertex
100
AcDb2dVertex
 10
54.86328124999984
 20
964.5208583089336
 30
0.0
  0
VERTEX
  5
1FD
330
1AB
100
AcDbEntity
  8
E9096
100
AcDbVertex
100
AcDb2dVertex
 10
54.75708007812484
 20
964.5709071370586
 30
0.0
  0
VERTEX
  5
1FE
330
1AB
100
AcDbEntity
  8
E9096
100
AcDbVertex
100
AcDb2dVertex
 10
54.65332031249984
 20
964.6233973714336
 30
0.0
  0
VERTEX
  5
1FF
330
1AB
100
AcDbEntity
  8
E9096
100
AcDbVertex
100
AcDb2dVertex
 10
54.55200195312484
 20
964.6783290120586
 30
0.0
  0
VERTEX
  5
200
330
1AB
100
AcDbEntity
  8
E9096
100
AcDbVertex
100
AcDb2dVertex
 10
54.45312499999984
 20
964.7357020589336
 30
0.0
  0
VERTEX
  5
201
330
1AB
100
AcDbEntity
  8
E9096
100
AcDbVertex
100
AcDb2dVertex
 10
54.35668945312484
 20
964.7955165120586
 30
0.0
  0
VERTEX
  5
202
330
1AB
100
AcDbEntity
  8
E9096
100
AcDbVertex
100
AcDb2dVertex
 10
54.26269531249984
 20
964.8577723714336
 30
0.0
  0
VERTEX
  5
203
330
1AB
100
AcDbEntity
  8
E9096
100
AcDbVertex
100
AcDb2dVertex
 10
54.17114257812484
 20
964.9224696370586
 30
0.0
  0
VERTEX
  5
204
330
1AB
100
AcDbEntity
  8
E9096
100
AcDbVertex
100
AcDb2dVertex
 10
54.08203124999984
 20
964.9896083089336
 30
0.0
  0
VERTEX
  5
205
330
1AB
100
AcDbEntity
  8
E9096
100
AcDbVertex
100
AcDb2dVertex
 10
53.99536132812484
 20
965.0591883870586
 30
0.0
  0
VERTEX
  5
206
330
1AB
100
AcDbEntity
  8
E9096
100
AcDbVertex
100
AcDb2dVertex
 10
53.91113281249984
 20
965.1312098714336
 30
0.0
  0
VERTEX
  5
207
330
1AB
100
AcDbEntity
  8
E9096
100
AcDbVertex
100
AcDb2dVertex
 10
53.82934570312484
 20
965.2056727620586
 30
0.0
  0
VERTEX
  5
208
330
1AB
100
AcDbEntity
  8
E9096
100
AcDbVertex
100
AcDb2dVertex
 10
53.74999999999984
 20
965.2825770589336
 30
0.0
  0
VERTEX
  5
209
330
1AB
100
AcDbEntity
  8
E9096
100
AcDbVertex
100
AcDb2dVertex
 10
53.67309570312484
 20
965.3619227620586
 30
0.0
  0
VERTEX
  5
20A
330
1AB
100
AcDbEntity
  8
E9096
100
AcDbVertex
100
AcDb2dVertex
 10
53.59863281249984
 20
965.4437098714336
 30
0.0
  0
VERTEX
  5
20B
330
1AB
100
AcDbEntity
  8
E9096
100
AcDbVertex
100
AcDb2dVertex
 10
53.52661132812484
 20
965.5279383870586
 30
0.0
  0
VERTEX
  5
20C
330
1AB
100
AcDbEntity
  8
E9096
100
AcDbVertex
100
AcDb2dVertex
 10
53.45703124999984
 20
965.6146083089336
 30
0.0
  0
VERTEX
  5
20D
330
1AB
100
AcDbEntity
  8
E9096
100
AcDbVertex
100
AcDb2dVertex
 10
53.38989257812484
 20
965.7037196370586
 30
0.0
  0
VERTEX
  5
20E
330
1AB
100
AcDbEntity
  8
E9096
100
AcDbVertex
100
AcDb2dVertex
 10
53.32519531249984
 20
965.7952723714336
 30
0.0
  0
VERTEX
  5
20F
330
1AB
100
AcDbEntity
  8
E9096
100
AcDbVertex
100
AcDb2dVertex
 10
53.26293945312484
 20
965.8892665120586
 30
0.0
  0
VERTEX
  5
210
330
1AB
100
AcDbEntity
  8
E9096
100
AcDbVertex
100
AcDb2dVertex
 10
53.20312499999984
 20
965.9857020589336
 30
0.0
  0
VERTEX
  5
211
330
1AB
100
AcDbEntity
  8
E9096
100
AcDbVertex
100
AcDb2dVertex
 10
53.14575195312484
 20
966.0845790120586
 30
0.0
  0
VERTEX
  5
212
330
1AB
100
AcDbEntity
  8
E9096
100
AcDbVertex
100
AcDb2dVertex
 10
53.09082031249984
 20
966.1858973714336
 30
0.0
  0
VERTEX
  5
213
330
1AB
100
AcDbEntity
  8
E9096
100
AcDbVertex
100
AcDb2dVertex
 10
53.03833007812484
 20
966.2896571370586
 30
0.0
  0
VERTEX
  5
214
330
1AB
100
AcDbEntity
  8
E9096
100
AcDbVertex
100
AcDb2dVertex
 10
52.98828124999984
 20
966.3958583089336
 30
0.0
  0
VERTEX
  5
215
330
1AB
100
AcDbEntity
  8
E9096
100
AcDbVertex
100
AcDb2dVertex
 10
52.94067382812484
 20
966.5045008870586
 30
0.0
  0
VERTEX
  5
216
330
1AB
100
AcDbEntity
  8
E9096
100
AcDbVertex
100
AcDb2dVertex
 10
52.89550781249984
 20
966.6155848714336
 30
0.0
  0
VERTEX
  5
217
330
1AB
100
AcDbEntity
  8
E9096
100
AcDbVertex
100
AcDb2dVertex
 10
52.85278320312484
 20
966.7291102620586
 30
0.0
  0
VERTEX
  5
218
330
1AB
100
AcDbEntity
  8
E9096
100
AcDbVertex
100
AcDb2dVertex
 10
52.81249999999984
 20
966.8450770589336
 30
0.0
  0
VERTEX
  5
219
330
1AB
100
AcDbEntity
  8
E9096
100
AcDbVertex
100
AcDb2dVertex
 10
52.77465820312484
 20
966.9634852620586
 30
0.0
  0
VERTEX
  5
21A
330
1AB
100
AcDbEntity
  8
E9096
100
AcDbVertex
100
AcDb2dVertex
 10
52.73925781249984
 20
967.0843348714336
 30
0.0
  0
VERTEX
  5
21B
330
1AB
100
AcDbEntity
  8
E9096
100
AcDbVertex
100
AcDb2dVertex
 10
52.70629882812484
 20
967.2076258870586
 30
0.0
  0
VERTEX
  5
21C
330
1AB
100
AcDbEntity
  8
E9096
100
AcDbVertex
100
AcDb2dVertex
 10
52.67578124999984
 20
967.3333583089336
 30
0.0
  0
VERTEX
  5
21D
330
1AB
100
AcDbEntity
  8
E9096
100
AcDbVertex
100
AcDb2dVertex
 10
52.64770507812484
 20
967.4615321370586
 30
0.0
  0
VERTEX
  5
21E
330
1AB
100
AcDbEntity
  8
E9096
100
AcDbVertex
100
AcDb2dVertex
 10
52.62207031249984
 20
967.5921473714336
 30
0.0
  0
VERTEX
  5
21F
330
1AB
100
AcDbEntity
  8
E9096
100
AcDbVertex
100
AcDb2dVertex
 10
52.59887695312484
 20
967.7252040120586
 30
0.0
  0
VERTEX
  5
220
330
1AB
100
AcDbEntity
  8
E9096
100
AcDbVertex
100
AcDb2dVertex
 10
52.57812499999984
 20
967.8607020589336
 30
0.0
  0
VERTEX
  5
221
330
1AB
100
AcDbEntity
  8
E9096
100
AcDbVertex
100
AcDb2dVertex
 10
52.55981445312484
 20
967.9986415120586
 30
0.0
  0
VERTEX
  5
222
330
1AB
100
AcDbEntity
  8
E9096
100
AcDbVertex
100
AcDb2dVertex
 10
52.54394531249984
 20
968.1390223714336
 30
0.0
  0
VERTEX
  5
223
330
1AB
100
AcDbEntity
  8
E9096
100
AcDbVertex
100
AcDb2dVertex
 10
52.53051757812484
 20
968.2818446370586
 30
0.0
  0
VERTEX
  5
224
330
1AB
100
AcDbEntity
  8
E9096
100
AcDbVertex
100
AcDb2dVertex
 10
52.51953124999984
 20
968.4271083089336
 30
0.0
  0
VERTEX
  5
225
330
1AB
100
AcDbEntity
  8
E9096
100
AcDbVertex
100
AcDb2dVertex
 10
52.50488281249984
 20
968.7249598714336
 30
0.0
  0
VERTEX
  5
226
330
1AB
100
AcDbEntity
  8
E9096
100
AcDbVertex
100
AcDb2dVertex
 10
52.49999999999985
 20
969.0325770589335
 30
0.0
  0
VERTEX
  5
227
330
1AB
100
AcDbEntity
  8
E9096
100
AcDbVertex
100
AcDb2dVertex
 10
52.49999999999986
 20
971.5325770589334
 30
0.0
  0
SEQEND
  5
228
330
1AB
100
AcDbEntity
  8
E9096
  0
POLYLINE
  5
229
330
1F
100
AcDbEntity
  8
Make2D$可见线$普通线
100
AcDb2dPolyline
 66
     1
 10
0.0
 20
0.0
 30
0.0
  0
VERTEX
  5
22A
330
229
100
AcDbEntity
  8
Make2D$可见线$普通线
100
AcDbVertex
100
AcDb2dVertex
 10
167.7547135652572
 20
956.101689296069
 30
0.0
  0
VERTEX
  5
22B
330
229
100
AcDbEntity
  8
Make2D$可见线$普通线
100
AcDbVertex
100
AcDb2dVertex
 10
167.6861408725511
 20
956.0529226354707
 30
0.0
 42
0.5837846776072718
  0
VERTEX
  5
22C
330
229
100
AcDbEntity
  8
Make2D$可见线$普通线
100
AcDbVertex
100
AcDb2dVertex
 10
167.8238377363442
 20
955.2038274347216
 30
0.0
  0
SEQEND
  5
22D
330
229
100
AcDbEntity
  8
Make2D$可见线$普通线
  0
POLYLINE
  5
22E
330
1F
100
AcDbEntity
  8
Make2D$可见线$普通线
100
AcDb2dPolyline
 66
     1
 10
0.0
 20
0.0
 30
0.0
  0
VERTEX
  5
22F
330
22E
100
AcDbEntity
  8
Make2D$可见线$普通线
100
AcDbVertex
100
AcDb2dVertex
 10
147.2439717467942
 20
956.0585378021862
 30
0.0
 42
0.513076530806009
  0
VERTEX
  5
230
330
22E
100
AcDbEntity
  8
Make2D$可见线$普通线
100
AcDbVertex
100
AcDb2dVertex
 10
147.3424419281802
 20
956.8507808715573
 30
0.0
 42
0.1723451244440007
  0
VERTEX
  5
231
330
22E
100
AcDbEntity
  8
Make2D$可见线$普通线
100
AcDbVertex
100
AcDb2dVertex
 10
147.1786245823267
 20
956.9473219990331
 30
0.0
  0
SEQEND
  5
232
330
22E
100
AcDbEntity
  8
Make2D$可见线$普通线
  0
POLYLINE
  5
233
330
1F
100
AcDbEntity
  8
Make2D$可见线$普通线
100
AcDb2dPolyline
 66
     1
 10
0.0
 20
0.0
 30
0.0
  0
VERTEX
  5
234
330
233
100
AcDbEntity
  8
Make2D$可见线$普通线
100
AcDbVertex
100
AcDb2dVertex
 10
147.2584532155461
 20
954.4199685869619
 30
0.0
 42
0.5488765403993853
  0
VERTEX
  5
235
330
233
100
AcDbEntity
  8
Make2D$可见线$普通线
100
AcDbVertex
100
AcDb2dVertex
 10
147.2840914867366
 20
955.2523642540509
 30
0.0
  0
VERTEX
  5
236
330
233
100
AcDbEntity
  8
Make2D$可见线$普通线
100
AcDbVertex
100
AcDb2dVertex
 10
147.1796554144347
 20
955.311137245123
 30
0.0
  0
SEQEND
  5
237
330
233
100
AcDbEntity
  8
Make2D$可见线$普通线
  0
POLYLINE
  5
238
330
1F
100
AcDbEntity
  8
Make2D$可见线$普通线
100
AcDb2dPolyline
 66
     1
 10
0.0
 20
0.0
 30
0.0
  0
VERTEX
  5
239
330
238
100
AcDbEntity
  8
Make2D$可见线$普通线
100
AcDbVertex
100
AcDb2dVertex
 10
147.2016828941518
 20
953.6404027973133
 30
0.0
  0
VERTEX
  5
23A
330
238
100
AcDbEntity
  8
Make2D$可见线$普通线
100
AcDbVertex
100
AcDb2dVertex
 10
146.9944597654878
 20
953.6725126373951
 30
0.0
 42
-0.2356274958982394
  0
VERTEX
  5
23B
330
238
100
AcDbEntity
  8
Make2D$可见线$普通线
100
AcDbVertex
100
AcDb2dVertex
 10
146.9423722286405
 20
953.6985054578288
 30
0.0
 42
-0.1889798312876023
  0
VERTEX
  5
23C
330
238
100
AcDbEntity
  8
Make2D$可见线$普通线
100
AcDbVertex
100
AcDb2dVertex
 10
147.0548006710179
 20
953.7367317954962
 30
0.0
  0
VERTEX
  5
23D
330
238
100
AcDbEntity
  8
Make2D$可见线$普通线
100
AcDbVertex
100
AcDb2dVertex
 10
147.2258602538035
 20
953.7583792585324
 30
0.0
  0
VERTEX
  5
23E
330
238
100
AcDbEntity
  8
Make2D$可见线$普通线
100
AcDbVertex
100
AcDb2dVertex
 10
147.3973903828043
 20
953.7763084364683
 30
0.0
  0
VERTEX
  5
23F
330
238
100
AcDbEntity
  8
Make2D$可见线$普通线
100
AcDbVertex
100
AcDb2dVertex
 10
147.5692696702767
 20
953.7905053063516
 30
0.0
  0
VERTEX
  5
240
330
238
100
AcDbEntity
  8
Make2D$可见线$普通线
100
AcDbVertex
100
AcDb2dVertex
 10
149.0125012059643
 20
953.8651682175715
 30
0.0
  0
VERTEX
  5
241
330
238
100
AcDbEntity
  8
Make2D$可见线$普通线
100
AcDbVertex
100
AcDb2dVertex
 10
150.7930043792064
 20
953.9294035134767
 30
0.0
  0
VERTEX
  5
242
330
238
100
AcDbEntity
  8
Make2D$可见线$普通线
100
AcDbVertex
100
AcDb2dVertex
 10
155.427853783962
 20
954.0578296969941
 30
0.0
  0
VERTEX
  5
243
330
238
100
AcDbEntity
  8
Make2D$可见线$普通线
100
AcDbVertex
100
AcDb2dVertex
 10
157.5
 20
954.1095158673087
 30
0.0
  0
VERTEX
  5
244
330
238
100
AcDbEntity
  8
Make2D$可见线$普通线
100
AcDbVertex
100
AcDb2dVertex
 10
162.9168755554249
 20
954.2504954404508
 30
0.0
  0
VERTEX
  5
245
330
238
100
AcDbEntity
  8
Make2D$可见线$普通线
100
AcDbVertex
100
AcDb2dVertex
 10
164.9653701903717
 20
954.3150277158517
 30
0.0
  0
VERTEX
  5
246
330
238
100
AcDbEntity
  8
Make2D$可见线$普通线
100
AcDbVertex
100
AcDb2dVertex
 10
166.5492710629383
 20
954.3789417176315
 30
0.0
  0
VERTEX
  5
247
330
238
100
AcDbEntity
  8
Make2D$可见线$普通线
100
AcDbVertex
100
AcDb2dVertex
 10
167.5993666818369
 20
954.443150839047
 30
0.0
 42
0.0564179540729186
  0
VERTEX
  5
248
330
238
100
AcDbEntity
  8
Make2D$可见线$普通线
100
AcDbVertex
100
AcDb2dVertex
 10
168.0443107287781
 20
954.507378579548
 30
0.0
  0
VERTEX
  5
249
330
238
100
AcDbEntity
  8
Make2D$可见线$普通线
100
AcDbVertex
100
AcDb2dVertex
 10
168.0576277713594
 20
954.5205175640752
 30
0.0
  0
VERTEX
  5
24A
330
238
100
AcDbEntity
  8
Make2D$可见线$普通线
100
AcDbVertex
100
AcDb2dVertex
 10
168.0576277713594
 20
955.1708953297798
 30
0.0
  0
SEQEND
  5
24B
330
238
100
AcDbEntity
  8
Make2D$可见线$普通线
  0
POLYLINE
  5
24C
330
1F
100
AcDbEntity
  8
Make2D$可见线$普通线
100
AcDb2dPolyline
 66
     1
 10
0.0
 20
0.0
 30
0.0
  0
VERTEX
  5
24D
330
24C
100
AcDbEntity
  8
Make2D$可见线$普通线
100
AcDbVertex
100
AcDb2dVertex
 10
147.2251464401473
 20
951.9938249988086
 30
0.0
  0
VERTEX
  5
24E
330
24C
100
AcDbEntity
  8
Make2D$可见线$普通线
100
AcDbVertex
100
AcDb2dVertex
 10
147.1477193711752
 20
952.0028297053825
 30
0.0
  0
VERTEX
  5
24F
330
24C
100
AcDbEntity
  8
Make2D$可见线$普通线
100
AcDbVertex
100
AcDb2dVertex
 10
147.099687153655
 20
952.0092937311728
 30
0.0
  0
VERTEX
  5
250
330
24C
100
AcDbEntity
  8
Make2D$可见线$普通线
100
AcDbVertex
100
AcDb2dVertex
 10
147.0580210854758
 20
952.0157538464483
 30
0.0
  0
VERTEX
  5
251
330
24C
100
AcDbEntity
  8
Make2D$可见线$普通线
100
AcDbVertex
100
AcDb2dVertex
 10
147.0227329240677
 20
952.0222115415379
 30
0.0
  0
VERTEX
  5
252
330
24C
100
AcDbEntity
  8
Make2D$可见线$普通线
100
AcDbVertex
100
AcDb2dVertex
 10
147.0074842325996
 20
952.0254399472406
 30
0.0
  0
VERTEX
  5
253
330
24C
100
AcDbEntity
  8
Make2D$可见线$普通线
100
AcDbVertex
100
AcDb2dVertex
 10
146.9938344268604
 20
952.02866830677
 30
0.0
  0
VERTEX
  5
254
330
24C
100
AcDbEntity
  8
Make2D$可见线$普通线
100
AcDbVertex
100
AcDb2dVertex
 10
146.9817849765291
 20
952.0318968064173
 30
0.0
  0
VERTEX
  5
255
330
24C
100
AcDbEntity
  8
Make2D$可见线$普通线
100
AcDbVertex
100
AcDb2dVertex
 10
146.9763608439159
 20
952.033511167001
 30
0.0
  0
VERTEX
  5
256
330
24C
100
AcDbEntity
  8
Make2D$可见线$普通线
100
AcDbVertex
100
AcDb2dVertex
 10
146.9713373512842
 20
952.0351256324734
 30
0.0
  0
VERTEX
  5
257
330
24C
100
AcDbEntity
  8
Make2D$可见线$普通线
100
AcDbVertex
100
AcDb2dVertex
 10
146.9667146823438
 20
952.0367402261207
 30
0.0
  0
VERTEX
  5
258
330
24C
100
AcDbEntity
  8
Make2D$可见线$普通线
100
AcDbVertex
100
AcDb2dVertex
 10
146.9624930208045
 20
952.0383549712295
 30
0.0
  0
VERTEX
  5
259
330
24C
100
AcDbEntity
  8
Make2D$可见线$普通线
100
AcDbVertex
100
AcDb2dVertex
 10
146.9605326252196
 20
952.0391624078588
 30
0.0
  0
VERTEX
  5
25A
330
24C
100
AcDbEntity
  8
Make2D$可见线$普通线
100
AcDbVertex
100
AcDb2dVertex
 10
146.9586725503762
 20
952.039969891086
 30
0.0
  0
VERTEX
  5
25B
330
24C
100
AcDbEntity
  8
Make2D$可见线$普通线
100
AcDbVertex
100
AcDb2dVertex
 10
146.9569128192381
 20
952.0407774238217
 30
0.0
  0
VERTEX
  5
25C
330
24C
100
AcDbEntity
  8
Make2D$可见线$普通线
100
AcDbVertex
100
AcDb2dVertex
 10
146.9552534547688
 20
952.0415850089765
 30
0.0
  0
VERTEX
  5
25D
330
24C
100
AcDbEntity
  8
Make2D$可见线$普通线
100
AcDbVertex
100
AcDb2dVertex
 10
146.9536944799322
 20
952.0423926494616
 30
0.0
  0
VERTEX
  5
25E
330
24C
100
AcDbEntity
  8
Make2D$可见线$普通线
100
AcDbVertex
100
AcDb2dVertex
 10
146.952235917692
 20
952.0432003481876
 30
0.0
  0
VERTEX
  5
25F
330
24C
100
AcDbEntity
  8
Make2D$可见线$普通线
100
AcDbVertex
100
AcDb2dVertex
 10
146.950877791012
 20
952.0440081080653
 30
0.0
  0
VERTEX
  5
260
330
24C
100
AcDbEntity
  8
Make2D$可见线$普通线
100
AcDbVertex
100
AcDb2dVertex
 10
146.9502363981832
 20
952.0444120118458
 30
0.0
  0
VERTEX
  5
261
330
24C
100
AcDbEntity
  8
Make2D$可见线$普通线
100
AcDbVertex
100
AcDb2dVertex
 10
146.9496201228558
 20
952.0448159320057
 30
0.0
  0
VERTEX
  5
262
330
24C
100
AcDbEntity
  8
Make2D$可见线$普通线
100
AcDbVertex
100
AcDb2dVertex
 10
146.9490289679003
 20
952.0452198689089
 30
0.0
  0
VERTEX
  5
263
330
24C
100
AcDbEntity
  8
Make2D$可见线$普通线
100
AcDbVertex
100
AcDb2dVertex
 10
146.9484629361872
 20
952.0456238229193
 30
0.0
  0
VERTEX
  5
264
330
24C
100
AcDbEntity
  8
Make2D$可见线$普通线
100
AcDbVertex
100
AcDb2dVertex
 10
146.9479220305869
 20
952.0460277944007
 30
0.0
  0
VERTEX
  5
265
330
24C
100
AcDbEntity
  8
Make2D$可见线$普通线
100
AcDbVertex
100
AcDb2dVertex
 10
146.9474062539699
 20
952.046431783717
 30
0.0
  0
VERTEX
  5
266
330
24C
100
AcDbEntity
  8
Make2D$可见线$普通线
100
AcDbVertex
100
AcDb2dVertex
 10
146.9469156092067
 20
952.0468357912321
 30
0.0
  0
VERTEX
  5
267
330
24C
100
AcDbEntity
  8
Make2D$可见线$普通线
100
AcDbVertex
100
AcDb2dVertex
 10
146.9464500991677
 20
952.0472398173097
 30
0.0
  0
VERTEX
  5
268
330
24C
100
AcDbEntity
  8
Make2D$可见线$普通线
100
AcDbVertex
100
AcDb2dVertex
 10
146.9460097267234
 20
952.0476438623139
 30
0.0
  0
VERTEX
  5
269
330
24C
100
AcDbEntity
  8
Make2D$可见线$普通线
100
AcDbVertex
100
AcDb2dVertex
 10
146.9455944947443
 20
952.0480479266082
 30
0.0
  0
VERTEX
  5
26A
330
24C
100
AcDbEntity
  8
Make2D$可见线$普通线
100
AcDbVertex
100
AcDb2dVertex
 10
146.9452044061008
 20
952.0484520105567
 30
0.0
  0
VERTEX
  5
26B
330
24C
100
AcDbEntity
  8
Make2D$可见线$普通线
100
AcDbVertex
100
AcDb2dVertex
 10
146.9448394636634
 20
952.0488561145232
 30
0.0
  0
VERTEX
  5
26C
330
24C
100
AcDbEntity
  8
Make2D$可见线$普通线
100
AcDbVertex
100
AcDb2dVertex
 10
146.9446664231689
 20
952.0490581741269
 30
0.0
  0
VERTEX
  5
26D
330
24C
100
AcDbEntity
  8
Make2D$可见线$普通线
100
AcDbVertex
100
AcDb2dVertex
 10
146.9444996703025
 20
952.0492602388715
 30
0.0
  0
VERTEX
  5
26E
330
24C
100
AcDbEntity
  8
Make2D$可见线$普通线
100
AcDbVertex
100
AcDb2dVertex
 10
146.9443392054228
 20
952.0494623088025
 30
0.0
  0
VERTEX
  5
26F
330
24C
100
AcDbEntity
  8
Make2D$可见线$普通线
100
AcDbVertex
100
AcDb2dVertex
 10
146.9441850288887
 20
952.0496643839654
 30
0.0
  0
VERTEX
  5
270
330
24C
100
AcDbEntity
  8
Make2D$可见线$普通线
100
AcDbVertex
100
AcDb2dVertex
 10
146.9440371410589
 20
952.0498664644057
 30
0.0
  0
VERTEX
  5
271
330
24C
100
AcDbEntity
  8
Make2D$可见线$普通线
100
AcDbVertex
100
AcDb2dVertex
 10
146.9438955422923
 20
952.0500685501688
 30
0.0
  0
VERTEX
  5
272
330
24C
100
AcDbEntity
  8
Make2D$可见线$普通线
100
AcDbVertex
100
AcDb2dVertex
 10
146.9437602329477
 20
952.0502706413004
 30
0.0
  0
VERTEX
  5
273
330
24C
100
AcDbEntity
  8
Make2D$可见线$普通线
100
AcDbVertex
100
AcDb2dVertex
 10
146.9436312133839
 20
952.0504727378457
 30
0.0
  0
VERTEX
  5
274
330
24C
100
AcDbEntity
  8
Make2D$可见线$普通线
100
AcDbVertex
100
AcDb2dVertex
 10
146.9435084839597
 20
952.0506748398504
 30
0.0
  0
VERTEX
  5
275
330
24C
100
AcDbEntity
  8
Make2D$可见线$普通线
100
AcDbVertex
100
AcDb2dVertex
 10
146.943392045034
 20
952.0508769473598
 30
0.0
  0
VERTEX
  5
276
330
24C
100
AcDbEntity
  8
Make2D$可见线$普通线
100
AcDbVertex
100
AcDb2dVertex
 10
146.9432818969654
 20
952.0510790604195
 30
0.0
  0
VERTEX
  5
277
330
24C
100
AcDbEntity
  8
Make2D$可见线$普通线
100
AcDbVertex
100
AcDb2dVertex
 10
146.9431780401129
 20
952.051281179075
 30
0.0
  0
VERTEX
  5
278
330
24C
100
AcDbEntity
  8
Make2D$可见线$普通线
100
AcDbVertex
100
AcDb2dVertex
 10
146.9430804748353
 20
952.0514833033717
 30
0.0
  0
VERTEX
  5
279
330
24C
100
AcDbEntity
  8
Make2D$可见线$普通线
100
AcDbVertex
100
AcDb2dVertex
 10
146.9429892014913
 20
952.051685433355
 30
0.0
  0
VERTEX
  5
27A
330
24C
100
AcDbEntity
  8
Make2D$可见线$普通线
100
AcDbVertex
100
AcDb2dVertex
 10
146.9429042204397
 20
952.0518875690707
 30
0.0
  0
VERTEX
  5
27B
330
24C
100
AcDbEntity
  8
Make2D$可见线$普通线
100
AcDbVertex
100
AcDb2dVertex
 10
146.9428255320394
 20
952.0520897105639
 30
0.0
  0
VERTEX
  5
27C
330
24C
100
AcDbEntity
  8
Make2D$可见线$普通线
100
AcDbVertex
100
AcDb2dVertex
 10
146.9427531366492
 20
952.0522918578803
 30
0.0
  0
VERTEX
  5
27D
330
24C
100
AcDbEntity
  8
Make2D$可见线$普通线
100
AcDbVertex
100
AcDb2dVertex
 10
146.9426870346278
 20
952.0524940110654
 30
0.0
  0
VERTEX
  5
27E
330
24C
100
AcDbEntity
  8
Make2D$可见线$普通线
100
AcDbVertex
100
AcDb2dVertex
 10
146.9426272263341
 20
952.0526961701645
 30
0.0
  0
VERTEX
  5
27F
330
24C
100
AcDbEntity
  8
Make2D$可见线$普通线
100
AcDbVertex
100
AcDb2dVertex
 10
146.9425737121269
 20
952.0528983352233
 30
0.0
  0
VERTEX
  5
280
330
24C
100
AcDbEntity
  8
Make2D$可见线$普通线
100
AcDbVertex
100
AcDb2dVertex
 10
146.9425264923651
 20
952.0531005062871
 30
0.0
  0
VERTEX
  5
281
330
24C
100
AcDbEntity
  8
Make2D$可见线$普通线
100
AcDbVertex
100
AcDb2dVertex
 10
146.9424855674073
 20
952.0533026834016
 30
0.0
  0
VERTEX
  5
282
330
24C
100
AcDbEntity
  8
Make2D$可见线$普通线
100
AcDbVertex
100
AcDb2dVertex
 10
146.9424509376125
 20
952.0535048666122
 30
0.0
  0
VERTEX
  5
283
330
24C
100
AcDbEntity
  8
Make2D$可见线$普通线
100
AcDbVertex
100
AcDb2dVertex
 10
146.9424226033394
 20
952.0537070559642
 30
0.0
  0
VERTEX
  5
284
330
24C
100
AcDbEntity
  8
Make2D$可见线$普通线
100
AcDbVertex
100
AcDb2dVertex
 10
146.9424005649469
 20
952.0539092515032
 30
0.0
  0
VERTEX
  5
285
330
24C
100
AcDbEntity
  8
Make2D$可见线$普通线
100
AcDbVertex
100
AcDb2dVertex
 10
146.9423848227937
 20
952.0541114532748
 30
0.0
  0
VERTEX
  5
286
330
24C
100
AcDbEntity
  8
Make2D$可见线$普通线
100
AcDbVertex
100
AcDb2dVertex
 10
146.9423753772386
 20
952.0543136613242
 30
0.0
  0
VERTEX
  5
287
330
24C
100
AcDbEntity
  8
Make2D$可见线$普通线
100
AcDbVertex
100
AcDb2dVertex
 10
146.9423722286406
 20
952.0545158756971
 30
0.0
  0
VERTEX
  5
288
330
24C
100
AcDbEntity
  8
Make2D$可见线$普通线
100
AcDbVertex
100
AcDb2dVertex
 10
146.9423751898702
 20
952.0547119817325
 30
0.0
  0
VERTEX
  5
289
330
24C
100
AcDbEntity
  8
Make2D$可见线$普通线
100
AcDbVertex
100
AcDb2dVertex
 10
146.9423840735062
 20
952.0549080869613
 30
0.0
  0
VERTEX
  5
28A
330
24C
100
AcDbEntity
  8
Make2D$可见线$普通线
100
AcDbVertex
100
AcDb2dVertex
 10
146.9423988794688
 20
952.0551041913553
 30
0.0
  0
VERTEX
  5
28B
330
24C
100
AcDbEntity
  8
Make2D$可见线$普通线
100
AcDbVertex
100
AcDb2dVertex
 10
146.9424196076785
 20
952.0553002948866
 30
0.0
  0
VERTEX
  5
28C
330
24C
100
AcDbEntity
  8
Make2D$可见线$普通线
100
AcDbVertex
100
AcDb2dVertex
 10
146.9424462580556
 20
952.0554963975269
 30
0.0
  0
VERTEX
  5
28D
330
24C
100
AcDbEntity
  8
Make2D$可见线$普通线
100
AcDbVertex
100
AcDb2dVertex
 10
146.9424788305204
 20
952.0556924992483
 30
0.0
  0
VERTEX
  5
28E
330
24C
100
AcDbEntity
  8
Make2D$可见线$普通线
100
AcDbVertex
100
AcDb2dVertex
 10
146.9425173249935
 20
952.0558886000224
 30
0.0
  0
VERTEX
  5
28F
330
24C
100
AcDbEntity
  8
Make2D$可见线$普通线
100
AcDbVertex
100
AcDb2dVertex
 10
146.9425617413951
 20
952.0560846998216
 30
0.0
  0
VERTEX
  5
290
330
24C
100
AcDbEntity
  8
Make2D$可见线$普通线
100
AcDbVertex
100
AcDb2dVertex
 10
146.9426120796457
 20
952.0562807986173
 30
0.0
  0
VERTEX
  5
291
330
24C
100
AcDbEntity
  8
Make2D$可见线$普通线
100
AcDbVertex
100
AcDb2dVertex
 10
146.9426683396655
 20
952.0564768963818
 30
0.0
  0
VERTEX
  5
292
330
24C
100
AcDbEntity
  8
Make2D$可见线$普通线
100
AcDbVertex
100
AcDb2dVertex
 10
146.9427305213751
 20
952.0566729930867
 30
0.0
  0
VERTEX
  5
293
330
24C
100
AcDbEntity
  8
Make2D$可见线$普通线
100
AcDbVertex
100
AcDb2dVertex
 10
146.9427986246947
 20
952.0568690887039
 30
0.0
  0
VERTEX
  5
294
330
24C
100
AcDbEntity
  8
Make2D$可见线$普通线
100
AcDbVertex
100
AcDb2dVertex
 10
146.9428726495448
 20
952.0570651832056
 30
0.0
  0
VERTEX
  5
295
330
24C
100
AcDbEntity
  8
Make2D$可见线$普通线
100
AcDbVertex
100
AcDb2dVertex
 10
146.9429525958458
 20
952.0572612765636
 30
0.0
  0
VERTEX
  5
296
330
24C
100
AcDbEntity
  8
Make2D$可见线$普通线
100
AcDbVertex
100
AcDb2dVertex
 10
146.9430384635179
 20
952.0574573687496
 30
0.0
  0
VERTEX
  5
297
330
24C
100
AcDbEntity
  8
Make2D$可见线$普通线
100
AcDbVertex
100
AcDb2dVertex
 10
146.9431302524816
 20
952.0576534597357
 30
0.0
  0
VERTEX
  5
298
330
24C
100
AcDbEntity
  8
Make2D$可见线$普通线
100
AcDbVertex
100
AcDb2dVertex
 10
146.9432279626573
 20
952.0578495494937
 30
0.0
  0
VERTEX
  5
299
330
24C
100
AcDbEntity
  8
Make2D$可见线$普通线
100
AcDbVertex
100
AcDb2dVertex
 10
146.9433315939654
 20
952.0580456379955
 30
0.0
  0
VERTEX
  5
29A
330
24C
100
AcDbEntity
  8
Make2D$可见线$普通线
100
AcDbVertex
100
AcDb2dVertex
 10
146.9434411463262
 20
952.0582417252133
 30
0.0
  0
VERTEX
  5
29B
330
24C
100
AcDbEntity
  8
Make2D$可见线$普通线
100
AcDbVertex
100
AcDb2dVertex
 10
146.9435566196601
 20
952.0584378111187
 30
0.0
  0
VERTEX
  5
29C
330
24C
100
AcDbEntity
  8
Make2D$可见线$普通线
100
AcDbVertex
100
AcDb2dVertex
 10
146.9436780138875
 20
952.0586338956834
 30
0.0
  0
VERTEX
  5
29D
330
24C
100
AcDbEntity
  8
Make2D$可见线$普通线
100
AcDbVertex
100
AcDb2dVertex
 10
146.9438053289288
 20
952.05882997888
 30
0.0
  0
VERTEX
  5
29E
330
24C
100
AcDbEntity
  8
Make2D$可见线$普通线
100
AcDbVertex
100
AcDb2dVertex
 10
146.9439385647043
 20
952.0590260606798
 30
0.0
  0
VERTEX
  5
29F
330
24C
100
AcDbEntity
  8
Make2D$可见线$普通线
100
AcDbVertex
100
AcDb2dVertex
 10
146.9440777211345
 20
952.059222141055
 30
0.0
  0
VERTEX
  5
2A0
330
24C
100
AcDbEntity
  8
Make2D$可见线$普通线
100
AcDbVertex
100
AcDb2dVertex
 10
146.9442227981397
 20
952.0594182199774
 30
0.0
  0
VERTEX
  5
2A1
330
24C
100
AcDbEntity
  8
Make2D$可见线$普通线
100
AcDbVertex
100
AcDb2dVertex
 10
146.9443737956402
 20
952.0596142974188
 30
0.0
  0
VERTEX
  5
2A2
330
24C
100
AcDbEntity
  8
Make2D$可见线$普通线
100
AcDbVertex
100
AcDb2dVertex
 10
146.9445307135566
 20
952.0598103733512
 30
0.0
  0
VERTEX
  5
2A3
330
24C
100
AcDbEntity
  8
Make2D$可见线$普通线
100
AcDbVertex
100
AcDb2dVertex
 10
146.9446935518091
 20
952.0600064477464
 30
0.0
  0
VERTEX
  5
2A4
330
24C
100
AcDbEntity
  8
Make2D$可见线$普通线
100
AcDbVertex
100
AcDb2dVertex
 10
146.945036989004
 20
952.0603985918135
 30
0.0
  0
VERTEX
  5
2A5
330
24C
100
AcDbEntity
  8
Make2D$可见线$普通线
100
AcDbVertex
100
AcDb2dVertex
 10
146.9454041065881
 20
952.0607907293953
 30
0.0
  0
VERTEX
  5
2A6
330
24C
100
AcDbEntity
  8
Make2D$可见线$普通线
100
AcDbVertex
100
AcDb2dVertex
 10
146.9457949039243
 20
952.0611828602667
 30
0.0
  0
VERTEX
  5
2A7
330
24C
100
AcDbEntity
  8
Make2D$可见线$普通线
100
AcDbVertex
100
AcDb2dVertex
 10
146.9462093803758
 20
952.0615749842033
 30
0.0
  0
VERTEX
  5
2A8
330
24C
100
AcDbEntity
  8
Make2D$可见线$普通线
100
AcDbVertex
100
AcDb2dVertex
 10
146.9466475353056
 20
952.0619671009799
 30
0.0
  0
VERTEX
  5
2A9
330
24C
100
AcDbEntity
  8
Make2D$可见线$普通线
100
AcDbVertex
100
AcDb2dVertex
 10
146.9471093680767
 20
952.0623592103722
 30
0.0
  0
VERTEX
  5
2AA
330
24C
100
AcDbEntity
  8
Make2D$可见线$普通线
100
AcDbVertex
100
AcDb2dVertex
 10
146.9475948780521
 20
952.0627513121551
 30
0.0
  0
VERTEX
  5
2AB
330
24C
100
AcDbEntity
  8
Make2D$可见线$普通线
100
AcDbVertex
100
AcDb2dVertex
 10
146.9481040645948
 20
952.0631434061041
 30
0.0
  0
VERTEX
  5
2AC
330
24C
100
AcDbEntity
  8
Make2D$可见线$普通线
100
AcDbVertex
100
AcDb2dVertex
 10
146.948636927068
 20
952.0635354919943
 30
0.0
  0
VERTEX
  5
2AD
330
24C
100
AcDbEntity
  8
Make2D$可见线$普通线
100
AcDbVertex
100
AcDb2dVertex
 10
146.9491934648346
 20
952.0639275696011
 30
0.0
  0
VERTEX
  5
2AE
330
24C
100
AcDbEntity
  8
Make2D$可见线$普通线
100
AcDbVertex
100
AcDb2dVertex
 10
146.9497736772577
 20
952.0643196386995
 30
0.0
  0
VERTEX
  5
2AF
330
24C
100
AcDbEntity
  8
Make2D$可见线$普通线
100
AcDbVertex
100
AcDb2dVertex
 10
146.9503775637004
 20
952.064711699065
 30
0.0
  0
VERTEX
  5
2B0
330
24C
100
AcDbEntity
  8
Make2D$可见线$普通线
100
AcDbVertex
100
AcDb2dVertex
 10
146.9516563560963
 20
952.0654957926979
 30
0.0
  0
VERTEX
  5
2B1
330
24C
100
AcDbEntity
  8
Make2D$可见线$普通线
100
AcDbVertex
100
AcDb2dVertex
 10
146.9530298369268
 20
952.0662798487017
 30
0.0
  0
VERTEX
  5
2B2
330
24C
100
AcDbEntity
  8
Make2D$可见线$普通线
100
AcDbVertex
100
AcDb2dVertex
 10
146.9544980010961
 20
952.0670638652783
 30
0.0
 42
-0.0581314772552998
  0
VERTEX
  5
2B3
330
24C
100
AcDbEntity
  8
Make2D$可见线$普通线
100
AcDbVertex
100
AcDb2dVertex
 10
147.3934250135015
 20
952.1312834215503
 30
0.0
  0
VERTEX
  5
2B4
330
24C
100
AcDbEntity
  8
Make2D$可见线$普通线
100
AcDbVertex
100
AcDb2dVertex
 10
148.437938238148
 20
952.1954954488392
 30
0.0
  0
VERTEX
  5
2B5
330
24C
100
AcDbEntity
  8
Make2D$可见线$普通线
100
AcDbVertex
100
AcDb2dVertex
 10
150.0346298096283
 20
952.2600277242401
 30
0.0
  0
VERTEX
  5
2B6
330
24C
100
AcDbEntity
  8
Make2D$可见线$普通线
100
AcDbVertex
100
AcDb2dVertex
 10
154.4232652398393
 20
952.3881508474353
 30
0.0
  0
VERTEX
  5
2B7
330
24C
100
AcDbEntity
  8
Make2D$可见线$普通线
100
AcDbVertex
100
AcDb2dVertex
 10
157.5
 20
952.4655175724636
 30
0.0
  0
VERTEX
  5
2B8
330
24C
100
AcDbEntity
  8
Make2D$可见线$普通线
100
AcDbVertex
100
AcDb2dVertex
 10
162.0025179487374
 20
952.5807962238482
 30
0.0
  0
VERTEX
  5
2B9
330
24C
100
AcDbEntity
  8
Make2D$可见线$普通线
100
AcDbVertex
100
AcDb2dVertex
 10
164.9653701903717
 20
952.671005462023
 30
0.0
  0
VERTEX
  5
2BA
330
24C
100
AcDbEntity
  8
Make2D$可见线$普通线
100
AcDbVertex
100
AcDb2dVertex
 10
165.9724519536337
 20
952.7092317996903
 30
0.0
  0
VERTEX
  5
2BB
330
24C
100
AcDbEntity
  8
Make2D$可见线$普通线
100
AcDbVertex
100
AcDb2dVertex
 10
167.4228145007486
 20
952.7839715502546
 30
0.0
  0
VERTEX
  5
2BC
330
24C
100
AcDbEntity
  8
Make2D$可见线$普通线
100
AcDbVertex
100
AcDb2dVertex
 10
167.5960891054061
 20
952.7981826645434
 30
0.0
  0
VERTEX
  5
2BD
330
24C
100
AcDbEntity
  8
Make2D$可见线$普通线
100
AcDbVertex
100
AcDb2dVertex
 10
167.7690212115451
 20
952.816086045644
 30
0.0
  0
VERTEX
  5
2BE
330
24C
100
AcDbEntity
  8
Make2D$可见线$普通线
100
AcDbVertex
100
AcDb2dVertex
 10
167.9414929733285
 20
952.8376682217657
 30
0.0
 42
0.1868687718712348
  0
VERTEX
  5
2BF
330
24C
100
AcDbEntity
  8
Make2D$可见线$普通线
100
AcDbVertex
100
AcDb2dVertex
 10
168.0576277713594
 20
952.8764972441381
 30
0.0
  0
VERTEX
  5
2C0
330
24C
100
AcDbEntity
  8
Make2D$可见线$普通线
100
AcDbVertex
100
AcDb2dVertex
 10
168.0576277713594
 20
953.52689498885
 30
0.0
  0
SEQEND
  5
2C1
330
24C
100
AcDbEntity
  8
Make2D$可见线$普通线
  0
POLYLINE
  5
2C2
330
1F
100
AcDbEntity
  8
Make2D$可见线$普通线
100
AcDb2dPolyline
 66
     1
 10
0.0
 20
0.0
 30
0.0
  0
VERTEX
  5
2C3
330
2C2
100
AcDbEntity
  8
Make2D$可见线$普通线
100
AcDbVertex
100
AcDb2dVertex
 10
147.2557993872409
 20
955.4064417134374
 30
0.0
  0
VERTEX
  5
2C4
330
2C2
100
AcDbEntity
  8
Make2D$可见线$普通线
100
AcDbVertex
100
AcDb2dVertex
 10
147.7190814573054
 20
955.4437871253749
 30
0.0
  0
VERTEX
  5
2C5
330
2C2
100
AcDbEntity
  8
Make2D$可见线$普通线
100
AcDbVertex
100
AcDb2dVertex
 10
148.1830893207615
 20
955.4706508348528
 30
0.0
  0
VERTEX
  5
2C6
330
2C2
100
AcDbEntity
  8
Make2D$可见线$普通线
100
AcDbVertex
100
AcDb2dVertex
 10
150.0346298096283
 20
955.5480175598558
 30
0.0
  0
VERTEX
  5
2C7
330
2C2
100
AcDbEntity
  8
Make2D$可见线$普通线
100
AcDbVertex
100
AcDb2dVertex
 10
153.9313230334934
 20
955.6632962112657
 30
0.0
  0
VERTEX
  5
2C8
330
2C2
100
AcDbEntity
  8
Make2D$可见线$普通线
100
AcDbVertex
100
AcDb2dVertex
 10
157.5
 20
955.7535054558947
 30
0.0
  0
VERTEX
  5
2C9
330
2C2
100
AcDbEntity
  8
Make2D$可见线$普通线
100
AcDbVertex
100
AcDb2dVertex
 10
163.779002180269
 20
955.9201682091832
 30
0.0
  0
VERTEX
  5
2CA
330
2C2
100
AcDbEntity
  8
Make2D$可见线$普通线
100
AcDbVertex
100
AcDb2dVertex
 10
165.6535092997578
 20
955.9844035050884
 30
0.0
  0
VERTEX
  5
2CB
330
2C2
100
AcDbEntity
  8
Make2D$可见线$普通线
100
AcDbVertex
100
AcDb2dVertex
 10
167.0386659699761
 20
956.0486152101944
 30
0.0
  0
VERTEX
  5
2CC
330
2C2
100
AcDbEntity
  8
Make2D$可见线$普通线
100
AcDbVertex
100
AcDb2dVertex
 10
167.4459562446504
 20
956.0746034035928
 30
0.0
  0
VERTEX
  5
2CD
330
2C2
100
AcDbEntity
  8
Make2D$可见线$普通线
100
AcDbVertex
100
AcDb2dVertex
 10
167.8522806288247
 20
956.1128296886056
 30
0.0
  0
VERTEX
  5
2CE
330
2C2
100
AcDbEntity
  8
Make2D$可见线$普通线
100
AcDbVertex
100
AcDb2dVertex
 10
167.9003128426085
 20
956.1192946515428
 30
0.0
  0
VERTEX
  5
2CF
330
2C2
100
AcDbEntity
  8
Make2D$可见线$普通线
100
AcDbVertex
100
AcDb2dVertex
 10
167.9419789090338
 20
956.125755604719
 30
0.0
  0
VERTEX
  5
2D0
330
2C2
100
AcDbEntity
  8
Make2D$可见线$普通线
100
AcDbVertex
100
AcDb2dVertex
 10
167.9772670702132
 20
956.1322139919714
 30
0.0
  0
VERTEX
  5
2D1
330
2C2
100
AcDbEntity
  8
Make2D$可见线$普通线
100
AcDbVertex
100
AcDb2dVertex
 10
167.9925157619958
 20
956.1354426745756
 30
0.0
  0
VERTEX
  5
2D2
330
2C2
100
AcDbEntity
  8
Make2D$可见线$普通线
100
AcDbVertex
100
AcDb2dVertex
 10
168.0061655682592
 20
956.1386712571381
 30
0.0
  0
VERTEX
  5
2D3
330
2C2
100
AcDbEntity
  8
Make2D$可见线$普通线
100
AcDbVertex
100
AcDb2dVertex
 10
168.0182150192673
 20
956.1418999201384
 30
0.0
  0
VERTEX
  5
2D4
330
2C2
100
AcDbEntity
  8
Make2D$可见线$普通线
100
AcDbVertex
100
AcDb2dVertex
 10
168.0236391522582
 20
956.1435143382025
 30
0.0
  0
VERTEX
  5
2D5
330
2C2
100
AcDbEntity
  8
Make2D$可见线$普通线
100
AcDbVertex
100
AcDb2dVertex
 10
168.0286626452843
 20
956.1451288440563
 30
0.0
  0
VERTEX
  5
2D6
330
2C2
100
AcDbEntity
  8
Make2D$可见线$普通线
100
AcDbVertex
100
AcDb2dVertex
 10
168.0332853146286
 20
956.1467434602592
 30
0.0
  0
VERTEX
  5
2D7
330
2C2
100
AcDbEntity
  8
Make2D$可见线$普通线
100
AcDbVertex
100
AcDb2dVertex
 10
168.0375069765742
 20
956.1483582093716
 30
0.0
  0
VERTEX
  5
2D8
330
2C2
100
AcDbEntity
  8
Make2D$可见线$普通线
100
AcDbVertex
100
AcDb2dVertex
 10
168.0394673723608
 20
956.1491656408188
 30
0.0
  0
VERTEX
  5
2D9
330
2C2
100
AcDbEntity
  8
Make2D$可见线$普通线
100
AcDbVertex
100
AcDb2dVertex
 10
168.041327447404
 20
956.1499731139531
 30
0.0
  0
VERTEX
  5
2DA
330
2C2
100
AcDbEntity
  8
Make2D$可见线$普通线
100
AcDbVertex
100
AcDb2dVertex
 10
168.0430871787389
 20
956.1507806315948
 30
0.0
  0
VERTEX
  5
2DB
330
2C2
100
AcDbEntity
  8
Make2D$可见线$普通线
100
AcDbVertex
100
AcDb2dVertex
 10
168.044746543401
 20
956.1515881965639
 30
0.0
  0
VERTEX
  5
2DC
330
2C2
100
AcDbEntity
  8
Make2D$可见线$普通线
100
AcDbVertex
100
AcDb2dVertex
 10
168.0463055184257
 20
956.1523958116802
 30
0.0
  0
VERTEX
  5
2DD
330
2C2
100
AcDbEntity
  8
Make2D$可见线$普通线
100
AcDbVertex
100
AcDb2dVertex
 10
168.0477640808483
 20
956.1532034797638
 30
0.0
  0
VERTEX
  5
2DE
330
2C2
100
AcDbEntity
  8
Make2D$可见线$普通线
100
AcDbVertex
100
AcDb2dVertex
 10
168.0491222077043
 20
956.1540112036348
 30
0.0
  0
VERTEX
  5
2DF
330
2C2
100
AcDbEntity
  8
Make2D$可见线$普通线
100
AcDbVertex
100
AcDb2dVertex
 10
168.0497636006183
 20
956.1544150873717
 30
0.0
  0
VERTEX
  5
2E0
330
2C2
100
AcDbEntity
  8
Make2D$可见线$普通线
100
AcDbVertex
100
AcDb2dVertex
 10
168.0503798760289
 20
956.154818986113
 30
0.0
  0
VERTEX
  5
2E1
330
2C2
100
AcDbEntity
  8
Make2D$可见线$普通线
100
AcDbVertex
100
AcDb2dVertex
 10
168.0509710310656
 20
956.1552229002111
 30
0.0
  0
VERTEX
  5
2E2
330
2C2
100
AcDbEntity
  8
Make2D$可见线$普通线
100
AcDbVertex
100
AcDb2dVertex
 10
168.0515370628576
 20
956.1556268300185
 30
0.0
  0
VERTEX
  5
2E3
330
2C2
100
AcDbEntity
  8
Make2D$可见线$普通线
100
AcDbVertex
100
AcDb2dVertex
 10
168.0520779685345
 20
956.1560307758876
 30
0.0
  0
VERTEX
  5
2E4
330
2C2
100
AcDbEntity
  8
Make2D$可见线$普通线
100
AcDbVertex
100
AcDb2dVertex
 10
168.0525937452258
 20
956.1564347381711
 30
0.0
  0
VERTEX
  5
2E5
330
2C2
100
AcDbEntity
  8
Make2D$可见线$普通线
100
AcDbVertex
100
AcDb2dVertex
 10
168.0530843900607
 20
956.1568387172214
 30
0.0
  0
VERTEX
  5
2E6
330
2C2
100
AcDbEntity
  8
Make2D$可见线$普通线
100
AcDbVertex
100
AcDb2dVertex
 10
168.0535499001687
 20
956.157242713391
 30
0.0
  0
VERTEX
  5
2E7
330
2C2
100
AcDbEntity
  8
Make2D$可见线$普通线
100
AcDbVertex
100
AcDb2dVertex
 10
168.0539902726793
 20
956.1576467270326
 30
0.0
  0
VERTEX
  5
2E8
330
2C2
100
AcDbEntity
  8
Make2D$可见线$普通线
100
AcDbVertex
100
AcDb2dVertex
 10
168.0544055047219
 20
956.1580507584983
 30
0.0
  0
VERTEX
  5
2E9
330
2C2
100
AcDbEntity
  8
Make2D$可见线$普通线
100
AcDbVertex
100
AcDb2dVertex
 10
168.0547955934259
 20
956.158454808141
 30
0.0
  0
VERTEX
  5
2EA
330
2C2
100
AcDbEntity
  8
Make2D$可见线$普通线
100
AcDbVertex
100
AcDb2dVertex
 10
168.0551605359206
 20
956.1588588763129
 30
0.0
  0
VERTEX
  5
2EB
330
2C2
100
AcDbEntity
  8
Make2D$可见线$普通线
100
AcDbVertex
100
AcDb2dVertex
 10
168.0553335764425
 20
956.1590609174575
 30
0.0
  0
VERTEX
  5
2EC
330
2C2
100
AcDbEntity
  8
Make2D$可见线$普通线
100
AcDbVertex
100
AcDb2dVertex
 10
168.0555003293356
 20
956.1592629633667
 30
0.0
  0
VERTEX
  5
2ED
330
2C2
100
AcDbEntity
  8
Make2D$可见线$普通线
100
AcDbVertex
100
AcDb2dVertex
 10
168.0556607942412
 20
956.1594650140844
 30
0.0
  0
VERTEX
  5
2EE
330
2C2
100
AcDbEntity
  8
Make2D$可见线$普通线
100
AcDbVertex
100
AcDb2dVertex
 10
168.0558149708003
 20
956.1596670696547
 30
0.0
  0
VERTEX
  5
2EF
330
2C2
100
AcDbEntity
  8
Make2D$可见线$普通线
100
AcDbVertex
100
AcDb2dVertex
 10
168.0559628586542
 20
956.1598691301217
 30
0.0
  0
VERTEX
  5
2F0
330
2C2
100
AcDbEntity
  8
Make2D$可见线$普通线
100
AcDbVertex
100
AcDb2dVertex
 10
168.056104457444
 20
956.1600711955294
 30
0.0
  0
VERTEX
  5
2F1
330
2C2
100
AcDbEntity
  8
Make2D$可见线$普通线
100
AcDbVertex
100
AcDb2dVertex
 10
168.056239766811
 20
956.1602732659221
 30
0.0
  0
VERTEX
  5
2F2
330
2C2
100
AcDbEntity
  8
Make2D$可见线$普通线
100
AcDbVertex
100
AcDb2dVertex
 10
168.0563687863963
 20
956.1604753413436
 30
0.0
  0
VERTEX
  5
2F3
330
2C2
100
AcDbEntity
  8
Make2D$可见线$普通线
100
AcDbVertex
100
AcDb2dVertex
 10
168.0564915158411
 20
956.160677421838
 30
0.0
  0
VERTEX
  5
2F4
330
2C2
100
AcDbEntity
  8
Make2D$可见线$普通线
100
AcDbVertex
100
AcDb2dVertex
 10
168.0566079547865
 20
956.1608795074496
 30
0.0
  0
VERTEX
  5
2F5
330
2C2
100
AcDbEntity
  8
Make2D$可见线$普通线
100
AcDbVertex
100
AcDb2dVertex
 10
168.0567181028738
 20
956.1610815982223
 30
0.0
  0
VERTEX
  5
2F6
330
2C2
100
AcDbEntity
  8
Make2D$可见线$普通线
100
AcDbVertex
100
AcDb2dVertex
 10
168.056821959744
 20
956.1612836941999
 30
0.0
  0
VERTEX
  5
2F7
330
2C2
100
AcDbEntity
  8
Make2D$可见线$普通线
100
AcDbVertex
100
AcDb2dVertex
 10
168.0569195250385
 20
956.1614857954269
 30
0.0
  0
VERTEX
  5
2F8
330
2C2
100
AcDbEntity
  8
Make2D$可见线$普通线
100
AcDbVertex
100
AcDb2dVertex
 10
168.0570107983984
 20
956.1616879019471
 30
0.0
  0
VERTEX
  5
2F9
330
2C2
100
AcDbEntity
  8
Make2D$可见线$普通线
100
AcDbVertex
100
AcDb2dVertex
 10
168.0570957794648
 20
956.1618900138045
 30
0.0
  0
VERTEX
  5
2FA
330
2C2
100
AcDbEntity
  8
Make2D$可见线$普通线
100
AcDbVertex
100
AcDb2dVertex
 10
168.0571744678788
 20
956.1620921310434
 30
0.0
  0
VERTEX
  5
2FB
330
2C2
100
AcDbEntity
  8
Make2D$可见线$普通线
100
AcDbVertex
100
AcDb2dVertex
 10
168.0572468632818
 20
956.1622942537078
 30
0.0
  0
VERTEX
  5
2FC
330
2C2
100
AcDbEntity
  8
Make2D$可见线$普通线
100
AcDbVertex
100
AcDb2dVertex
 10
168.0573129653149
 20
956.1624963818416
 30
0.0
  0
VERTEX
  5
2FD
330
2C2
100
AcDbEntity
  8
Make2D$可见线$普通线
100
AcDbVertex
100
AcDb2dVertex
 10
168.0573727736193
 20
956.162698515489
 30
0.0
  0
VERTEX
  5
2FE
330
2C2
100
AcDbEntity
  8
Make2D$可见线$普通线
100
AcDbVertex
100
AcDb2dVertex
 10
168.0574262878361
 20
956.1629006546941
 30
0.0
  0
VERTEX
  5
2FF
330
2C2
100
AcDbEntity
  8
Make2D$可见线$普通线
100
AcDbVertex
100
AcDb2dVertex
 10
168.0574735076065
 20
956.163102799501
 30
0.0
  0
VERTEX
  5
300
330
2C2
100
AcDbEntity
  8
Make2D$可见线$普通线
100
AcDbVertex
100
AcDb2dVertex
 10
168.0575144325717
 20
956.1633049499535
 30
0.0
  0
VERTEX
  5
301
330
2C2
100
AcDbEntity
  8
Make2D$可见线$普通线
100
AcDbVertex
100
AcDb2dVertex
 10
168.0575490623729
 20
956.1635071060957
 30
0.0
  0
VERTEX
  5
302
330
2C2
100
AcDbEntity
  8
Make2D$可见线$普通线
100
AcDbVertex
100
AcDb2dVertex
 10
168.0575773966511
 20
956.1637092679721
 30
0.0
  0
VERTEX
  5
303
330
2C2
100
AcDbEntity
  8
Make2D$可见线$普通线
100
AcDbVertex
100
AcDb2dVertex
 10
168.0575994350478
 20
956.1639114356263
 30
0.0
  0
VERTEX
  5
304
330
2C2
100
AcDbEntity
  8
Make2D$可见线$普通线
100
AcDbVertex
100
AcDb2dVertex
 10
168.0576151772039
 20
956.1641136091025
 30
0.0
  0
VERTEX
  5
305
330
2C2
100
AcDbEntity
  8
Make2D$可见线$普通线
100
AcDbVertex
100
AcDb2dVertex
 10
168.0576246227607
 20
956.1643157884448
 30
0.0
  0
VERTEX
  5
306
330
2C2
100
AcDbEntity
  8
Make2D$可见线$普通线
100
AcDbVertex
100
AcDb2dVertex
 10
168.0576277713594
 20
956.1645179736972
 30
0.0
  0
VERTEX
  5
307
330
2C2
100
AcDbEntity
  8
Make2D$可见线$普通线
100
AcDbVertex
100
AcDb2dVertex
 10
168.0576277713594
 20
957.7415525804398
 30
0.0
  0
VERTEX
  5
308
330
2C2
100
AcDbEntity
  8
Make2D$可见线$普通线
100
AcDbVertex
100
AcDb2dVertex
 10
146.9423722286405
 20
957.7415525804398
 30
0.0
  0
VERTEX
  5
309
330
2C2
100
AcDbEntity
  8
Make2D$可见线$普通线
100
AcDbVertex
100
AcDb2dVertex
 10
146.9423722286405
 20
956.9864968330205
 30
0.0
  0
SEQEND
  5
30A
330
2C2
100
AcDbEntity
  8
Make2D$可见线$普通线
  0
POLYLINE
  5
30B
330
1F
100
AcDbEntity
  8
Make2D$可见线$普通线
100
AcDb2dPolyline
 66
     1
 10
0.0
 20
0.0
 30
0.0
  0
VERTEX
  5
30C
330
30B
100
AcDbEntity
  8
Make2D$可见线$普通线
100
AcDbVertex
100
AcDb2dVertex
 10
46.49999999999996
 20
973.5377506248641
 30
0.0
  0
VERTEX
  5
30D
330
30B
100
AcDbEntity
  8
Make2D$可见线$普通线
100
AcDbVertex
100
AcDb2dVertex
 10
46.49999999999999
 20
1015.532577058935
 30
0.0
  0
VERTEX
  5
30E
330
30B
100
AcDbEntity
  8
Make2D$可见线$普通线
100
AcDbVertex
100
AcDb2dVertex
 10
47.49999999999997
 20
1015.532577058935
 30
0.0
  0
VERTEX
  5
30F
330
30B
100
AcDbEntity
  8
Make2D$可见线$普通线
100
AcDbVertex
100
AcDb2dVertex
 10
47.49999999999996
 20
973.5377506248643
 30
0.0
  0
SEQEND
  5
310
330
30B
100
AcDbEntity
  8
Make2D$可见线$普通线
  0
POLYLINE
  5
311
330
1F
100
AcDbEntity
  8
Make2D$可见线$普通线
100
AcDb2dPolyline
 66
     1
 10
0.0
 20
0.0
 30
0.0
  0
VERTEX
  5
312
330
311
100
AcDbEntity
  8
Make2D$可见线$普通线
100
AcDbVertex
100
AcDb2dVertex
 10
167.7936831986839
 20
953.5855236211668
 30
0.0
  0
VERTEX
  5
313
330
311
100
AcDbEntity
  8
Make2D$可见线$普通线
100
AcDbVertex
100
AcDb2dVertex
 10
167.9003373450939
 20
953.5721151661949
 30
0.0
  0
VERTEX
  5
314
330
311
100
AcDbEntity
  8
Make2D$可见线$普通线
100
AcDbVertex
100
AcDb2dVertex
 10
167.9419969339361
 20
953.5656549830201
 30
0.0
  0
VERTEX
  5
315
330
311
100
AcDbEntity
  8
Make2D$可见线$普通线
100
AcDbVertex
100
AcDb2dVertex
 10
167.9772796035316
 20
953.5591971888139
 30
0.0
  0
VERTEX
  5
316
330
311
100
AcDbEntity
  8
Make2D$可见线$普通线
100
AcDbVertex
100
AcDb2dVertex
 10
167.9925259204739
 20
953.5559687495074
 30
0.0
  0
VERTEX
  5
317
330
311
100
AcDbEntity
  8
Make2D$可见线$普通线
100
AcDbVertex
100
AcDb2dVertex
 10
168.0061735998391
 20
953.5527403817632
 30
0.0
  0
VERTEX
  5
318
330
311
100
AcDbEntity
  8
Make2D$可见线$普通线
100
AcDbVertex
100
AcDb2dVertex
 10
168.0182211723718
 20
953.5495119103545
 30
0.0
  0
VERTEX
  5
319
330
311
100
AcDbEntity
  8
Make2D$可见线$普通线
100
AcDbVertex
100
AcDb2dVertex
 10
168.0236444594338
 20
953.5478975810177
 30
0.0
  0
VERTEX
  5
31A
330
311
100
AcDbEntity
  8
Make2D$可见线$普通线
100
AcDbVertex
100
AcDb2dVertex
 10
168.028667168817
 20
953.5462831600547
 30
0.0
  0
VERTEX
  5
31B
330
311
100
AcDbEntity
  8
Make2D$可见线$普通线
100
AcDbVertex
100
AcDb2dVertex
 10
168.0332891168646
 20
953.5446686255623
 30
0.0
  0
VERTEX
  5
31C
330
311
100
AcDbEntity
  8
Make2D$可见线$普通线
100
AcDbVertex
100
AcDb2dVertex
 10
168.0375101199195
 20
953.5430539556371
 30
0.0
  0
VERTEX
  5
31D
330
311
100
AcDbEntity
  8
Make2D$可见线$普通线
100
AcDbVertex
100
AcDb2dVertex
 10
168.039470209682
 20
953.5422465630425
 30
0.0
  0
VERTEX
  5
31E
330
311
100
AcDbEntity
  8
Make2D$可见线$普通线
100
AcDbVertex
100
AcDb2dVertex
 10
168.0413299943249
 20
953.5414391283759
 30
0.0
  0
VERTEX
  5
31F
330
311
100
AcDbEntity
  8
Make2D$可见线$普通线
100
AcDbVertex
100
AcDb2dVertex
 10
168.0430894508914
 20
953.5406316488994
 30
0.0
  0
VERTEX
  5
320
330
311
100
AcDbEntity
  8
Make2D$可见线$普通线
100
AcDbVertex
100
AcDb2dVertex
 10
168.0447485564241
 20
953.5398241218752
 30
0.0
  0
VERTEX
  5
321
330
311
100
AcDbEntity
  8
Make2D$可见线$普通线
100
AcDbVertex
100
AcDb2dVertex
 10
168.0463072879659
 20
953.5390165445652
 30
0.0
  0
VERTEX
  5
322
330
311
100
AcDbEntity
  8
Make2D$可见线$普通线
100
AcDbVertex
100
AcDb2dVertex
 10
168.0477656225599
 20
953.5382089142317
 30
0.0
  0
VERTEX
  5
323
330
311
100
AcDbEntity
  8
Make2D$可见线$普通线
100
AcDbVertex
100
AcDb2dVertex
 10
168.0491235372488
 20
953.5374012281367
 30
0.0
  0
VERTEX
  5
324
330
311
100
AcDbEntity
  8
Make2D$可见线$普通线
100
AcDbVertex
100
AcDb2dVertex
 10
168.0497648299547
 20
953.536997363323
 30
0.0
  0
VERTEX
  5
325
330
311
100
AcDbEntity
  8
Make2D$可见线$普通线
100
AcDbVertex
100
AcDb2dVertex
 10
168.0503810090755
 20
953.5365934835422
 30
0.0
  0
VERTEX
  5
326
330
311
100
AcDbEntity
  8
Make2D$可见线$普通线
100
AcDbVertex
100
AcDb2dVertex
 10
168.0509720717415
 20
953.5361895884521
 30
0.0
  0
VERTEX
  5
327
330
311
100
AcDbEntity
  8
Make2D$可见线$普通线
100
AcDbVertex
100
AcDb2dVertex
 10
168.051538015083
 20
953.5357856777105
 30
0.0
  0
VERTEX
  5
328
330
311
100
AcDbEntity
  8
Make2D$可见线$普通线
100
AcDbVertex
100
AcDb2dVertex
 10
168.0520788362304
 20
953.5353817509748
 30
0.0
  0
VERTEX
  5
329
330
311
100
AcDbEntity
  8
Make2D$可见线$普通线
100
AcDbVertex
100
AcDb2dVertex
 10
168.0525945323141
 20
953.5349778079033
 30
0.0
  0
VERTEX
  5
32A
330
311
100
AcDbEntity
  8
Make2D$可见线$普通线
100
AcDbVertex
100
AcDb2dVertex
 10
168.0530851004644
 20
953.5345738481533
 30
0.0
  0
VERTEX
  5
32B
330
311
100
AcDbEntity
  8
Make2D$可见线$普通线
100
AcDbVertex
100
AcDb2dVertex
 10
168.0535505378117
 20
953.5341698713828
 30
0.0
  0
VERTEX
  5
32C
330
311
100
AcDbEntity
  8
Make2D$可见线$普通线
100
AcDbVertex
100
AcDb2dVertex
 10
168.0539908414863
 20
953.5337658772496
 30
0.0
  0
VERTEX
  5
32D
330
311
100
AcDbEntity
  8
Make2D$可见线$普通线
100
AcDbVertex
100
AcDb2dVertex
 10
168.0544060086187
 20
953.5333618654114
 30
0.0
  0
VERTEX
  5
32E
330
311
100
AcDbEntity
  8
Make2D$可见线$普通线
100
AcDbVertex
100
AcDb2dVertex
 10
168.0547960363391
 20
953.5329578355258
 30
0.0
  0
VERTEX
  5
32F
330
311
100
AcDbEntity
  8
Make2D$可见线$普通线
100
AcDbVertex
100
AcDb2dVertex
 10
168.0551609217779
 20
953.5325537872509
 30
0.0
  0
VERTEX
  5
330
330
311
100
AcDbEntity
  8
Make2D$可见线$普通线
100
AcDbVertex
100
AcDb2dVertex
 10
168.055333935245
 20
953.5323517561104
 30
0.0
  0
VERTEX
  5
331
330
311
100
AcDbEntity
  8
Make2D$可见线$普通线
100
AcDbVertex
100
AcDb2dVertex
 10
168.0555006620656
 20
953.5321497202442
 30
0.0
  0
VERTEX
  5
332
330
311
100
AcDbEntity
  8
Make2D$可见线$普通线
100
AcDbVertex
100
AcDb2dVertex
 10
168.055661101881
 20
953.5319476796094
 30
0.0
  0
VERTEX
  5
333
330
311
100
AcDbEntity
  8
Make2D$可见线$普通线
100
AcDbVertex
100
AcDb2dVertex
 10
168.0558152543324
 20
953.5317456341635
 30
0.0
  0
VERTEX
  5
334
330
311
100
AcDbEntity
  8
Make2D$可见线$普通线
100
AcDbVertex
100
AcDb2dVertex
 10
168.0559631190612
 20
953.5315435838635
 30
0.0
  0
VERTEX
  5
335
330
311
100
AcDbEntity
  8
Make2D$可见线$普通线
100
AcDbVertex
100
AcDb2dVertex
 10
168.0561046957087
 20
953.5313415286666
 30
0.0
  0
VERTEX
  5
336
330
311
100
AcDbEntity
  8
Make2D$可见线$普通线
100
AcDbVertex
100
AcDb2dVertex
 10
168.0562399839162
 20
953.53113946853
 30
0.0
  0
VERTEX
  5
337
330
311
100
AcDbEntity
  8
Make2D$可见线$普通线
100
AcDbVertex
100
AcDb2dVertex
 10
168.0563689833249
 20
953.5309374034111
 30
0.0
  0
VERTEX
  5
338
330
311
100
AcDbEntity
  8
Make2D$可见线$普通线
100
AcDbVertex
100
AcDb2dVertex
 10
168.0564916935762
 20
953.5307353332671
 30
0.0
  0
VERTEX
  5
339
330
311
100
AcDbEntity
  8
Make2D$可见线$普通线
100
AcDbVertex
100
AcDb2dVertex
 10
168.0566081143113
 20
953.5305332580551
 30
0.0
  0
VERTEX
  5
33A
330
311
100
AcDbEntity
  8
Make2D$可见线$普通线
100
AcDbVertex
100
AcDb2dVertex
 10
168.0567182451716
 20
953.5303311777325
 30
0.0
  0
VERTEX
  5
33B
330
311
100
AcDbEntity
  8
Make2D$可见线$普通线
100
AcDbVertex
100
AcDb2dVertex
 10
168.0568220857983
 20
953.5301290922562
 30
0.0
  0
VERTEX
  5
33C
330
311
100
AcDbEntity
  8
Make2D$可见线$普通线
100
AcDbVertex
100
AcDb2dVertex
 10
168.0569196358328
 20
953.5299270015836
 30
0.0
  0
VERTEX
  5
33D
330
311
100
AcDbEntity
  8
Make2D$可见线$普通线
100
AcDbVertex
100
AcDb2dVertex
 10
168.0570108949163
 20
953.529724905672
 30
0.0
  0
VERTEX
  5
33E
330
311
100
AcDbEntity
  8
Make2D$可见线$普通线
100
AcDbVertex
100
AcDb2dVertex
 10
168.0570958626902
 20
953.5295228044786
 30
0.0
  0
VERTEX
  5
33F
330
311
100
AcDbEntity
  8
Make2D$可见线$普通线
100
AcDbVertex
100
AcDb2dVertex
 10
168.0571745387956
 20
953.5293206979604
 30
0.0
  0
VERTEX
  5
340
330
311
100
AcDbEntity
  8
Make2D$可见线$普通线
100
AcDbVertex
100
AcDb2dVertex
 10
168.057246922874
 20
953.5291185860749
 30
0.0
  0
VERTEX
  5
341
330
311
100
AcDbEntity
  8
Make2D$可见线$普通线
100
AcDbVertex
100
AcDb2dVertex
 10
168.0573130145666
 20
953.5289164687792
 30
0.0
  0
VERTEX
  5
342
330
311
100
AcDbEntity
  8
Make2D$可见线$普通线
100
AcDbVertex
100
AcDb2dVertex
 10
168.0573728135147
 20
953.5287143460305
 30
0.0
  0
VERTEX
  5
343
330
311
100
AcDbEntity
  8
Make2D$可见线$普通线
100
AcDbVertex
100
AcDb2dVertex
 10
168.0574263193596
 20
953.5285122177861
 30
0.0
  0
VERTEX
  5
344
330
311
100
AcDbEntity
  8
Make2D$可见线$普通线
100
AcDbVertex
100
AcDb2dVertex
 10
168.0574735317427
 20
953.5283100840031
 30
0.0
  0
VERTEX
  5
345
330
311
100
AcDbEntity
  8
Make2D$可见线$普通线
100
AcDbVertex
100
AcDb2dVertex
 10
168.0575144503051
 20
953.5281079446388
 30
0.0
  0
VERTEX
  5
346
330
311
100
AcDbEntity
  8
Make2D$可见线$普通线
100
AcDbVertex
100
AcDb2dVertex
 10
168.0575490746882
 20
953.5279057996504
 30
0.0
  0
VERTEX
  5
347
330
311
100
AcDbEntity
  8
Make2D$可见线$普通线
100
AcDbVertex
100
AcDb2dVertex
 10
168.0575774045333
 20
953.5277036489952
 30
0.0
  0
VERTEX
  5
348
330
311
100
AcDbEntity
  8
Make2D$可见线$普通线
100
AcDbVertex
100
AcDb2dVertex
 10
168.0575994394816
 20
953.5275014926303
 30
0.0
  0
VERTEX
  5
349
330
311
100
AcDbEntity
  8
Make2D$可见线$普通线
100
AcDbVertex
100
AcDb2dVertex
 10
168.0576151791746
 20
953.527299330513
 30
0.0
  0
VERTEX
  5
34A
330
311
100
AcDbEntity
  8
Make2D$可见线$普通线
100
AcDbVertex
100
AcDb2dVertex
 10
168.0576246232534
 20
953.5270971626004
 30
0.0
  0
VERTEX
  5
34B
330
311
100
AcDbEntity
  8
Make2D$可见线$普通线
100
AcDbVertex
100
AcDb2dVertex
 10
168.0576277713594
 20
953.5268949888499
 30
0.0
  0
VERTEX
  5
34C
330
311
100
AcDbEntity
  8
Make2D$可见线$普通线
100
AcDbVertex
100
AcDb2dVertex
 10
168.0576248155672
 20
953.5266990873702
 30
0.0
  0
VERTEX
  5
34D
330
311
100
AcDbEntity
  8
Make2D$可见线$普通线
100
AcDbVertex
100
AcDb2dVertex
 10
168.0576159482436
 20
953.5265031869751
 30
0.0
  0
VERTEX
  5
34E
330
311
100
AcDbEntity
  8
Make2D$可见线$普通线
100
AcDbVertex
100
AcDb2dVertex
 10
168.0576011694677
 20
953.5263072876899
 30
0.0
  0
VERTEX
  5
34F
330
311
100
AcDbEntity
  8
Make2D$可见线$普通线
100
AcDbVertex
100
AcDb2dVertex
 10
168.0575804793191
 20
953.5261113895393
 30
0.0
  0
VERTEX
  5
350
330
311
100
AcDbEntity
  8
Make2D$可见线$普通线
100
AcDbVertex
100
AcDb2dVertex
 10
168.0575538778769
 20
953.5259154925487
 30
0.0
  0
VERTEX
  5
351
330
311
100
AcDbEntity
  8
Make2D$可见线$普通线
100
AcDbVertex
100
AcDb2dVertex
 10
168.0575213652205
 20
953.5257195967431
 30
0.0
  0
VERTEX
  5
352
330
311
100
AcDbEntity
  8
Make2D$可见线$普通线
100
AcDbVertex
100
AcDb2dVertex
 10
168.0574829414292
 20
953.5255237021474
 30
0.0
  0
VERTEX
  5
353
330
311
100
AcDbEntity
  8
Make2D$可见线$普通线
100
AcDbVertex
100
AcDb2dVertex
 10
168.0574386065823
 20
953.5253278087866
 30
0.0
  0
VERTEX
  5
354
330
311
100
AcDbEntity
  8
Make2D$可见线$普通线
100
AcDbVertex
100
AcDb2dVertex
 10
168.0573883607591
 20
953.525131916686
 30
0.0
  0
VERTEX
  5
355
330
311
100
AcDbEntity
  8
Make2D$可见线$普通线
100
AcDbVertex
100
AcDb2dVertex
 10
168.057332204039
 20
953.5249360258704
 30
0.0
  0
VERTEX
  5
356
330
311
100
AcDbEntity
  8
Make2D$可见线$普通线
100
AcDbVertex
100
AcDb2dVertex
 10
168.0572701365013
 20
953.5247401363649
 30
0.0
  0
VERTEX
  5
357
330
311
100
AcDbEntity
  8
Make2D$可见线$普通线
100
AcDbVertex
100
AcDb2dVertex
 10
168.0572021582253
 20
953.5245442481946
 30
0.0
  0
VERTEX
  5
358
330
311
100
AcDbEntity
  8
Make2D$可见线$普通线
100
AcDbVertex
100
AcDb2dVertex
 10
168.0571282692903
 20
953.5243483613847
 30
0.0
  0
VERTEX
  5
359
330
311
100
AcDbEntity
  8
Make2D$可见线$普通线
100
AcDbVertex
100
AcDb2dVertex
 10
168.0570484697756
 20
953.5241524759599
 30
0.0
  0
VERTEX
  5
35A
330
311
100
AcDbEntity
  8
Make2D$可见线$普通线
100
AcDbVertex
100
AcDb2dVertex
 10
168.0569627597606
 20
953.5239565919455
 30
0.0
  0
VERTEX
  5
35B
330
311
100
AcDbEntity
  8
Make2D$可见线$普通线
100
AcDbVertex
100
AcDb2dVertex
 10
168.0568711393246
 20
953.5237607093665
 30
0.0
  0
VERTEX
  5
35C
330
311
100
AcDbEntity
  8
Make2D$可见线$普通线
100
AcDbVertex
100
AcDb2dVertex
 10
168.0567736085469
 20
953.5235648282478
 30
0.0
  0
VERTEX
  5
35D
330
311
100
AcDbEntity
  8
Make2D$可见线$普通线
100
AcDbVertex
100
AcDb2dVertex
 10
168.0566701675068
 20
953.5233689486147
 30
0.0
  0
VERTEX
  5
35E
330
311
100
AcDbEntity
  8
Make2D$可见线$普通线
100
AcDbVertex
100
AcDb2dVertex
 10
168.0565608162835
 20
953.523173070492
 30
0.0
  0
VERTEX
  5
35F
330
311
100
AcDbEntity
  8
Make2D$可见线$普通线
100
AcDbVertex
100
AcDb2dVertex
 10
168.0564455549565
 20
953.522977193905
 30
0.0
  0
VERTEX
  5
360
330
311
100
AcDbEntity
  8
Make2D$可见线$普通线
100
AcDbVertex
100
AcDb2dVertex
 10
168.0563243836051
 20
953.5227813188786
 30
0.0
  0
VERTEX
  5
361
330
311
100
AcDbEntity
  8
Make2D$可见线$普通线
100
AcDbVertex
100
AcDb2dVertex
 10
168.0561973023085
 20
953.5225854454379
 30
0.0
  0
VERTEX
  5
362
330
311
100
AcDbEntity
  8
Make2D$可见线$普通线
100
AcDbVertex
100
AcDb2dVertex
 10
168.0560643111461
 20
953.5223895736078
 30
0.0
  0
VERTEX
  5
363
330
311
100
AcDbEntity
  8
Make2D$可见线$普通线
100
AcDbVertex
100
AcDb2dVertex
 10
168.0559254101973
 20
953.5221937034134
 30
0.0
  0
VERTEX
  5
364
330
311
100
AcDbEntity
  8
Make2D$可见线$普通线
100
AcDbVertex
100
AcDb2dVertex
 10
168.0557805995413
 20
953.5219978348799
 30
0.0
  0
VERTEX
  5
365
330
311
100
AcDbEntity
  8
Make2D$可见线$普通线
100
AcDbVertex
100
AcDb2dVertex
 10
168.0556298792574
 20
953.5218019680322
 30
0.0
  0
VERTEX
  5
366
330
311
100
AcDbEntity
  8
Make2D$可见线$普通线
100
AcDbVertex
100
AcDb2dVertex
 10
168.0554732494249
 20
953.5216061028955
 30
0.0
  0
VERTEX
  5
367
330
311
100
AcDbEntity
  8
Make2D$可见线$普通线
100
AcDbVertex
100
AcDb2dVertex
 10
168.0553107101233
 20
953.5214102394946
 30
0.0
  0
VERTEX
  5
368
330
311
100
AcDbEntity
  8
Make2D$可见线$普通线
100
AcDbVertex
100
AcDb2dVertex
 10
168.0549679034297
 20
953.5210185180009
 30
0.0
  0
VERTEX
  5
369
330
311
100
AcDbEntity
  8
Make2D$可见线$普通线
100
AcDbVertex
100
AcDb2dVertex
 10
168.054601459811
 20
953.5206268037515
 30
0.0
  0
VERTEX
  5
36A
330
311
100
AcDbEntity
  8
Make2D$可见线$普通线
100
AcDbVertex
100
AcDb2dVertex
 10
168.0542113799018
 20
953.5202350969467
 30
0.0
  0
VERTEX
  5
36B
330
311
100
AcDbEntity
  8
Make2D$可见线$普通线
100
AcDbVertex
100
AcDb2dVertex
 10
168.0537976643366
 20
953.5198433977871
 30
0.0
  0
VERTEX
  5
36C
330
311
100
AcDbEntity
  8
Make2D$可见线$普通线
100
AcDbVertex
100
AcDb2dVertex
 10
168.05336031375
 20
953.5194517064729
 30
0.0
  0
VERTEX
  5
36D
330
311
100
AcDbEntity
  8
Make2D$可见线$普通线
100
AcDbVertex
100
AcDb2dVertex
 10
168.0528993287765
 20
953.5190600232045
 30
0.0
  0
VERTEX
  5
36E
330
311
100
AcDbEntity
  8
Make2D$可见线$普通线
100
AcDbVertex
100
AcDb2dVertex
 10
168.0524147100507
 20
953.5186683481822
 30
0.0
  0
VERTEX
  5
36F
330
311
100
AcDbEntity
  8
Make2D$可见线$普通线
100
AcDbVertex
100
AcDb2dVertex
 10
168.051906458207
 20
953.5182766816065
 30
0.0
  0
VERTEX
  5
370
330
311
100
AcDbEntity
  8
Make2D$可见线$普通线
100
AcDbVertex
100
AcDb2dVertex
 10
168.0513745738802
 20
953.5178850236776
 30
0.0
  0
VERTEX
  5
371
330
311
100
AcDbEntity
  8
Make2D$可见线$普通线
100
AcDbVertex
100
AcDb2dVertex
 10
168.0508190577046
 20
953.5174933745963
 30
0.0
  0
VERTEX
  5
372
330
311
100
AcDbEntity
  8
Make2D$可见线$普通线
100
AcDbVertex
100
AcDb2dVertex
 10
168.0502399103148
 20
953.5171017345625
 30
0.0
  0
VERTEX
  5
373
330
311
100
AcDbEntity
  8
Make2D$可见线$普通线
100
AcDbVertex
100
AcDb2dVertex
 10
168.0496371323454
 20
953.5167101037766
 30
0.0
  0
VERTEX
  5
374
330
311
100
AcDbEntity
  8
Make2D$可见线$普通线
100
AcDbVertex
100
AcDb2dVertex
 10
168.048360687206
 20
953.5159268707506
 30
0.0
  0
VERTEX
  5
375
330
311
100
AcDbEntity
  8
Make2D$可见线$普通线
100
AcDbVertex
100
AcDb2dVertex
 10
168.0469897273625
 20
953.5151436771213
 30
0.0
  0
VERTEX
  5
376
330
311
100
AcDbEntity
  8
Make2D$可见线$普通线
100
AcDbVertex
100
AcDb2dVertex
 10
168.0455242578915
 20
953.5143605244917
 30
0.0
 42
-0.058147217259575
  0
VERTEX
  5
377
330
311
100
AcDbEntity
  8
Make2D$可见线$普通线
100
AcDbVertex
100
AcDb2dVertex
 10
167.6065504124353
 20
953.4501273524596
 30
0.0
  0
VERTEX
  5
378
330
311
100
AcDbEntity
  8
Make2D$可见线$普通线
100
AcDbVertex
100
AcDb2dVertex
 10
166.5619928053412
 20
953.3859141004037
 30
0.0
  0
VERTEX
  5
379
330
311
100
AcDbEntity
  8
Make2D$可见线$普通线
100
AcDbVertex
100
AcDb2dVertex
 10
164.9653701903717
 20
953.3213851535922
 30
0.0
  0
VERTEX
  5
37A
330
311
100
AcDbEntity
  8
Make2D$可见线$普通线
100
AcDbVertex
100
AcDb2dVertex
 10
160.5766534692184
 20
953.1932599241334
 30
0.0
  0
VERTEX
  5
37B
330
311
100
AcDbEntity
  8
Make2D$可见线$普通线
100
AcDbVertex
100
AcDb2dVertex
 10
157.5
 20
953.1158975338853
 30
0.0
  0
VERTEX
  5
37C
330
311
100
AcDbEntity
  8
Make2D$可见线$普通线
100
AcDbVertex
100
AcDb2dVertex
 10
152.9971777856454
 20
953.0006083134839
 30
0.0
  0
VERTEX
  5
37D
330
311
100
AcDbEntity
  8
Make2D$可见线$普通线
100
AcDbVertex
100
AcDb2dVertex
 10
150.0346298096283
 20
952.910415723715
 30
0.0
  0
VERTEX
  5
37E
330
311
100
AcDbEntity
  8
Make2D$可见线$普通线
100
AcDbVertex
100
AcDb2dVertex
 10
149.0272409226736
 20
952.872168319397
 30
0.0
  0
VERTEX
  5
37F
330
311
100
AcDbEntity
  8
Make2D$可见线$普通线
100
AcDbVertex
100
AcDb2dVertex
 10
147.5772868760231
 20
952.7974573965076
 30
0.0
  0
VERTEX
  5
380
330
311
100
AcDbEntity
  8
Make2D$可见线$普通线
100
AcDbVertex
100
AcDb2dVertex
 10
147.4039522423376
 20
952.7832442692525
 30
0.0
  0
VERTEX
  5
381
330
311
100
AcDbEntity
  8
Make2D$可见线$普通线
100
AcDbVertex
100
AcDb2dVertex
 10
147.2309608194196
 20
952.7653312622999
 30
0.0
  0
VERTEX
  5
382
330
311
100
AcDbEntity
  8
Make2D$可见线$普通线
100
AcDbVertex
100
AcDb2dVertex
 10
147.0584308981981
 20
952.7437319029018
 30
0.0
 42
0.1868772489221934
  0
VERTEX
  5
383
330
311
100
AcDbEntity
  8
Make2D$可见线$普通线
100
AcDbVertex
100
AcDb2dVertex
 10
146.9423722286405
 20
952.7049069763418
 30
0.0
  0
VERTEX
  5
384
330
311
100
AcDbEntity
  8
Make2D$可见线$普通线
100
AcDbVertex
100
AcDb2dVertex
 10
146.9423722286405
 20
952.0545158756971
 30
0.0
  0
SEQEND
  5
385
330
311
100
AcDbEntity
  8
Make2D$可见线$普通线
  0
POLYLINE
  5
386
330
1F
100
AcDbEntity
  8
Make2D$可见线$普通线
100
AcDb2dPolyline
 66
     1
 10
0.0
 20
0.0
 30
0.0
  0
VERTEX
  5
387
330
386
100
AcDbEntity
  8
Make2D$可见线$普通线
100
AcDbVertex
100
AcDb2dVertex
 10
167.7650721424696
 20
955.2326300172757
 30
0.0
 42
-0.0603669138918762
  0
VERTEX
  5
388
330
386
100
AcDbEntity
  8
Make2D$可见线$普通线
100
AcDbVertex
100
AcDb2dVertex
 10
168.0443128358301
 20
955.1840332418074
 30
0.0
  0
VERTEX
  5
389
330
386
100
AcDbEntity
  8
Make2D$可见线$普通线
100
AcDbVertex
100
AcDb2dVertex
 10
168.0459249603444
 20
955.1832117864924
 30
0.0
  0
VERTEX
  5
38A
330
386
100
AcDbEntity
  8
Make2D$可见线$普通线
100
AcDbVertex
100
AcDb2dVertex
 10
168.0474331214612
 20
955.1823904022215
 30
0.0
  0
VERTEX
  5
38B
330
386
100
AcDbEntity
  8
Make2D$可见线$普通线
100
AcDbVertex
100
AcDb2dVertex
 10
168.0488373130217
 20
955.1815690833658
 30
0.0
  0
VERTEX
  5
38C
330
386
100
AcDbEntity
  8
Make2D$可见线$普通线
100
AcDbVertex
100
AcDb2dVertex
 10
168.0495004182935
 20
955.1811584467096
 30
0.0
  0
VERTEX
  5
38D
330
386
100
AcDbEntity
  8
Make2D$可见线$普通线
100
AcDbVertex
100
AcDb2dVertex
 10
168.0501375288667
 20
955.1807478242961
 30
0.0
  0
VERTEX
  5
38E
330
386
100
AcDbEntity
  8
Make2D$可见线$普通线
100
AcDbVertex
100
AcDb2dVertex
 10
168.0507486439713
 20
955.180337215422
 30
0.0
  0
VERTEX
  5
38F
330
386
100
AcDbEntity
  8
Make2D$可见线$普通线
100
AcDbVertex
100
AcDb2dVertex
 10
168.0513337628375
 20
955.1799266193834
 30
0.0
  0
VERTEX
  5
390
330
386
100
AcDbEntity
  8
Make2D$可见线$普通线
100
AcDbVertex
100
AcDb2dVertex
 10
168.0518928846953
 20
955.1795160354768
 30
0.0
  0
VERTEX
  5
391
330
386
100
AcDbEntity
  8
Make2D$可见线$普通线
100
AcDbVertex
100
AcDb2dVertex
 10
168.052426008775
 20
955.1791054629987
 30
0.0
  0
VERTEX
  5
392
330
386
100
AcDbEntity
  8
Make2D$可见线$普通线
100
AcDbVertex
100
AcDb2dVertex
 10
168.0529331343067
 20
955.178694901245
 30
0.0
  0
VERTEX
  5
393
330
386
100
AcDbEntity
  8
Make2D$可见线$普通线
100
AcDbVertex
100
AcDb2dVertex
 10
168.0534142605205
 20
955.1782843495125
 30
0.0
  0
VERTEX
  5
394
330
386
100
AcDbEntity
  8
Make2D$可见线$普通线
100
AcDbVertex
100
AcDb2dVertex
 10
168.0538693866465
 20
955.1778738070975
 30
0.0
  0
VERTEX
  5
395
330
386
100
AcDbEntity
  8
Make2D$可见线$普通线
100
AcDbVertex
100
AcDb2dVertex
 10
168.0542985119149
 20
955.1774632732961
 30
0.0
  0
VERTEX
  5
396
330
386
100
AcDbEntity
  8
Make2D$可见线$普通线
100
AcDbVertex
100
AcDb2dVertex
 10
168.0547016355557
 20
955.1770527474048
 30
0.0
  0
VERTEX
  5
397
330
386
100
AcDbEntity
  8
Make2D$可见线$普通线
100
AcDbVertex
100
AcDb2dVertex
 10
168.0550787567992
 20
955.1766422287202
 30
0.0
  0
VERTEX
  5
398
330
386
100
AcDbEntity
  8
Make2D$可见线$普通线
100
AcDbVertex
100
AcDb2dVertex
 10
168.0552575662814
 20
955.1764369718605
 30
0.0
  0
VERTEX
  5
399
330
386
100
AcDbEntity
  8
Make2D$可见线$普通线
100
AcDbVertex
100
AcDb2dVertex
 10
168.0554298748755
 20
955.1762317165384
 30
0.0
  0
VERTEX
  5
39A
330
386
100
AcDbEntity
  8
Make2D$可见线$普通线
100
AcDbVertex
100
AcDb2dVertex
 10
168.0555956824853
 20
955.1760264626662
 30
0.0
  0
VERTEX
  5
39B
330
386
100
AcDbEntity
  8
Make2D$可见线$普通线
100
AcDbVertex
100
AcDb2dVertex
 10
168.0557549890147
 20
955.1758212101557
 30
0.0
  0
VERTEX
  5
39C
330
386
100
AcDbEntity
  8
Make2D$可见线$普通线
100
AcDbVertex
100
AcDb2dVertex
 10
168.0559077943672
 20
955.1756159589193
 30
0.0
  0
VERTEX
  5
39D
330
386
100
AcDbEntity
  8
Make2D$可见线$普通线
100
AcDbVertex
100
AcDb2dVertex
 10
168.0560540984469
 20
955.1754107088686
 30
0.0
  0
VERTEX
  5
39E
330
386
100
AcDbEntity
  8
Make2D$可见线$普通线
100
AcDbVertex
100
AcDb2dVertex
 10
168.0561939011573
 20
955.1752054599161
 30
0.0
  0
VERTEX
  5
39F
330
386
100
AcDbEntity
  8
Make2D$可见线$普通线
100
AcDbVertex
100
AcDb2dVertex
 10
168.0563272024022
 20
955.1750002119736
 30
0.0
  0
VERTEX
  5
3A0
330
386
100
AcDbEntity
  8
Make2D$可见线$普通线
100
AcDbVertex
100
AcDb2dVertex
 10
168.0564540020855
 20
955.1747949649532
 30
0.0
  0
VERTEX
  5
3A1
330
386
100
AcDbEntity
  8
Make2D$可见线$普通线
100
AcDbVertex
100
AcDb2dVertex
 10
168.0565743001109
 20
955.1745897187668
 30
0.0
  0
VERTEX
  5
3A2
330
386
100
AcDbEntity
  8
Make2D$可见线$普通线
100
AcDbVertex
100
AcDb2dVertex
 10
168.0566880963821
 20
955.1743844733267
 30
0.0
  0
VERTEX
  5
3A3
330
386
100
AcDbEntity
  8
Make2D$可见线$普通线
100
AcDbVertex
100
AcDb2dVertex
 10
168.056795390803
 20
955.1741792285447
 30
0.0
  0
VERTEX
  5
3A4
330
386
100
AcDbEntity
  8
Make2D$可见线$普通线
100
AcDbVertex
100
AcDb2dVertex
 10
168.0568961832772
 20
955.1739739843331
 30
0.0
  0
VERTEX
  5
3A5
330
386
100
AcDbEntity
  8
Make2D$可见线$普通线
100
AcDbVertex
100
AcDb2dVertex
 10
168.0569904737087
 20
955.1737687406037
 30
0.0
  0
VERTEX
  5
3A6
330
386
100
AcDbEntity
  8
Make2D$可见线$普通线
100
AcDbVertex
100
AcDb2dVertex
 10
168.057078262001
 20
955.1735634972687
 30
0.0
  0
VERTEX
  5
3A7
330
386
100
AcDbEntity
  8
Make2D$可见线$普通线
100
AcDbVertex
100
AcDb2dVertex
 10
168.057159548058
 20
955.17335825424
 30
0.0
  0
VERTEX
  5
3A8
330
386
100
AcDbEntity
  8
Make2D$可见线$普通线
100
AcDbVertex
100
AcDb2dVertex
 10
168.0572343317835
 20
955.1731530114299
 30
0.0
  0
VERTEX
  5
3A9
330
386
100
AcDbEntity
  8
Make2D$可见线$普通线
100
AcDbVertex
100
AcDb2dVertex
 10
168.0573026130812
 20
955.1729477687502
 30
0.0
  0
VERTEX
  5
3AA
330
386
100
AcDbEntity
  8
Make2D$可见线$普通线
100
AcDbVertex
100
AcDb2dVertex
 10
168.0573643918549
 20
955.1727425261129
 30
0.0
  0
VERTEX
  5
3AB
330
386
100
AcDbEntity
  8
Make2D$可见线$普通线
100
AcDbVertex
100
AcDb2dVertex
 10
168.0574196680084
 20
955.1725372834303
 30
0.0
  0
VERTEX
  5
3AC
330
386
100
AcDbEntity
  8
Make2D$可见线$普通线
100
AcDbVertex
100
AcDb2dVertex
 10
168.0574684414454
 20
955.1723320406143
 30
0.0
  0
VERTEX
  5
3AD
330
386
100
AcDbEntity
  8
Make2D$可见线$普通线
100
AcDbVertex
100
AcDb2dVertex
 10
168.0575107120697
 20
955.172126797577
 30
0.0
  0
VERTEX
  5
3AE
330
386
100
AcDbEntity
  8
Make2D$可见线$普通线
100
AcDbVertex
100
AcDb2dVertex
 10
168.057546479785
 20
955.1719215542305
 30
0.0
  0
VERTEX
  5
3AF
330
386
100
AcDbEntity
  8
Make2D$可见线$普通线
100
AcDbVertex
100
AcDb2dVertex
 10
168.0575757444952
 20
955.1717163104867
 30
0.0
  0
VERTEX
  5
3B0
330
386
100
AcDbEntity
  8
Make2D$可见线$普通线
100
AcDbVertex
100
AcDb2dVertex
 10
168.0575985061039
 20
955.1715110662576
 30
0.0
  0
VERTEX
  5
3B1
330
386
100
AcDbEntity
  8
Make2D$可见线$普通线
100
AcDbVertex
100
AcDb2dVertex
 10
168.057614764515
 20
955.1713058214555
 30
0.0
  0
VERTEX
  5
3B2
330
386
100
AcDbEntity
  8
Make2D$可见线$普通线
100
AcDbVertex
100
AcDb2dVertex
 10
168.0576245196323
 20
955.1711005759921
 30
0.0
  0
VERTEX
  5
3B3
330
386
100
AcDbEntity
  8
Make2D$可见线$普通线
100
AcDbVertex
100
AcDb2dVertex
 10
168.0576277713594
 20
955.1708953297798
 30
0.0
  0
VERTEX
  5
3B4
330
386
100
AcDbEntity
  8
Make2D$可见线$普通线
100
AcDbVertex
100
AcDb2dVertex
 10
168.0576246971434
 20
955.1706957629053
 30
0.0
  0
VERTEX
  5
3B5
330
386
100
AcDbEntity
  8
Make2D$可见线$普通线
100
AcDbVertex
100
AcDb2dVertex
 10
168.0576154747235
 20
955.1704961977468
 30
0.0
  0
VERTEX
  5
3B6
330
386
100
AcDbEntity
  8
Make2D$可见线$普通线
100
AcDbVertex
100
AcDb2dVertex
 10
168.0576001044419
 20
955.1702966342884
 30
0.0
  0
VERTEX
  5
3B7
330
386
100
AcDbEntity
  8
Make2D$可见线$普通线
100
AcDbVertex
100
AcDb2dVertex
 10
168.0575785866406
 20
955.1700970725135
 30
0.0
  0
VERTEX
  5
3B8
330
386
100
AcDbEntity
  8
Make2D$可见线$普通线
100
AcDbVertex
100
AcDb2dVertex
 10
168.0575509216618
 20
955.1698975124061
 30
0.0
  0
VERTEX
  5
3B9
330
386
100
AcDbEntity
  8
Make2D$可见线$普通线
100
AcDbVertex
100
AcDb2dVertex
 10
168.0575171098478
 20
955.1696979539499
 30
0.0
  0
VERTEX
  5
3BA
330
386
100
AcDbEntity
  8
Make2D$可见线$普通线
100
AcDbVertex
100
AcDb2dVertex
 10
168.0574771515406
 20
955.1694983971289
 30
0.0
  0
VERTEX
  5
3BB
330
386
100
AcDbEntity
  8
Make2D$可见线$普通线
100
AcDbVertex
100
AcDb2dVertex
 10
168.0574310470823
 20
955.1692988419265
 30
0.0
  0
VERTEX
  5
3BC
330
386
100
AcDbEntity
  8
Make2D$可见线$普通线
100
AcDbVertex
100
AcDb2dVertex
 10
168.0573787968151
 20
955.1690992883271
 30
0.0
  0
VERTEX
  5
3BD
330
386
100
AcDbEntity
  8
Make2D$可见线$普通线
100
AcDbVertex
100
AcDb2dVertex
 10
168.0573204010812
 20
955.1688997363137
 30
0.0
  0
VERTEX
  5
3BE
330
386
100
AcDbEntity
  8
Make2D$可见线$普通线
100
AcDbVertex
100
AcDb2dVertex
 10
168.0572558602227
 20
955.1687001858706
 30
0.0
  0
VERTEX
  5
3BF
330
386
100
AcDbEntity
  8
Make2D$可见线$普通线
100
AcDbVertex
100
AcDb2dVertex
 10
168.0571851745817
 20
955.1685006369817
 30
0.0
  0
VERTEX
  5
3C0
330
386
100
AcDbEntity
  8
Make2D$可见线$普通线
100
AcDbVertex
100
AcDb2dVertex
 10
168.0571083445004
 20
955.1683010896304
 30
0.0
  0
VERTEX
  5
3C1
330
386
100
AcDbEntity
  8
Make2D$可见线$普通线
100
AcDbVertex
100
AcDb2dVertex
 10
168.0570253703209
 20
955.1681015438007
 30
0.0
  0
VERTEX
  5
3C2
330
386
100
AcDbEntity
  8
Make2D$可见线$普通线
100
AcDbVertex
100
AcDb2dVertex
 10
168.0569362523854
 20
955.1679019994764
 30
0.0
  0
VERTEX
  5
3C3
330
386
100
AcDbEntity
  8
Make2D$可见线$普通线
100
AcDbVertex
100
AcDb2dVertex
 10
168.056840991036
 20
955.1677024566413
 30
0.0
  0
VERTEX
  5
3C4
330
386
100
AcDbEntity
  8
Make2D$可见线$普通线
100
AcDbVertex
100
AcDb2dVertex
 10
168.0567395866149
 20
955.1675029152793
 30
0.0
  0
VERTEX
  5
3C5
330
386
100
AcDbEntity
  8
Make2D$可见线$普通线
100
AcDbVertex
100
AcDb2dVertex
 10
168.0566320394642
 20
955.1673033753739
 30
0.0
  0
VERTEX
  5
3C6
330
386
100
AcDbEntity
  8
Make2D$可见线$普通线
100
AcDbVertex
100
AcDb2dVertex
 10
168.056518349926
 20
955.1671038369088
 30
0.0
  0
VERTEX
  5
3C7
330
386
100
AcDbEntity
  8
Make2D$可见线$普通线
100
AcDbVertex
100
AcDb2dVertex
 10
168.0563985183425
 20
955.1669042998683
 30
0.0
  0
VERTEX
  5
3C8
330
386
100
AcDbEntity
  8
Make2D$可见线$普通线
100
AcDbVertex
100
AcDb2dVertex
 10
168.0562725450558
 20
955.1667047642358
 30
0.0
  0
VERTEX
  5
3C9
330
386
100
AcDbEntity
  8
Make2D$可见线$普通线
100
AcDbVertex
100
AcDb2dVertex
 10
168.0561404304081
 20
955.1665052299952
 30
0.0
  0
VERTEX
  5
3CA
330
386
100
AcDbEntity
  8
Make2D$可见线$普通线
100
AcDbVertex
100
AcDb2dVertex
 10
168.0560021747416
 20
955.1663056971303
 30
0.0
  0
VERTEX
  5
3CB
330
386
100
AcDbEntity
  8
Make2D$可见线$普通线
100
AcDbVertex
100
AcDb2dVertex
 10
168.0558577783983
 20
955.1661061656249
 30
0.0
  0
VERTEX
  5
3CC
330
386
100
AcDbEntity
  8
Make2D$可见线$普通线
100
AcDbVertex
100
AcDb2dVertex
 10
168.0557072417204
 20
955.1659066354629
 30
0.0
  0
VERTEX
  5
3CD
330
386
100
AcDbEntity
  8
Make2D$可见线$普通线
100
AcDbVertex
100
AcDb2dVertex
 10
168.05555056505
 20
955.1657071066277
 30
0.0
  0
VERTEX
  5
3CE
330
386
100
AcDbEntity
  8
Make2D$可见线$普通线
100
AcDbVertex
100
AcDb2dVertex
 10
168.0553877487294
 20
955.1655075791034
 30
0.0
  0
VERTEX
  5
3CF
330
386
100
AcDbEntity
  8
Make2D$可见线$普通线
100
AcDbVertex
100
AcDb2dVertex
 10
168.0552187931006
 20
955.1653080528739
 30
0.0
  0
VERTEX
  5
3D0
330
386
100
AcDbEntity
  8
Make2D$可见线$普通线
100
AcDbVertex
100
AcDb2dVertex
 10
168.054862465287
 20
955.1649090042339
 30
0.0
  0
VERTEX
  5
3D1
330
386
100
AcDbEntity
  8
Make2D$可见线$普通线
100
AcDbVertex
100
AcDb2dVertex
 10
168.0544815843465
 20
955.164509960578
 30
0.0
  0
VERTEX
  5
3D2
330
386
100
AcDbEntity
  8
Make2D$可见线$普通线
100
AcDbVertex
100
AcDb2dVertex
 10
168.0540761530163
 20
955.1641109217765
 30
0.0
  0
VERTEX
  5
3D3
330
386
100
AcDbEntity
  8
Make2D$可见线$普通线
100
AcDbVertex
100
AcDb2dVertex
 10
168.0536461740334
 20
955.1637118876997
 30
0.0
  0
VERTEX
  5
3D4
330
386
100
AcDbEntity
  8
Make2D$可见线$普通线
100
AcDbVertex
100
AcDb2dVertex
 10
168.0531916501351
 20
955.1633128582181
 30
0.0
  0
VERTEX
  5
3D5
330
386
100
AcDbEntity
  8
Make2D$可见线$普通线
100
AcDbVertex
100
AcDb2dVertex
 10
168.0527125840585
 20
955.1629138332019
 30
0.0
  0
VERTEX
  5
3D6
330
386
100
AcDbEntity
  8
Make2D$可见线$普通线
100
AcDbVertex
100
AcDb2dVertex
 10
168.0522089785406
 20
955.1625148125213
 30
0.0
  0
VERTEX
  5
3D7
330
386
100
AcDbEntity
  8
Make2D$可见线$普通线
100
AcDbVertex
100
AcDb2dVertex
 10
168.0516808363188
 20
955.1621157960469
 30
0.0
  0
VERTEX
  5
3D8
330
386
100
AcDbEntity
  8
Make2D$可见线$普通线
100
AcDbVertex
100
AcDb2dVertex
 10
168.05112816013
 20
955.1617167836487
 30
0.0
  0
VERTEX
  5
3D9
330
386
100
AcDbEntity
  8
Make2D$可见线$普通线
100
AcDbVertex
100
AcDb2dVertex
 10
168.0505509527116
 20
955.1613177751973
 30
0.0
  0
VERTEX
  5
3DA
330
386
100
AcDbEntity
  8
Make2D$可见线$普通线
100
AcDbVertex
100
AcDb2dVertex
 10
168.0499492168006
 20
955.160918770563
 30
0.0
  0
VERTEX
  5
3DB
330
386
100
AcDbEntity
  8
Make2D$可见线$普通线
100
AcDbVertex
100
AcDb2dVertex
 10
168.0493229551342
 20
955.1605197696158
 30
0.0
  0
VERTEX
  5
3DC
330
386
100
AcDbEntity
  8
Make2D$可见线$普通线
100
AcDbVertex
100
AcDb2dVertex
 10
168.0479968654837
 20
955.1597217782651
 30
0.0
  0
VERTEX
  5
3DD
330
386
100
AcDbEntity
  8
Make2D$可见线$普通线
100
AcDbVertex
100
AcDb2dVertex
 10
168.0465727056573
 20
955.1589238001078
 30
0.0
  0
VERTEX
  5
3DE
330
386
100
AcDbEntity
  8
Make2D$可见线$普通线
100
AcDbVertex
100
AcDb2dVertex
 10
168.0450504975522
 20
955.1581258341064
 30
0.0
  0
VERTEX
  5
3DF
330
386
100
AcDbEntity
  8
Make2D$可见线$普通线
100
AcDbVertex
100
AcDb2dVertex
 10
168.0434302630657
 20
955.1573278792235
 30
0.0
  0
VERTEX
  5
3E0
330
386
100
AcDbEntity
  8
Make2D$可见线$普通线
100
AcDbVertex
100
AcDb2dVertex
 10
168.0417120240948
 20
955.156529934422
 30
0.0
  0
VERTEX
  5
3E1
330
386
100
AcDbEntity
  8
Make2D$可见线$普通线
100
AcDbVertex
100
AcDb2dVertex
 10
168.0398958025369
 20
955.1557319986642
 30
0.0
  0
VERTEX
  5
3E2
330
386
100
AcDbEntity
  8
Make2D$可见线$普通线
100
AcDbVertex
100
AcDb2dVertex
 10
168.0379816202891
 20
955.154934070913
 30
0.0
  0
VERTEX
  5
3E3
330
386
100
AcDbEntity
  8
Make2D$可见线$普通线
100
AcDbVertex
100
AcDb2dVertex
 10
168.0338594613126
 20
955.1533382352802
 30
0.0
  0
VERTEX
  5
3E4
330
386
100
AcDbEntity
  8
Make2D$可见线$普通线
100
AcDbVertex
100
AcDb2dVertex
 10
168.029345722343
 20
955.1517424192247
 30
0.0
  0
VERTEX
  5
3E5
330
386
100
AcDbEntity
  8
Make2D$可见线$普通线
100
AcDbVertex
100
AcDb2dVertex
 10
168.0244405785579
 20
955.1501466144473
 30
0.0
  0
VERTEX
  5
3E6
330
386
100
AcDbEntity
  8
Make2D$可见线$普通线
100
AcDbVertex
100
AcDb2dVertex
 10
168.0191442051348
 20
955.1485508126488
 30
0.0
  0
VERTEX
  5
3E7
330
386
100
AcDbEntity
  8
Make2D$可见线$普通线
100
AcDbVertex
100
AcDb2dVertex
 10
168.0073784700853
 20
955.1453591847928
 30
0.0
  0
VERTEX
  5
3E8
330
386
100
AcDbEntity
  8
Make2D$可见线$普通线
100
AcDbVertex
100
AcDb2dVertex
 10
167.9940499186152
 20
955.1421674692642
 30
0.0
  0
VERTEX
  5
3E9
330
386
100
AcDbEntity
  8
Make2D$可见线$普通线
100
AcDbVertex
100
AcDb2dVertex
 10
167.9791599521454
 20
955.1389755996706
 30
0.0
  0
VERTEX
  5
3EA
330
386
100
AcDbEntity
  8
Make2D$可见线$普通线
100
AcDbVertex
100
AcDb2dVertex
 10
167.9447013798899
 20
955.132591132718
 30
0.0
  0
VERTEX
  5
3EB
330
386
100
AcDbEntity
  8
Make2D$可见线$普通线
100
AcDbVertex
100
AcDb2dVertex
 10
167.9040139646853
 20
955.1262052527948
 30
0.0
  0
VERTEX
  5
3EC
330
386
100
AcDbEntity
  8
Make2D$可见线$普通线
100
AcDbVertex
100
AcDb2dVertex
 10
167.857108917898
 20
955.1198174287607
 30
0.0
  0
VERTEX
  5
3ED
330
386
100
AcDbEntity
  8
Make2D$可见线$普通线
100
AcDbVertex
100
AcDb2dVertex
 10
167.4536674335447
 20
955.0815471730468
 30
0.0
  0
VERTEX
  5
3EE
330
386
100
AcDbEntity
  8
Make2D$可见线$普通线
100
AcDbVertex
100
AcDb2dVertex
 10
167.0492458479449
 20
955.0556083050956
 30
0.0
  0
VERTEX
  5
3EF
330
386
100
AcDbEntity
  8
Make2D$可见线$普通线
100
AcDbVertex
100
AcDb2dVertex
 10
164.9653701903717
 20
954.9654161435168
 30
0.0
  0
VERTEX
  5
3F0
330
386
100
AcDbEntity
  8
Make2D$可见线$普通线
100
AcDbVertex
100
AcDb2dVertex
 10
161.5518513863728
 20
954.8629621733782
 30
0.0
  0
VERTEX
  5
3F1
330
386
100
AcDbEntity
  8
Make2D$可见线$普通线
100
AcDbVertex
100
AcDb2dVertex
 10
157.5
 20
954.7599069580307
 30
0.0
  0
VERTEX
  5
3F2
330
386
100
AcDbEntity
  8
Make2D$可见线$普通线
100
AcDbVertex
100
AcDb2dVertex
 10
151.6449252910022
 20
954.6060791359573
 30
0.0
  0
VERTEX
  5
3F3
330
386
100
AcDbEntity
  8
Make2D$可见线$普通线
100
AcDbVertex
100
AcDb2dVertex
 10
149.6858213284546
 20
954.5418605202975
 30
0.0
  0
VERTEX
  5
3F4
330
386
100
AcDbEntity
  8
Make2D$可见线$普通线
100
AcDbVertex
100
AcDb2dVertex
 10
148.1947539967219
 20
954.4776273482655
 30
0.0
  0
VERTEX
  5
3F5
330
386
100
AcDbEntity
  8
Make2D$可见线$普通线
100
AcDbVertex
100
AcDb2dVertex
 10
147.7279254011521
 20
954.4507192892287
 30
0.0
  0
VERTEX
  5
3F6
330
386
100
AcDbEntity
  8
Make2D$可见线$普通线
100
AcDbVertex
100
AcDb2dVertex
 10
147.2618124278755
 20
954.4134140962095
 30
0.0
  0
VERTEX
  5
3F7
330
386
100
AcDbEntity
  8
Make2D$可见线$普通线
100
AcDbVertex
100
AcDb2dVertex
 10
147.1229697205009
 20
954.3973493195764
 30
0.0
  0
VERTEX
  5
3F8
330
386
100
AcDbEntity
  8
Make2D$可见线$普通线
100
AcDbVertex
100
AcDb2dVertex
 10
147.0682237131936
 20
954.389318750396
 30
0.0
  0
VERTEX
  5
3F9
330
386
100
AcDbEntity
  8
Make2D$可见线$普通线
100
AcDbVertex
100
AcDb2dVertex
 10
147.0445318914371
 20
954.385302327832
 30
0.0
  0
VERTEX
  5
3FA
330
386
100
AcDbEntity
  8
Make2D$可见线$普通线
100
AcDbVertex
100
AcDb2dVertex
 10
147.0232988939175
 20
954.3812845398539
 30
0.0
  0
VERTEX
  5
3FB
330
386
100
AcDbEntity
  8
Make2D$可见线$普通线
100
AcDbVertex
100
AcDb2dVertex
 10
147.004528247864
 20
954.3772649313883
 30
0.0
  0
VERTEX
  5
3FC
330
386
100
AcDbEntity
  8
Make2D$可见线$普通线
100
AcDbVertex
100
AcDb2dVertex
 10
146.9960674088961
 20
954.375254302262
 30
0.0
  0
VERTEX
  5
3FD
330
386
100
AcDbEntity
  8
Make2D$可见线$普通线
100
AcDbVertex
100
AcDb2dVertex
 10
146.9882234805058
 20
954.3732430473613
 30
0.0
  0
VERTEX
  5
3FE
330
386
100
AcDbEntity
  8
Make2D$可见线$普通线
100
AcDbVertex
100
AcDb2dVertex
 10
146.9809969035965
 20
954.3712311098017
 30
0.0
  0
VERTEX
  5
3FF
330
386
100
AcDbEntity
  8
Make2D$可见线$普通线
100
AcDbVertex
100
AcDb2dVertex
 10
146.974388119072
 20
954.3692184326992
 30
0.0
  0
VERTEX
  5
400
330
386
100
AcDbEntity
  8
Make2D$可见线$普通线
100
AcDbVertex
100
AcDb2dVertex
 10
146.968397567836
 20
954.3672049591696
 30
0.0
  0
VERTEX
  5
401
330
386
100
AcDbEntity
  8
Make2D$可见线$普通线
100
AcDbVertex
100
AcDb2dVertex
 10
146.9656342674835
 20
954.3661979059684
 30
0.0
  0
VERTEX
  5
402
330
386
100
AcDbEntity
  8
Make2D$可见线$普通线
100
AcDbVertex
100
AcDb2dVertex
 10
146.9630256907919
 20
954.3651906323287
 30
0.0
  0
VERTEX
  5
403
330
386
100
AcDbEntity
  8
Make2D$可见线$普通线
100
AcDbVertex
100
AcDb2dVertex
 10
146.9605718928743
 20
954.3641831311402
 30
0.0
  0
VERTEX
  5
404
330
386
100
AcDbEntity
  8
Make2D$可见线$普通线
100
AcDbVertex
100
AcDb2dVertex
 10
146.9582729288436
 20
954.363175395292
 30
0.0
  0
VERTEX
  5
405
330
386
100
AcDbEntity
  8
Make2D$可见线$普通线
100
AcDbVertex
100
AcDb2dVertex
 10
146.9561288538127
 20
954.3621674176743
 30
0.0
  0
VERTEX
  5
406
330
386
100
AcDbEntity
  8
Make2D$可见线$普通线
100
AcDbVertex
100
AcDb2dVertex
 10
146.9541397228946
 20
954.3611591911758
 30
0.0
  0
VERTEX
  5
407
330
386
100
AcDbEntity
  8
Make2D$可见线$普通线
100
AcDbVertex
100
AcDb2dVertex
 10
146.9532032787007
 20
954.3606549823744
 30
0.0
  0
VERTEX
  5
408
330
386
100
AcDbEntity
  8
Make2D$可见线$普通线
100
AcDbVertex
100
AcDb2dVertex
 10
146.9523055912023
 20
954.3601507086864
 30
0.0
  0
VERTEX
  5
409
330
386
100
AcDbEntity
  8
Make2D$可见线$普通线
100
AcDbVertex
100
AcDb2dVertex
 10
146.9514466672886
 20
954.359646369223
 30
0.0
  0
VERTEX
  5
40A
330
386
100
AcDbEntity
  8
Make2D$可见线$普通线
100
AcDbVertex
100
AcDb2dVertex
 10
146.9506265138486
 20
954.3591419630955
 30
0.0
  0
VERTEX
  5
40B
330
386
100
AcDbEntity
  8
Make2D$可见线$普通线
100
AcDbVertex
100
AcDb2dVertex
 10
146.9498451377716
 20
954.3586374894148
 30
0.0
  0
VERTEX
  5
40C
330
386
100
AcDbEntity
  8
Make2D$可见线$普通线
100
AcDbVertex
100
AcDb2dVertex
 10
146.9491025459467
 20
954.3581329472923
 30
0.0
  0
VERTEX
  5
40D
330
386
100
AcDbEntity
  8
Make2D$可见线$普通线
100
AcDbVertex
100
AcDb2dVertex
 10
146.9483987452628
 20
954.3576283358393
 30
0.0
  0
VERTEX
  5
40E
330
386
100
AcDbEntity
  8
Make2D$可见线$普通线
100
AcDbVertex
100
AcDb2dVertex
 10
146.9477337426093
 20
954.3571236541668
 30
0.0
  0
VERTEX
  5
40F
330
386
100
AcDbEntity
  8
Make2D$可见线$普通线
100
AcDbVertex
100
AcDb2dVertex
 10
146.9471075448751
 20
954.356618901386
 30
0.0
  0
VERTEX
  5
410
330
386
100
AcDbEntity
  8
Make2D$可见线$普通线
100
AcDbVertex
100
AcDb2dVertex
 10
146.9465201589495
 20
954.3561140766082
 30
0.0
  0
VERTEX
  5
411
330
386
100
AcDbEntity
  8
Make2D$可见线$普通线
100
AcDbVertex
100
AcDb2dVertex
 10
146.9462410225677
 20
954.3558616369426
 30
0.0
  0
VERTEX
  5
412
330
386
100
AcDbEntity
  8
Make2D$可见线$普通线
100
AcDbVertex
100
AcDb2dVertex
 10
146.9459715917214
 20
954.3556091789444
 30
0.0
  0
VERTEX
  5
413
330
386
100
AcDbEntity
  8
Make2D$可见线$普通线
100
AcDbVertex
100
AcDb2dVertex
 10
146.9457118672719
 20
954.3553567025026
 30
0.0
  0
VERTEX
  5
414
330
386
100
AcDbEntity
  8
Make2D$可见线$普通线
100
AcDbVertex
100
AcDb2dVertex
 10
146.9454618500802
 20
954.355104207506
 30
0.0
  0
VERTEX
  5
415
330
386
100
AcDbEntity
  8
Make2D$可见线$普通线
100
AcDbVertex
100
AcDb2dVertex
 10
146.9452215410075
 20
954.3548516938434
 30
0.0
  0
VERTEX
  5
416
330
386
100
AcDbEntity
  8
Make2D$可见线$普通线
100
AcDbVertex
100
AcDb2dVertex
 10
146.9449909409148
 20
954.3545991614039
 30
0.0
  0
VERTEX
  5
417
330
386
100
AcDbEntity
  8
Make2D$可见线$普通线
100
AcDbVertex
100
AcDb2dVertex
 10
146.9447700506634
 20
954.3543466100764
 30
0.0
  0
VERTEX
  5
418
330
386
100
AcDbEntity
  8
Make2D$可见线$普通线
100
AcDbVertex
100
AcDb2dVertex
 10
146.9445588711144
 20
954.3540940397495
 30
0.0
  0
VERTEX
  5
419
330
386
100
AcDbEntity
  8
Make2D$可见线$普通线
100
AcDbVertex
100
AcDb2dVertex
 10
146.9443574031289
 20
954.3538414503123
 30
0.0
  0
VERTEX
  5
41A
330
386
100
AcDbEntity
  8
Make2D$可见线$普通线
100
AcDbVertex
100
AcDb2dVertex
 10
146.9441656475682
 20
954.3535888416538
 30
0.0
  0
VERTEX
  5
41B
330
386
100
AcDbEntity
  8
Make2D$可见线$普通线
100
AcDbVertex
100
AcDb2dVertex
 10
146.9439836052931
 20
954.3533362136629
 30
0.0
  0
VERTEX
  5
41C
330
386
100
AcDbEntity
  8
Make2D$可见线$普通线
100
AcDbVertex
100
AcDb2dVertex
 10
146.9438112771651
 20
954.3530835662284
 30
0.0
  0
VERTEX
  5
41D
330
386
100
AcDbEntity
  8
Make2D$可见线$普通线
100
AcDbVertex
100
AcDb2dVertex
 10
146.9436486640451
 20
954.3528308992392
 30
0.0
  0
VERTEX
  5
41E
330
386
100
AcDbEntity
  8
Make2D$可见线$普通线
100
AcDbVertex
100
AcDb2dVertex
 10
146.9434957667944
 20
954.3525782125841
 30
0.0
  0
VERTEX
  5
41F
330
386
100
AcDbEntity
  8
Make2D$可见线$普通线
100
AcDbVertex
100
AcDb2dVertex
 10
146.943352586274
 20
954.352325506152
 30
0.0
  0
VERTEX
  5
420
330
386
100
AcDbEntity
  8
Make2D$可见线$普通线
100
AcDbVertex
100
AcDb2dVertex
 10
146.9432191233451
 20
954.3520727798322
 30
0.0
  0
VERTEX
  5
421
330
386
100
AcDbEntity
  8
Make2D$可见线$普通线
100
AcDbVertex
100
AcDb2dVertex
 10
146.9430953788689
 20
954.3518200335131
 30
0.0
  0
VERTEX
  5
422
330
386
100
AcDbEntity
  8
Make2D$可见线$普通线
100
AcDbVertex
100
AcDb2dVertex
 10
146.9429813537065
 20
954.3515672670837
 30
0.0
  0
VERTEX
  5
423
330
386
100
AcDbEntity
  8
Make2D$可见线$普通线
100
AcDbVertex
100
AcDb2dVertex
 10
146.9428770487189
 20
954.3513144804331
 30
0.0
  0
VERTEX
  5
424
330
386
100
AcDbEntity
  8
Make2D$可见线$普通线
100
AcDbVertex
100
AcDb2dVertex
 10
146.9427824647675
 20
954.3510616734501
 30
0.0
  0
VERTEX
  5
425
330
386
100
AcDbEntity
  8
Make2D$可见线$普通线
100
AcDbVertex
100
AcDb2dVertex
 10
146.9426976027133
 20
954.3508088460236
 30
0.0
  0
VERTEX
  5
426
330
386
100
AcDbEntity
  8
Make2D$可见线$普通线
100
AcDbVertex
100
AcDb2dVertex
 10
146.9426224634174
 20
954.3505559980424
 30
0.0
  0
VERTEX
  5
427
330
386
100
AcDbEntity
  8
Make2D$可见线$普通线
100
AcDbVertex
100
AcDb2dVertex
 10
146.942557047741
 20
954.3503031293956
 30
0.0
  0
VERTEX
  5
428
330
386
100
AcDbEntity
  8
Make2D$可见线$普通线
100
AcDbVertex
100
AcDb2dVertex
 10
146.9425013565452
 20
954.3500502399718
 30
0.0
  0
VERTEX
  5
429
330
386
100
AcDbEntity
  8
Make2D$可见线$普通线
100
AcDbVertex
100
AcDb2dVertex
 10
146.9424553906912
 20
954.3497973296601
 30
0.0
  0
VERTEX
  5
42A
330
386
100
AcDbEntity
  8
Make2D$可见线$普通线
100
AcDbVertex
100
AcDb2dVertex
 10
146.9424191510401
 20
954.3495443983495
 30
0.0
  0
VERTEX
  5
42B
330
386
100
AcDbEntity
  8
Make2D$可见线$普通线
100
AcDbVertex
100
AcDb2dVertex
 10
146.942392638453
 20
954.3492914459288
 30
0.0
  0
VERTEX
  5
42C
330
386
100
AcDbEntity
  8
Make2D$可见线$普通线
100
AcDbVertex
100
AcDb2dVertex
 10
146.9423758537912
 20
954.3490384722868
 30
0.0
  0
VERTEX
  5
42D
330
386
100
AcDbEntity
  8
Make2D$可见线$普通线
100
AcDbVertex
100
AcDb2dVertex
 10
146.9423722286405
 20
953.7080619343575
 30
0.0
  0
SEQEND
  5
42E
330
386
100
AcDbEntity
  8
Make2D$可见线$普通线
  0
POLYLINE
  5
42F
330
1F
100
AcDbEntity
  8
E9096
100
AcDb2dPolyline
 66
     1
 10
0.0
 20
0.0
 30
0.0
  0
VERTEX
  5
430
330
42F
100
AcDbEntity
  8
E9096
100
AcDbVertex
100
AcDb2dVertex
 10
113.4999999999998
 20
1017.532577058934
 30
0.0
  0
VERTEX
  5
431
330
42F
100
AcDbEntity
  8
E9096
100
AcDbVertex
100
AcDb2dVertex
 10
113.4999999999999
 20
1020.032577058934
 30
0.0
  0
VERTEX
  5
432
330
42F
100
AcDbEntity
  8
E9096
100
AcDbVertex
100
AcDb2dVertex
 10
113.4951171153224
 20
1020.340194246434
 30
0.0
  0
VERTEX
  5
433
330
42F
100
AcDbEntity
  8
E9096
100
AcDbVertex
100
AcDb2dVertex
 10
113.4804686103015
 20
1020.638045808934
 30
0.0
  0
VERTEX
  5
434
330
42F
100
AcDbEntity
  8
E9096
100
AcDbVertex
100
AcDb2dVertex
 10
113.4694822501623
 20
1020.783309480809
 30
0.0
  0
VERTEX
  5
435
330
42F
100
AcDbEntity
  8
E9096
100
AcDbVertex
100
AcDb2dVertex
 10
113.4560544849372
 20
1020.926131746434
 30
0.0
  0
VERTEX
  5
436
330
42F
100
AcDbEntity
  8
E9096
100
AcDbVertex
100
AcDb2dVertex
 10
113.4401853146263
 20
1021.066512605809
 30
0.0
  0
VERTEX
  5
437
330
42F
100
AcDbEntity
  8
E9096
100
AcDbVertex
100
AcDb2dVertex
 10
113.4218747392296
 20
1021.204452058934
 30
0.0
  0
VERTEX
  5
438
330
42F
100
AcDbEntity
  8
E9096
100
AcDbVertex
100
AcDb2dVertex
 10
113.401122758747
 20
1021.339950105809
 30
0.0
  0
VERTEX
  5
439
330
42F
100
AcDbEntity
  8
E9096
100
AcDbVertex
100
AcDb2dVertex
 10
113.3779293731785
 20
1021.473006746434
 30
0.0
  0
VERTEX
  5
43A
330
42F
100
AcDbEntity
  8
E9096
100
AcDbVertex
100
AcDb2dVertex
 10
113.3522945825242
 20
1021.603621980809
 30
0.0
  0
VERTEX
  5
43B
330
42F
100
AcDbEntity
  8
E9096
100
AcDbVertex
100
AcDb2dVertex
 10
113.3242183867841
 20
1021.731795808934
 30
0.0
  0
VERTEX
  5
43C
330
42F
100
AcDbEntity
  8
E9096
100
AcDbVertex
100
AcDb2dVertex
 10
113.2937007859581
 20
1021.857528230809
 30
0.0
  0
VERTEX
  5
43D
330
42F
100
AcDbEntity
  8
E9096
100
AcDbVertex
100
AcDb2dVertex
 10
113.2607417800463
 20
1021.980819246434
 30
0.0
  0
VERTEX
  5
43E
330
42F
100
AcDbEntity
  8
E9096
100
AcDbVertex
100
AcDb2dVertex
 10
113.2253413690486
 20
1022.101668855809
 30
0.0
  0
VERTEX
  5
43F
330
42F
100
AcDbEntity
  8
E9096
100
AcDbVertex
100
AcDb2dVertex
 10
113.1874995529651
 20
1022.220077058933
 30
0.0
  0
VERTEX
  5
440
330
42F
100
AcDbEntity
  8
E9096
100
AcDbVertex
100
AcDb2dVertex
 10
113.1472163317957
 20
1022.336043855808
 30
0.0
  0
VERTEX
  5
441
330
42F
100
AcDbEntity
  8
E9096
100
AcDbVertex
100
AcDb2dVertex
 10
113.1044917055405
 20
1022.449569246433
 30
0.0
  0
VERTEX
  5
442
330
42F
100
AcDbEntity
  8
E9096
100
AcDbVertex
100
AcDb2dVertex
 10
113.0593256741994
 20
1022.560653230808
 30
0.0
  0
VERTEX
  5
443
330
42F
100
AcDbEntity
  8
E9096
100
AcDbVertex
100
AcDb2dVertex
 10
113.0117182377725
 20
1022.669295808933
 30
0.0
  0
VERTEX
  5
444
330
42F
100
AcDbEntity
  8
E9096
100
AcDbVertex
100
AcDb2dVertex
 10
112.9616693962597
 20
1022.775496980808
 30
0.0
  0
VERTEX
  5
445
330
42F
100
AcDbEntity
  8
E9096
100
AcDbVertex
100
AcDb2dVertex
 10
112.9091791496611
 20
1022.879256746433
 30
0.0
  0
VERTEX
  5
446
330
42F
100
AcDbEntity
  8
E9096
100
AcDbVertex
100
AcDb2dVertex
 10
112.8542474979766
 20
1022.980575105808
 30
0.0
  0
VERTEX
  5
447
330
42F
100
AcDbEntity
  8
E9096
100
AcDbVertex
100
AcDb2dVertex
 10
112.7968744412063
 20
1023.079452058933
 30
0.0
  0
VERTEX
  5
448
330
42F
100
AcDbEntity
  8
E9096
100
AcDbVertex
100
AcDb2dVertex
 10
112.7370599793502
 20
1023.175887605808
 30
0.0
  0
VERTEX
  5
449
330
42F
100
AcDbEntity
  8
E9096
100
AcDbVertex
100
AcDb2dVertex
 10
112.6748041124082
 20
1023.269881746433
 30
0.0
  0
VERTEX
  5
44A
330
42F
100
AcDbEntity
  8
E9096
100
AcDbVertex
100
AcDb2dVertex
 10
112.6101068403804
 20
1023.361434480808
 30
0.0
  0
VERTEX
  5
44B
330
42F
100
AcDbEntity
  8
E9096
100
AcDbVertex
100
AcDb2dVertex
 10
112.5429681632667
 20
1023.450545808933
 30
0.0
  0
VERTEX
  5
44C
330
42F
100
AcDbEntity
  8
E9096
100
AcDbVertex
100
AcDb2dVertex
 10
112.4733880810671
 20
1023.537215730808
 30
0.0
  0
VERTEX
  5
44D
330
42F
100
AcDbEntity
  8
E9096
100
AcDbVertex
100
AcDb2dVertex
 10
112.4013665937817
 20
1023.621444246433
 30
0.0
  0
VERTEX
  5
44E
330
42F
100
AcDbEntity
  8
E9096
100
AcDbVertex
100
AcDb2dVertex
 10
112.3269037014105
 20
1023.703231355808
 30
0.0
  0
VERTEX
  5
44F
330
42F
100
AcDbEntity
  8
E9096
100
AcDbVertex
100
AcDb2dVertex
 10
112.2499994039534
 20
1023.782577058933
 30
0.0
  0
VERTEX
  5
450
330
42F
100
AcDbEntity
  8
E9096
100
AcDbVertex
100
AcDb2dVertex
 10
112.1706537014105
 20
1023.859481355808
 30
0.0
  0
VERTEX
  5
451
330
42F
100
AcDbEntity
  8
E9096
100
AcDbVertex
100
AcDb2dVertex
 10
112.0888665937817
 20
1023.933944246433
 30
0.0
  0
VERTEX
  5
452
330
42F
100
AcDbEntity
  8
E9096
100
AcDbVertex
100
AcDb2dVertex
 10
112.0046380810671
 20
1024.005965730808
 30
0.0
  0
VERTEX
  5
453
330
42F
100
AcDbEntity
  8
E9096
100
AcDbVertex
100
AcDb2dVertex
 10
111.9179681632667
 20
1024.075545808933
 30
0.0
  0
VERTEX
  5
454
330
42F
100
AcDbEntity
  8
E9096
100
AcDbVertex
100
AcDb2dVertex
 10
111.8288568403804
 20
1024.142684480808
 30
0.0
  0
VERTEX
  5
455
330
42F
100
AcDbEntity
  8
E9096
100
AcDbVertex
100
AcDb2dVertex
 10
111.7373041124082
 20
1024.207381746433
 30
0.0
  0
VERTEX
  5
456
330
42F
100
AcDbEntity
  8
E9096
100
AcDbVertex
100
AcDb2dVertex
 10
111.6433099793502
 20
1024.269637605808
 30
0.0
  0
VERTEX
  5
457
330
42F
100
AcDbEntity
  8
E9096
100
AcDbVertex
100
AcDb2dVertex
 10
111.5468744412063
 20
1024.329452058933
 30
0.0
  0
VERTEX
  5
458
330
42F
100
AcDbEntity
  8
E9096
100
AcDbVertex
100
AcDb2dVertex
 10
111.4479974979766
 20
1024.386825105808
 30
0.0
  0
VERTEX
  5
459
330
42F
100
AcDbEntity
  8
E9096
100
AcDbVertex
100
AcDb2dVertex
 10
111.3466791496611
 20
1024.441756746433
 30
0.0
  0
VERTEX
  5
45A
330
42F
100
AcDbEntity
  8
E9096
100
AcDbVertex
100
AcDb2dVertex
 10
111.2429193962597
 20
1024.494246980808
 30
0.0
  0
VERTEX
  5
45B
330
42F
100
AcDbEntity
  8
E9096
100
AcDbVertex
100
AcDb2dVertex
 10
111.1367182377725
 20
1024.544295808933
 30
0.0
  0
VERTEX
  5
45C
330
42F
100
AcDbEntity
  8
E9096
100
AcDbVertex
100
AcDb2dVertex
 10
111.0280756741994
 20
1024.591903230808
 30
0.0
  0
VERTEX
  5
45D
330
42F
100
AcDbEntity
  8
E9096
100
AcDbVertex
100
AcDb2dVertex
 10
110.9169917055405
 20
1024.637069246433
 30
0.0
  0
VERTEX
  5
45E
330
42F
100
AcDbEntity
  8
E9096
100
AcDbVertex
100
AcDb2dVertex
 10
110.8034663317957
 20
1024.679793855808
 30
0.0
  0
VERTEX
  5
45F
330
42F
100
AcDbEntity
  8
E9096
100
AcDbVertex
100
AcDb2dVertex
 10
110.687499552965
 20
1024.720077058933
 30
0.0
  0
VERTEX
  5
460
330
42F
100
AcDbEntity
  8
E9096
100
AcDbVertex
100
AcDb2dVertex
 10
110.5690913690486
 20
1024.757918855808
 30
0.0
  0
VERTEX
  5
461
330
42F
100
AcDbEntity
  8
E9096
100
AcDbVertex
100
AcDb2dVertex
 10
110.4482417800462
 20
1024.793319246433
 30
0.0
  0
VERTEX
  5
462
330
42F
100
AcDbEntity
  8
E9096
100
AcDbVertex
100
AcDb2dVertex
 10
110.3249507859581
 20
1024.826278230808
 30
0.0
  0
VERTEX
  5
463
330
42F
100
AcDbEntity
  8
E9096
100
AcDbVertex
100
AcDb2dVertex
 10
110.1992183867841
 20
1024.856795808933
 30
0.0
  0
VERTEX
  5
464
330
42F
100
AcDbEntity
  8
E9096
100
AcDbVertex
100
AcDb2dVertex
 10
110.0710445825242
 20
1024.884871980808
 30
0.0
  0
VERTEX
  5
465
330
42F
100
AcDbEntity
  8
E9096
100
AcDbVertex
100
AcDb2dVertex
 10
109.9404293731785
 20
1024.910506746433
 30
0.0
  0
VERTEX
  5
466
330
42F
100
AcDbEntity
  8
E9096
100
AcDbVertex
100
AcDb2dVertex
 10
109.8073727587469
 20
1024.933700105808
 30
0.0
  0
VERTEX
  5
467
330
42F
100
AcDbEntity
  8
E9096
100
AcDbVertex
100
AcDb2dVertex
 10
109.6718747392295
 20
1024.954452058933
 30
0.0
  0
VERTEX
  5
468
330
42F
100
AcDbEntity
  8
E9096
100
AcDbVertex
100
AcDb2dVertex
 10
109.5339353146263
 20
1024.972762605808
 30
0.0
  0
VERTEX
  5
469
330
42F
100
AcDbEntity
  8
E9096
100
AcDbVertex
100
AcDb2dVertex
 10
109.3935544849372
 20
1024.988631746433
 30
0.0
  0
VERTEX
  5
46A
330
42F
100
AcDbEntity
  8
E9096
100
AcDbVertex
100
AcDb2dVertex
 10
109.2507322501623
 20
1025.002059480808
 30
0.0
  0
VERTEX
  5
46B
330
42F
100
AcDbEntity
  8
E9096
100
AcDbVertex
100
AcDb2dVertex
 10
109.1054686103015
 20
1025.013045808933
 30
0.0
  0
VERTEX
  5
46C
330
42F
100
AcDbEntity
  8
E9096
100
AcDbVertex
100
AcDb2dVertex
 10
108.8076171153224
 20
1025.027694246433
 30
0.0
  0
VERTEX
  5
46D
330
42F
100
AcDbEntity
  8
E9096
100
AcDbVertex
100
AcDb2dVertex
 10
108.4999999999999
 20
1025.032577058933
 30
0.0
  0
VERTEX
  5
46E
330
42F
100
AcDbEntity
  8
E9096
100
AcDbVertex
100
AcDb2dVertex
 10
57.49999999999986
 20
1025.032577058933
 30
0.0
  0
VERTEX
  5
46F
330
42F
100
AcDbEntity
  8
E9096
100
AcDbVertex
100
AcDb2dVertex
 10
57.19238281249986
 20
1025.027694246433
 30
0.0
  0
VERTEX
  5
470
330
42F
100
AcDbEntity
  8
E9096
100
AcDbVertex
100
AcDb2dVertex
 10
56.89453124999986
 20
1025.013045808933
 30
0.0
  0
VERTEX
  5
471
330
42F
100
AcDbEntity
  8
E9096
100
AcDbVertex
100
AcDb2dVertex
 10
56.74926757812486
 20
1025.002059480808
 30
0.0
  0
VERTEX
  5
472
330
42F
100
AcDbEntity
  8
E9096
100
AcDbVertex
100
AcDb2dVertex
 10
56.60644531249986
 20
1024.988631746433
 30
0.0
  0
VERTEX
  5
473
330
42F
100
AcDbEntity
  8
E9096
100
AcDbVertex
100
AcDb2dVertex
 10
56.46606445312486
 20
1024.972762605808
 30
0.0
  0
VERTEX
  5
474
330
42F
100
AcDbEntity
  8
E9096
100
AcDbVertex
100
AcDb2dVertex
 10
56.32812499999985
 20
1024.954452058933
 30
0.0
  0
VERTEX
  5
475
330
42F
100
AcDbEntity
  8
E9096
100
AcDbVertex
100
AcDb2dVertex
 10
56.19262695312484
 20
1024.933700105808
 30
0.0
  0
VERTEX
  5
476
330
42F
100
AcDbEntity
  8
E9096
100
AcDbVertex
100
AcDb2dVertex
 10
56.05957031249984
 20
1024.910506746433
 30
0.0
  0
VERTEX
  5
477
330
42F
100
AcDbEntity
  8
E9096
100
AcDbVertex
100
AcDb2dVertex
 10
55.92895507812484
 20
1024.884871980808
 30
0.0
  0
VERTEX
  5
478
330
42F
100
AcDbEntity
  8
E9096
100
AcDbVertex
100
AcDb2dVertex
 10
55.80078124999984
 20
1024.856795808933
 30
0.0
  0
VERTEX
  5
479
330
42F
100
AcDbEntity
  8
E9096
100
AcDbVertex
100
AcDb2dVertex
 10
55.67504882812484
 20
1024.826278230808
 30
0.0
  0
VERTEX
  5
47A
330
42F
100
AcDbEntity
  8
E9096
100
AcDbVertex
100
AcDb2dVertex
 10
55.55175781249984
 20
1024.793319246433
 30
0.0
  0
VERTEX
  5
47B
330
42F
100
AcDbEntity
  8
E9096
100
AcDbVertex
100
AcDb2dVertex
 10
55.43090820312484
 20
1024.757918855808
 30
0.0
  0
VERTEX
  5
47C
330
42F
100
AcDbEntity
  8
E9096
100
AcDbVertex
100
AcDb2dVertex
 10
55.31249999999984
 20
1024.720077058933
 30
0.0
  0
VERTEX
  5
47D
330
42F
100
AcDbEntity
  8
E9096
100
AcDbVertex
100
AcDb2dVertex
 10
55.19653320312484
 20
1024.679793855808
 30
0.0
  0
VERTEX
  5
47E
330
42F
100
AcDbEntity
  8
E9096
100
AcDbVertex
100
AcDb2dVertex
 10
55.08300781249984
 20
1024.637069246433
 30
0.0
  0
VERTEX
  5
47F
330
42F
100
AcDbEntity
  8
E9096
100
AcDbVertex
100
AcDb2dVertex
 10
54.97192382812484
 20
1024.591903230808
 30
0.0
  0
VERTEX
  5
480
330
42F
100
AcDbEntity
  8
E9096
100
AcDbVertex
100
AcDb2dVertex
 10
54.86328124999984
 20
1024.544295808933
 30
0.0
  0
VERTEX
  5
481
330
42F
100
AcDbEntity
  8
E9096
100
AcDbVertex
100
AcDb2dVertex
 10
54.75708007812484
 20
1024.494246980808
 30
0.0
  0
VERTEX
  5
482
330
42F
100
AcDbEntity
  8
E9096
100
AcDbVertex
100
AcDb2dVertex
 10
54.65332031249984
 20
1024.441756746433
 30
0.0
  0
VERTEX
  5
483
330
42F
100
AcDbEntity
  8
E9096
100
AcDbVertex
100
AcDb2dVertex
 10
54.55200195312484
 20
1024.386825105808
 30
0.0
  0
VERTEX
  5
484
330
42F
100
AcDbEntity
  8
E9096
100
AcDbVertex
100
AcDb2dVertex
 10
54.45312499999984
 20
1024.329452058933
 30
0.0
  0
VERTEX
  5
485
330
42F
100
AcDbEntity
  8
E9096
100
AcDbVertex
100
AcDb2dVertex
 10
54.35668945312484
 20
1024.269637605808
 30
0.0
  0
VERTEX
  5
486
330
42F
100
AcDbEntity
  8
E9096
100
AcDbVertex
100
AcDb2dVertex
 10
54.26269531249984
 20
1024.207381746433
 30
0.0
  0
VERTEX
  5
487
330
42F
100
AcDbEntity
  8
E9096
100
AcDbVertex
100
AcDb2dVertex
 10
54.17114257812484
 20
1024.142684480808
 30
0.0
  0
VERTEX
  5
488
330
42F
100
AcDbEntity
  8
E9096
100
AcDbVertex
100
AcDb2dVertex
 10
54.08203124999984
 20
1024.075545808933
 30
0.0
  0
VERTEX
  5
489
330
42F
100
AcDbEntity
  8
E9096
100
AcDbVertex
100
AcDb2dVertex
 10
53.99536132812484
 20
1024.005965730808
 30
0.0
  0
VERTEX
  5
48A
330
42F
100
AcDbEntity
  8
E9096
100
AcDbVertex
100
AcDb2dVertex
 10
53.91113281249984
 20
1023.933944246433
 30
0.0
  0
VERTEX
  5
48B
330
42F
100
AcDbEntity
  8
E9096
100
AcDbVertex
100
AcDb2dVertex
 10
53.82934570312484
 20
1023.859481355808
 30
0.0
  0
VERTEX
  5
48C
330
42F
100
AcDbEntity
  8
E9096
100
AcDbVertex
100
AcDb2dVertex
 10
53.74999999999984
 20
1023.782577058933
 30
0.0
  0
VERTEX
  5
48D
330
42F
100
AcDbEntity
  8
E9096
100
AcDbVertex
100
AcDb2dVertex
 10
53.67309570312483
 20
1023.703231355808
 30
0.0
  0
VERTEX
  5
48E
330
42F
100
AcDbEntity
  8
E9096
100
AcDbVertex
100
AcDb2dVertex
 10
53.59863281249983
 20
1023.621444246433
 30
0.0
  0
VERTEX
  5
48F
330
42F
100
AcDbEntity
  8
E9096
100
AcDbVertex
100
AcDb2dVertex
 10
53.52661132812483
 20
1023.537215730808
 30
0.0
  0
VERTEX
  5
490
330
42F
100
AcDbEntity
  8
E9096
100
AcDbVertex
100
AcDb2dVertex
 10
53.45703124999983
 20
1023.450545808933
 30
0.0
  0
VERTEX
  5
491
330
42F
100
AcDbEntity
  8
E9096
100
AcDbVertex
100
AcDb2dVertex
 10
53.38989257812483
 20
1023.361434480808
 30
0.0
  0
VERTEX
  5
492
330
42F
100
AcDbEntity
  8
E9096
100
AcDbVertex
100
AcDb2dVertex
 10
53.32519531249983
 20
1023.269881746433
 30
0.0
  0
VERTEX
  5
493
330
42F
100
AcDbEntity
  8
E9096
100
AcDbVertex
100
AcDb2dVertex
 10
53.26293945312483
 20
1023.175887605808
 30
0.0
  0
VERTEX
  5
494
330
42F
100
AcDbEntity
  8
E9096
100
AcDbVertex
100
AcDb2dVertex
 10
53.20312499999983
 20
1023.079452058933
 30
0.0
  0
VERTEX
  5
495
330
42F
100
AcDbEntity
  8
E9096
100
AcDbVertex
100
AcDb2dVertex
 10
53.14575195312483
 20
1022.980575105808
 30
0.0
  0
VERTEX
  5
496
330
42F
100
AcDbEntity
  8
E9096
100
AcDbVertex
100
AcDb2dVertex
 10
53.09082031249983
 20
1022.879256746433
 30
0.0
  0
VERTEX
  5
497
330
42F
100
AcDbEntity
  8
E9096
100
AcDbVertex
100
AcDb2dVertex
 10
53.03833007812483
 20
1022.775496980808
 30
0.0
  0
VERTEX
  5
498
330
42F
100
AcDbEntity
  8
E9096
100
AcDbVertex
100
AcDb2dVertex
 10
52.98828124999983
 20
1022.669295808933
 30
0.0
  0
VERTEX
  5
499
330
42F
100
AcDbEntity
  8
E9096
100
AcDbVertex
100
AcDb2dVertex
 10
52.94067382812483
 20
1022.560653230808
 30
0.0
  0
VERTEX
  5
49A
330
42F
100
AcDbEntity
  8
E9096
100
AcDbVertex
100
AcDb2dVertex
 10
52.89550781249983
 20
1022.449569246433
 30
0.0
  0
VERTEX
  5
49B
330
42F
100
AcDbEntity
  8
E9096
100
AcDbVertex
100
AcDb2dVertex
 10
52.85278320312483
 20
1022.336043855808
 30
0.0
  0
VERTEX
  5
49C
330
42F
100
AcDbEntity
  8
E9096
100
AcDbVertex
100
AcDb2dVertex
 10
52.81249999999983
 20
1022.220077058933
 30
0.0
  0
VERTEX
  5
49D
330
42F
100
AcDbEntity
  8
E9096
100
AcDbVertex
100
AcDb2dVertex
 10
52.77465820312483
 20
1022.101668855808
 30
0.0
  0
VERTEX
  5
49E
330
42F
100
AcDbEntity
  8
E9096
100
AcDbVertex
100
AcDb2dVertex
 10
52.73925781249983
 20
1021.980819246433
 30
0.0
  0
VERTEX
  5
49F
330
42F
100
AcDbEntity
  8
E9096
100
AcDbVertex
100
AcDb2dVertex
 10
52.70629882812483
 20
1021.857528230808
 30
0.0
  0
VERTEX
  5
4A0
330
42F
100
AcDbEntity
  8
E9096
100
AcDbVertex
100
AcDb2dVertex
 10
52.67578124999983
 20
1021.731795808933
 30
0.0
  0
VERTEX
  5
4A1
330
42F
100
AcDbEntity
  8
E9096
100
AcDbVertex
100
AcDb2dVertex
 10
52.64770507812483
 20
1021.603621980808
 30
0.0
  0
VERTEX
  5
4A2
330
42F
100
AcDbEntity
  8
E9096
100
AcDbVertex
100
AcDb2dVertex
 10
52.62207031249983
 20
1021.473006746433
 30
0.0
  0
VERTEX
  5
4A3
330
42F
100
AcDbEntity
  8
E9096
100
AcDbVertex
100
AcDb2dVertex
 10
52.59887695312483
 20
1021.339950105808
 30
0.0
  0
VERTEX
  5
4A4
330
42F
100
AcDbEntity
  8
E9096
100
AcDbVertex
100
AcDb2dVertex
 10
52.57812499999983
 20
1021.204452058933
 30
0.0
  0
VERTEX
  5
4A5
330
42F
100
AcDbEntity
  8
E9096
100
AcDbVertex
100
AcDb2dVertex
 10
52.55981445312483
 20
1021.066512605808
 30
0.0
  0
VERTEX
  5
4A6
330
42F
100
AcDbEntity
  8
E9096
100
AcDbVertex
100
AcDb2dVertex
 10
52.54394531249983
 20
1020.926131746433
 30
0.0
  0
VERTEX
  5
4A7
330
42F
100
AcDbEntity
  8
E9096
100
AcDbVertex
100
AcDb2dVertex
 10
52.53051757812483
 20
1020.783309480808
 30
0.0
  0
VERTEX
  5
4A8
330
42F
100
AcDbEntity
  8
E9096
100
AcDbVertex
100
AcDb2dVertex
 10
52.51953124999983
 20
1020.638045808933
 30
0.0
  0
VERTEX
  5
4A9
330
42F
100
AcDbEntity
  8
E9096
100
AcDbVertex
100
AcDb2dVertex
 10
52.50488281249983
 20
1020.340194246433
 30
0.0
  0
VERTEX
  5
4AA
330
42F
100
AcDbEntity
  8
E9096
100
AcDbVertex
100
AcDb2dVertex
 10
52.49999999999984
 20
1020.032577058933
 30
0.0
  0
VERTEX
  5
4AB
330
42F
100
AcDbEntity
  8
E9096
100
AcDbVertex
100
AcDb2dVertex
 10
52.49999999999984
 20
1017.532577058933
 30
0.0
  0
SEQEND
  5
4AC
330
42F
100
AcDbEntity
  8
E9096
  0
POLYLINE
  5
4AD
330
1F
100
AcDbEntity
  8
Make2D$可见线$普通线
100
AcDb2dPolyline
 66
     1
 10
0.0
 20
0.0
 30
0.0
  0
VERTEX
  5
4AE
330
4AD
100
AcDbEntity
  8
Make2D$可见线$普通线
100
AcDbVertex
100
AcDb2dVertex
 10
147.2248076276794
 20
956.9258595731199
 30
0.0
  0
VERTEX
  5
4AF
330
4AD
100
AcDbEntity
  8
Make2D$可见线$普通线
100
AcDbVertex
100
AcDb2dVertex
 10
147.0585070681958
 20
956.9476679897261
 30
0.0
 42
-0.1868720581610708
  0
VERTEX
  5
4B0
330
4AD
100
AcDbEntity
  8
Make2D$可见线$普通线
100
AcDbVertex
100
AcDb2dVertex
 10
146.9423722286404
 20
956.9864968330205
 30
0.0
 42
-0.2382759034042942
  0
VERTEX
  5
4B1
330
4AD
100
AcDbEntity
  8
Make2D$可见线$普通线
100
AcDbVertex
100
AcDb2dVertex
 10
146.9920360903728
 20
957.0119042097351
 30
0.0
 42
-0.0334232395673692
  0
VERTEX
  5
4B2
330
4AD
100
AcDbEntity
  8
Make2D$可见线$普通线
100
AcDbVertex
100
AcDb2dVertex
 10
147.5553612916122
 20
957.0761136510724
 30
0.0
  0
VERTEX
  5
4B3
330
4AD
100
AcDbEntity
  8
Make2D$可见线$普通线
100
AcDbVertex
100
AcDb2dVertex
 10
148.7148967862373
 20
957.1403490352275
 30
0.0
  0
VERTEX
  5
4B4
330
4AD
100
AcDbEntity
  8
Make2D$可见线$普通线
100
AcDbVertex
100
AcDb2dVertex
 10
150.4008467228207
 20
957.2045478265385
 30
0.0
  0
VERTEX
  5
4B5
330
4AD
100
AcDbEntity
  8
Make2D$可见线$普通线
100
AcDbVertex
100
AcDb2dVertex
 10
154.9235330689153
 20
957.3330001077263
 30
0.0
  0
VERTEX
  5
4B6
330
4AD
100
AcDbEntity
  8
Make2D$可见线$普通线
100
AcDbVertex
100
AcDb2dVertex
 10
157.4876272936432
 20
957.3972210666029
 30
0.0
  0
VERTEX
  5
4B7
330
4AD
100
AcDbEntity
  8
Make2D$可见线$普通线
100
AcDbVertex
100
AcDb2dVertex
 10
157.5
 20
957.397374348022
 30
0.0
 42
-0.9900794816889836
  0
VERTEX
  5
4B8
330
4AD
100
AcDbEntity
  8
Make2D$可见线$普通线
100
AcDbVertex
100
AcDb2dVertex
 10
157.5123727063569
 20
956.4041917787233
 30
0.0
  0
VERTEX
  5
4B9
330
4AD
100
AcDbEntity
  8
Make2D$可见线$普通线
100
AcDbVertex
100
AcDb2dVertex
 10
157.5
 20
956.4038870498921
 30
0.0
  0
VERTEX
  5
4BA
330
4AD
100
AcDbEntity
  8
Make2D$可见线$普通线
100
AcDbVertex
100
AcDb2dVertex
 10
152.5337837023295
 20
956.2757215895499
 30
0.0
  0
VERTEX
  5
4BB
330
4AD
100
AcDbEntity
  8
Make2D$可见线$普通线
100
AcDbVertex
100
AcDb2dVertex
 10
150.0346298096283
 20
956.1984111670131
 30
0.0
  0
VERTEX
  5
4BC
330
4AD
100
AcDbEntity
  8
Make2D$可见线$普通线
100
AcDbVertex
100
AcDb2dVertex
 10
148.728644326799
 20
956.1473226332084
 30
0.0
  0
VERTEX
  5
4BD
330
4AD
100
AcDbEntity
  8
Make2D$可见线$普通线
100
AcDbVertex
100
AcDb2dVertex
 10
147.563697652813
 20
956.0831121732346
 30
0.0
 42
0.0326446189894796
  0
VERTEX
  5
4BE
330
4AD
100
AcDbEntity
  8
Make2D$可见线$普通线
100
AcDbVertex
100
AcDb2dVertex
 10
146.9944622321468
 20
956.0188997486523
 30
0.0
  0
VERTEX
  5
4BF
330
4AD
100
AcDbEntity
  8
Make2D$可见线$普通线
100
AcDbVertex
100
AcDb2dVertex
 10
146.9423722286405
 20
955.9929156742269
 30
0.0
  0
VERTEX
  5
4C0
330
4AD
100
AcDbEntity
  8
Make2D$可见线$普通线
100
AcDbVertex
100
AcDb2dVertex
 10
146.9423722286405
 20
955.3425277116328
 30
0.0
  0
SEQEND
  5
4C1
330
4AD
100
AcDbEntity
  8
Make2D$可见线$普通线
  0
POLYLINE
  5
4C2
330
1F
100
AcDbEntity
  8
Make2D$可见线$普通线
100
AcDb2dPolyline
 66
     1
 10
0.0
 20
0.0
 30
0.0
  0
VERTEX
  5
4C3
330
4C2
100
AcDbEntity
  8
Make2D$可见线$普通线
100
AcDbVertex
100
AcDb2dVertex
 10
167.7651171902688
 20
951.1707918407786
 30
0.0
 42
0.5695389256391562
  0
VERTEX
  5
4C4
330
4C2
100
AcDbEntity
  8
Make2D$可见线$普通线
100
AcDbVertex
100
AcDb2dVertex
 10
167.7133864391861
 20
950.3307201932328
 30
0.0
  0
VERTEX
  5
4C5
330
4C2
100
AcDbEntity
  8
Make2D$可见线$普通线
100
AcDbVertex
100
AcDb2dVertex
 10
167.7150252951628
 20
950.3247354373566
 30
0.0
 42
-0.0604087459006088
  0
VERTEX
  5
4C6
330
4C2
100
AcDbEntity
  8
Make2D$可见线$普通线
100
AcDbVertex
100
AcDb2dVertex
 10
167.3759525137201
 20
950.2884572015544
 30
0.0
 42
-0.0065193176324418
  0
VERTEX
  5
4C7
330
4C2
100
AcDbEntity
  8
Make2D$可见线$普通线
100
AcDbVertex
100
AcDb2dVertex
 10
157.5
 20
950.1434442964847
 30
0.0
  0
VERTEX
  5
4C8
330
4C2
100
AcDbEntity
  8
Make2D$可见线$普通线
100
AcDbVertex
100
AcDb2dVertex
 10
151.5425827001867
 20
950.111707709258
 30
0.0
  0
VERTEX
  5
4C9
330
4C2
100
AcDbEntity
  8
Make2D$可见线$普通线
100
AcDbVertex
100
AcDb2dVertex
 10
148.6182661304722
 20
950.1154696750672
 30
0.0
  0
VERTEX
  5
4CA
330
4C2
100
AcDbEntity
  8
Make2D$可见线$普通线
100
AcDbVertex
100
AcDb2dVertex
 10
147.9803720969122
 20
950.1267992373528
 30
0.0
  0
VERTEX
  5
4CB
330
4C2
100
AcDbEntity
  8
Make2D$可见线$普通线
100
AcDbVertex
100
AcDb2dVertex
 10
147.8033685001853
 20
950.1334616107166
 30
0.0
  0
VERTEX
  5
4CC
330
4C2
100
AcDbEntity
  8
Make2D$可见线$普通线
100
AcDbVertex
100
AcDb2dVertex
 10
147.6596593037952
 20
950.1420045159578
 30
0.0
  0
VERTEX
  5
4CD
330
4C2
100
AcDbEntity
  8
Make2D$可见线$普通线
100
AcDbVertex
100
AcDb2dVertex
 10
147.6096902373004
 20
950.1461927296683
 30
0.0
  0
VERTEX
  5
4CE
330
4C2
100
AcDbEntity
  8
Make2D$可见线$普通线
100
AcDbVertex
100
AcDb2dVertex
 10
147.5654976204803
 20
950.150859280692
 30
0.0
  0
VERTEX
  5
4CF
330
4C2
100
AcDbEntity
  8
Make2D$可见线$普通线
100
AcDbVertex
100
AcDb2dVertex
 10
147.5455087131363
 20
950.1534183284305
 30
0.0
  0
VERTEX
  5
4D0
330
4C2
100
AcDbEntity
  8
Make2D$可见线$普通线
100
AcDbVertex
100
AcDb2dVertex
 10
147.5268933971365
 20
950.156152635378
 30
0.0
  0
VERTEX
  5
4D1
330
4C2
100
AcDbEntity
  8
Make2D$可见线$普通线
100
AcDbVertex
100
AcDb2dVertex
 10
147.5096281654563
 20
950.1590807598286
 30
0.0
  0
VERTEX
  5
4D2
330
4C2
100
AcDbEntity
  8
Make2D$可见线$普通线
100
AcDbVertex
100
AcDb2dVertex
 10
147.4936895110707
 20
950.1622212600757
 30
0.0
 42
-0.1531945855334975
  0
VERTEX
  5
4D3
330
4C2
100
AcDbEntity
  8
Make2D$可见线$普通线
100
AcDbVertex
100
AcDb2dVertex
 10
147.4108989976046
 20
950.1988111445892
 30
0.0
  0
VERTEX
  5
4D4
330
4C2
100
AcDbEntity
  8
Make2D$可见线$普通线
100
AcDbVertex
100
AcDb2dVertex
 10
147.398779821189
 20
950.2153776939629
 30
0.0
  0
VERTEX
  5
4D5
330
4C2
100
AcDbEntity
  8
Make2D$可见线$普通线
100
AcDbVertex
100
AcDb2dVertex
 10
147.328966797601
 20
950.2873780149212
 30
0.0
  0
VERTEX
  5
4D6
330
4C2
100
AcDbEntity
  8
Make2D$可见线$普通线
100
AcDbVertex
100
AcDb2dVertex
 10
147.2849688899293
 20
950.3247412522644
 30
0.0
 42
-0.4662625356431769
  0
VERTEX
  5
4D7
330
4C2
100
AcDbEntity
  8
Make2D$可见线$普通线
100
AcDbVertex
100
AcDb2dVertex
 10
147.270583519182
 20
950.3863573656272
 30
0.0
 42
-0.1274706420971875
  0
VERTEX
  5
4D8
330
4C2
100
AcDbEntity
  8
Make2D$可见线$普通线
100
AcDbVertex
100
AcDb2dVertex
 10
147.373316590616
 20
950.4325152134539
 30
0.0
 42
-0.0317069624132234
  0
VERTEX
  5
4D9
330
4C2
100
AcDbEntity
  8
Make2D$可见线$普通线
100
AcDbVertex
100
AcDb2dVertex
 10
148.4225858916108
 20
950.5445780165036
 30
0.0
 42
-0.0075486059414025
  0
VERTEX
  5
4DA
330
4C2
100
AcDbEntity
  8
Make2D$可见线$普通线
100
AcDbVertex
100
AcDb2dVertex
 10
151.3160908443031
 20
950.6585615898808
 30
0.0
  0
SEQEND
  5
4DB
330
4C2
100
AcDbEntity
  8
Make2D$可见线$普通线
  0
POLYLINE
  5
4DC
330
1F
100
AcDbEntity
  8
Make2D$可见线$普通线
100
AcDb2dPolyline
 66
     1
 10
0.0
 20
0.0
 30
0.0
  0
VERTEX
  5
4DD
330
4DC
100
AcDbEntity
  8
Make2D$可见线$普通线
100
AcDbVertex
100
AcDb2dVertex
 10
167.7983512582211
 20
951.9410023339528
 30
0.0
  0
VERTEX
  5
4DE
330
4DC
100
AcDbEntity
  8
Make2D$可见线$普通线
100
AcDbVertex
100
AcDb2dVertex
 10
168.0055376459211
 20
951.9089008883665
 30
0.0
 42
-0.235610540514051
  0
VERTEX
  5
4DF
330
4DC
100
AcDbEntity
  8
Make2D$可见线$普通线
100
AcDbVertex
100
AcDb2dVertex
 10
168.0576277713594
 20
951.8829157279092
 30
0.0
 42
-0.1889041730956066
  0
VERTEX
  5
4E0
330
4DC
100
AcDbEntity
  8
Make2D$可见线$普通线
100
AcDbVertex
100
AcDb2dVertex
 10
167.9451243939576
 20
951.8446683235912
 30
0.0
  0
VERTEX
  5
4E1
330
4DC
100
AcDbEntity
  8
Make2D$可见线$普通线
100
AcDbVertex
100
AcDb2dVertex
 10
167.7741240492512
 20
951.8230240374928
 30
0.0
  0
VERTEX
  5
4E2
330
4DC
100
AcDbEntity
  8
Make2D$可见线$普通线
100
AcDbVertex
100
AcDb2dVertex
 10
167.6026528445107
 20
951.8050997737498
 30
0.0
  0
VERTEX
  5
4E3
330
4DC
100
AcDbEntity
  8
Make2D$可见线$普通线
100
AcDbVertex
100
AcDb2dVertex
 10
167.4308323231722
 20
951.7909095752722
 30
0.0
  0
VERTEX
  5
4E4
330
4DC
100
AcDbEntity
  8
Make2D$可见线$普通线
100
AcDbVertex
100
AcDb2dVertex
 10
165.9871926392019
 20
951.716231907096
 30
0.0
  0
VERTEX
  5
4E5
330
4DC
100
AcDbEntity
  8
Make2D$可见线$普通线
100
AcDbVertex
100
AcDb2dVertex
 10
164.2070157707411
 20
951.6520100117469
 30
0.0
  0
VERTEX
  5
4E6
330
4DC
100
AcDbEntity
  8
Make2D$可见线$普通线
100
AcDbVertex
100
AcDb2dVertex
 10
159.5719865288742
 20
951.5235791485399
 30
0.0
  0
VERTEX
  5
4E7
330
4DC
100
AcDbEntity
  8
Make2D$可见线$普通线
100
AcDbVertex
100
AcDb2dVertex
 10
157.5
 20
951.4718949972383
 30
0.0
  0
VERTEX
  5
4E8
330
4DC
100
AcDbEntity
  8
Make2D$可见线$普通线
100
AcDbVertex
100
AcDb2dVertex
 10
152.0830090867231
 20
951.3309141087922
 30
0.0
  0
VERTEX
  5
4E9
330
4DC
100
AcDbEntity
  8
Make2D$可见线$普通线
100
AcDbVertex
100
AcDb2dVertex
 10
150.0346298096283
 20
951.2663851619807
 30
0.0
  0
VERTEX
  5
4EA
330
4DC
100
AcDbEntity
  8
Make2D$可见线$普通线
100
AcDbVertex
100
AcDb2dVertex
 10
148.4506597104222
 20
951.2024678292058
 30
0.0
  0
VERTEX
  5
4EB
330
4DC
100
AcDbEntity
  8
Make2D$可见线$普通线
100
AcDbVertex
100
AcDb2dVertex
 10
147.4006085535352
 20
951.1382599325218
 30
0.0
 42
0.05637611334131
  0
VERTEX
  5
4EC
330
4DC
100
AcDbEntity
  8
Make2D$可见线$普通线
100
AcDbVertex
100
AcDb2dVertex
 10
146.9557126182158
 20
951.0740458257443
 30
0.0
  0
VERTEX
  5
4ED
330
4DC
100
AcDbEntity
  8
Make2D$可见线$普通线
100
AcDbVertex
100
AcDb2dVertex
 10
146.9423722286406
 20
951.0608975422738
 30
0.0
  0
VERTEX
  5
4EE
330
4DC
100
AcDbEntity
  8
Make2D$可见线$普通线
100
AcDbVertex
100
AcDb2dVertex
 10
146.9423722286406
 20
950.6673379135531
 30
0.0
  0
SEQEND
  5
4EF
330
4DC
100
AcDbEntity
  8
Make2D$可见线$普通线
  0
POLYLINE
  5
4F0
330
1F
100
AcDbEntity
  8
Make2D$可见线$普通线
100
AcDb2dPolyline
 66
     1
 10
0.0
 20
0.0
 30
0.0
  0
VERTEX
  5
4F1
330
4F0
100
AcDbEntity
  8
Make2D$可见线$普通线
100
AcDbVertex
100
AcDb2dVertex
 10
167.7150252951635
 20
950.3247354373572
 30
0.0
  0
VERTEX
  5
4F2
330
4F0
100
AcDbEntity
  8
Make2D$可见线$普通线
100
AcDbVertex
100
AcDb2dVertex
 10
167.0662386038452
 20
949.6807064562169
 30
0.0
  0
VERTEX
  5
4F3
330
4F0
100
AcDbEntity
  8
Make2D$可见线$普通线
100
AcDbVertex
100
AcDb2dVertex
 10
147.9337613961548
 20
949.680706456217
 30
0.0
  0
VERTEX
  5
4F4
330
4F0
100
AcDbEntity
  8
Make2D$可见线$普通线
100
AcDbVertex
100
AcDb2dVertex
 10
147.438925473448
 20
950.1707846687457
 30
0.0
  0
SEQEND
  5
4F5
330
4F0
100
AcDbEntity
  8
Make2D$可见线$普通线
  0
POLYLINE
  5
4F6
330
1F
100
AcDbEntity
  8
Make2D$可见线$普通线
100
AcDb2dPolyline
 66
     1
 10
0.0
 20
0.0
 30
0.0
  0
VERTEX
  5
4F7
330
4F6
100
AcDbEntity
  8
Make2D$可见线$普通线
100
AcDbVertex
100
AcDb2dVertex
 10
168.0576277713594
 20
951.8733565906641
 30
0.0
  0
VERTEX
  5
4F8
330
4F6
100
AcDbEntity
  8
Make2D$可见线$普通线
100
AcDbVertex
100
AcDb2dVertex
 10
168.0576241462087
 20
951.2323744060695
 30
0.0
  0
VERTEX
  5
4F9
330
4F6
100
AcDbEntity
  8
Make2D$可见线$普通线
100
AcDbVertex
100
AcDb2dVertex
 10
168.057607360423
 20
951.2321214202839
 30
0.0
  0
VERTEX
  5
4FA
330
4F6
100
AcDbEntity
  8
Make2D$可见线$普通线
100
AcDbVertex
100
AcDb2dVertex
 10
168.0575808457003
 20
951.2318684558138
 30
0.0
  0
VERTEX
  5
4FB
330
4F6
100
AcDbEntity
  8
Make2D$可见线$普通线
100
AcDbVertex
100
AcDb2dVertex
 10
168.0575446029019
 20
951.231615512547
 30
0.0
  0
VERTEX
  5
4FC
330
4F6
100
AcDbEntity
  8
Make2D$可见线$普通线
100
AcDbVertex
100
AcDb2dVertex
 10
168.057498632889
 20
951.2313625903712
 30
0.0
  0
VERTEX
  5
4FD
330
4F6
100
AcDbEntity
  8
Make2D$可见线$普通线
100
AcDbVertex
100
AcDb2dVertex
 10
168.0574429365231
 20
951.231109689174
 30
0.0
  0
VERTEX
  5
4FE
330
4F6
100
AcDbEntity
  8
Make2D$可见线$普通线
100
AcDbVertex
100
AcDb2dVertex
 10
168.0573775146653
 20
951.2308568088432
 30
0.0
  0
VERTEX
  5
4FF
330
4F6
100
AcDbEntity
  8
Make2D$可见线$普通线
100
AcDbVertex
100
AcDb2dVertex
 10
168.0573023681772
 20
951.2306039492664
 30
0.0
  0
VERTEX
  5
500
330
4F6
100
AcDbEntity
  8
Make2D$可见线$普通线
100
AcDbVertex
100
AcDb2dVertex
 10
168.0572174979199
 20
951.2303511103315
 30
0.0
  0
VERTEX
  5
501
330
4F6
100
AcDbEntity
  8
Make2D$可见线$普通线
100
AcDbVertex
100
AcDb2dVertex
 10
168.0571229047547
 20
951.2300982919261
 30
0.0
  0
VERTEX
  5
502
330
4F6
100
AcDbEntity
  8
Make2D$可见线$普通线
100
AcDbVertex
100
AcDb2dVertex
 10
168.0570185895432
 20
951.2298454939378
 30
0.0
  0
VERTEX
  5
503
330
4F6
100
AcDbEntity
  8
Make2D$可见线$普通线
100
AcDbVertex
100
AcDb2dVertex
 10
168.0569045531465
 20
951.2295927162544
 30
0.0
  0
VERTEX
  5
504
330
4F6
100
AcDbEntity
  8
Make2D$可见线$普通线
100
AcDbVertex
100
AcDb2dVertex
 10
168.0567807964259
 20
951.2293399587636
 30
0.0
  0
VERTEX
  5
505
330
4F6
100
AcDbEntity
  8
Make2D$可见线$普通线
100
AcDbVertex
100
AcDb2dVertex
 10
168.0566473202428
 20
951.2290872213532
 30
0.0
  0
VERTEX
  5
506
330
4F6
100
AcDbEntity
  8
Make2D$可见线$普通线
100
AcDbVertex
100
AcDb2dVertex
 10
168.0565041254585
 20
951.2288345039108
 30
0.0
  0
VERTEX
  5
507
330
4F6
100
AcDbEntity
  8
Make2D$可见线$普通线
100
AcDbVertex
100
AcDb2dVertex
 10
168.0563512129343
 20
951.228581806324
 30
0.0
  0
VERTEX
  5
508
330
4F6
100
AcDbEntity
  8
Make2D$可见线$普通线
100
AcDbVertex
100
AcDb2dVertex
 10
168.0561885835317
 20
951.2283291284806
 30
0.0
  0
VERTEX
  5
509
330
4F6
100
AcDbEntity
  8
Make2D$可见线$普通线
100
AcDbVertex
100
AcDb2dVertex
 10
168.0560162381117
 20
951.2280764702683
 30
0.0
  0
VERTEX
  5
50A
330
4F6
100
AcDbEntity
  8
Make2D$可见线$普通线
100
AcDbVertex
100
AcDb2dVertex
 10
168.0558341775359
 20
951.2278238315749
 30
0.0
  0
VERTEX
  5
50B
330
4F6
100
AcDbEntity
  8
Make2D$可见线$普通线
100
AcDbVertex
100
AcDb2dVertex
 10
168.0556424026656
 20
951.227571212288
 30
0.0
  0
VERTEX
  5
50C
330
4F6
100
AcDbEntity
  8
Make2D$可见线$普通线
100
AcDbVertex
100
AcDb2dVertex
 10
168.0554409143619
 20
951.2273186122954
 30
0.0
  0
VERTEX
  5
50D
330
4F6
100
AcDbEntity
  8
Make2D$可见线$普通线
100
AcDbVertex
100
AcDb2dVertex
 10
168.0552297134863
 20
951.2270660314848
 30
0.0
  0
VERTEX
  5
50E
330
4F6
100
AcDbEntity
  8
Make2D$可见线$普通线
100
AcDbVertex
100
AcDb2dVertex
 10
168.0550088009001
 20
951.2268134697437
 30
0.0
  0
VERTEX
  5
50F
330
4F6
100
AcDbEntity
  8
Make2D$可见线$普通线
100
AcDbVertex
100
AcDb2dVertex
 10
168.0547781774646
 20
951.2265609269599
 30
0.0
  0
VERTEX
  5
510
330
4F6
100
AcDbEntity
  8
Make2D$可见线$普通线
100
AcDbVertex
100
AcDb2dVertex
 10
168.0545378440412
 20
951.2263084030212
 30
0.0
  0
VERTEX
  5
511
330
4F6
100
AcDbEntity
  8
Make2D$可见线$普通线
100
AcDbVertex
100
AcDb2dVertex
 10
168.0542878014912
 20
951.2260558978153
 30
0.0
  0
VERTEX
  5
512
330
4F6
100
AcDbEntity
  8
Make2D$可见线$普通线
100
AcDbVertex
100
AcDb2dVertex
 10
168.0540280506758
 20
951.2258034112299
 30
0.0
  0
VERTEX
  5
513
330
4F6
100
AcDbEntity
  8
Make2D$可见线$普通线
100
AcDbVertex
100
AcDb2dVertex
 10
168.0537585924563
 20
951.2255509431526
 30
0.0
  0
VERTEX
  5
514
330
4F6
100
AcDbEntity
  8
Make2D$可见线$普通线
100
AcDbVertex
100
AcDb2dVertex
 10
168.0534794276943
 20
951.2252984934712
 30
0.0
  0
VERTEX
  5
515
330
4F6
100
AcDbEntity
  8
Make2D$可见线$普通线
100
AcDbVertex
100
AcDb2dVertex
 10
168.0528919819874
 20
951.2247936488467
 30
0.0
  0
VERTEX
  5
516
330
4F6
100
AcDbEntity
  8
Make2D$可见线$普通线
100
AcDbVertex
100
AcDb2dVertex
 10
168.0522657204457
 20
951.2242888764581
 30
0.0
  0
VERTEX
  5
517
330
4F6
100
AcDbEntity
  8
Make2D$可见线$普通线
100
AcDbVertex
100
AcDb2dVertex
 10
168.0516006499597
 20
951.2237841754071
 30
0.0
  0
VERTEX
  5
518
330
4F6
100
AcDbEntity
  8
Make2D$可见线$普通线
100
AcDbVertex
100
AcDb2dVertex
 10
168.0508967774201
 20
951.2232795447953
 30
0.0
  0
VERTEX
  5
519
330
4F6
100
AcDbEntity
  8
Make2D$可见线$普通线
100
AcDbVertex
100
AcDb2dVertex
 10
168.0501541097174
 20
951.2227749837243
 30
0.0
  0
VERTEX
  5
51A
330
4F6
100
AcDbEntity
  8
Make2D$可见线$普通线
100
AcDbVertex
100
AcDb2dVertex
 10
168.0493726537422
 20
951.2222704912956
 30
0.0
  0
VERTEX
  5
51B
330
4F6
100
AcDbEntity
  8
Make2D$可见线$普通线
100
AcDbVertex
100
AcDb2dVertex
 10
168.048552416385
 20
951.2217660666112
 30
0.0
  0
VERTEX
  5
51C
330
4F6
100
AcDbEntity
  8
Make2D$可见线$普通线
100
AcDbVertex
100
AcDb2dVertex
 10
168.0476934045365
 20
951.2212617087724
 30
0.0
  0
VERTEX
  5
51D
330
4F6
100
AcDbEntity
  8
Make2D$可见线$普通线
100
AcDbVertex
100
AcDb2dVertex
 10
168.0467956250872
 20
951.2207574168809
 30
0.0
  0
VERTEX
  5
51E
330
4F6
100
AcDbEntity
  8
Make2D$可见线$普通线
100
AcDbVertex
100
AcDb2dVertex
 10
168.0458590849278
 20
951.2202531900385
 30
0.0
  0
VERTEX
  5
51F
330
4F6
100
AcDbEntity
  8
Make2D$可见线$普通线
100
AcDbVertex
100
AcDb2dVertex
 10
168.0438697500406
 20
951.2192449279071
 30
0.0
  0
VERTEX
  5
520
330
4F6
100
AcDbEntity
  8
Make2D$可见线$普通线
100
AcDbVertex
100
AcDb2dVertex
 10
168.0417254549997
 20
951.2182369151913
 30
0.0
  0
VERTEX
  5
521
330
4F6
100
AcDbEntity
  8
Make2D$可见线$普通线
100
AcDbVertex
100
AcDb2dVertex
 10
168.0394262549295
 20
951.217229144704
 30
0.0
  0
VERTEX
  5
522
330
4F6
100
AcDbEntity
  8
Make2D$可见线$普通线
100
AcDbVertex
100
AcDb2dVertex
 10
168.0369722049549
 20
951.2162216092585
 30
0.0
  0
VERTEX
  5
523
330
4F6
100
AcDbEntity
  8
Make2D$可见线$普通线
100
AcDbVertex
100
AcDb2dVertex
 10
168.0343633602004
 20
951.2152143016676
 30
0.0
  0
VERTEX
  5
524
330
4F6
100
AcDbEntity
  8
Make2D$可见线$普通线
100
AcDbVertex
100
AcDb2dVertex
 10
168.0315997757907
 20
951.2142072147446
 30
0.0
  0
VERTEX
  5
525
330
4F6
100
AcDbEntity
  8
Make2D$可见线$普通线
100
AcDbVertex
100
AcDb2dVertex
 10
168.0256086085041
 20
951.2121936741542
 30
0.0
  0
VERTEX
  5
526
330
4F6
100
AcDbEntity
  8
Make2D$可见线$普通线
100
AcDbVertex
100
AcDb2dVertex
 10
168.0189991440923
 20
951.2101809299918
 30
0.0
  0
VERTEX
  5
527
330
4F6
100
AcDbEntity
  8
Make2D$可见线$普通线
100
AcDbVertex
100
AcDb2dVertex
 10
168.0117718235524
 20
951.208168924762
 30
0.0
  0
VERTEX
  5
528
330
4F6
100
AcDbEntity
  8
Make2D$可见线$普通线
100
AcDbVertex
100
AcDb2dVertex
 10
168.0039270878814
 20
951.2061576009694
 30
0.0
  0
VERTEX
  5
529
330
4F6
100
AcDbEntity
  8
Make2D$可见线$普通线
100
AcDbVertex
100
AcDb2dVertex
 10
167.9954653780766
 20
951.2041469011185
 30
0.0
  0
VERTEX
  5
52A
330
4F6
100
AcDbEntity
  8
Make2D$可见线$普通线
100
AcDbVertex
100
AcDb2dVertex
 10
167.9766928000539
 20
951.2001271432603
 30
0.0
  0
VERTEX
  5
52B
330
4F6
100
AcDbEntity
  8
Make2D$可见线$普通线
100
AcDbVertex
100
AcDb2dVertex
 10
167.9554576174613
 20
951.1961091912235
 30
0.0
  0
VERTEX
  5
52C
330
4F6
100
AcDbEntity
  8
Make2D$可见线$普通线
100
AcDbVertex
100
AcDb2dVertex
 10
167.9317633582757
 20
951.192092585045
 30
0.0
  0
VERTEX
  5
52D
330
4F6
100
AcDbEntity
  8
Make2D$可见线$普通线
100
AcDbVertex
100
AcDb2dVertex
 10
167.8770117220336
 20
951.1840615704076
 30
0.0
  0
VERTEX
  5
52E
330
4F6
100
AcDbEntity
  8
Make2D$可见线$普通线
100
AcDbVertex
100
AcDb2dVertex
 10
167.7381547614214
 20
951.1679954530334
 30
0.0
  0
VERTEX
  5
52F
330
4F6
100
AcDbEntity
  8
Make2D$可见线$普通线
100
AcDbVertex
100
AcDb2dVertex
 10
167.272038204281
 20
951.1306895160102
 30
0.0
  0
VERTEX
  5
530
330
4F6
100
AcDbEntity
  8
Make2D$可见线$普通线
100
AcDbVertex
100
AcDb2dVertex
 10
166.8052058574109
 20
951.1037834257445
 30
0.0
  0
VERTEX
  5
531
330
4F6
100
AcDbEntity
  8
Make2D$可见线$普通线
100
AcDbVertex
100
AcDb2dVertex
 10
164.9653701903717
 20
951.0270158798912
 30
0.0
  0
VERTEX
  5
532
330
4F6
100
AcDbEntity
  8
Make2D$可见线$普通线
100
AcDbVertex
100
AcDb2dVertex
 10
161.0450619856531
 20
950.9111152311654
 30
0.0
  0
VERTEX
  5
533
330
4F6
100
AcDbEntity
  8
Make2D$可见线$普通线
100
AcDbVertex
100
AcDb2dVertex
 10
157.5
 20
950.8214972525291
 30
0.0
  0
VERTEX
  5
534
330
4F6
100
AcDbEntity
  8
Make2D$可见线$普通线
100
AcDbVertex
100
AcDb2dVertex
 10
151.6330739036687
 20
950.6673379135531
 30
0.0
  0
VERTEX
  5
535
330
4F6
100
AcDbEntity
  8
Make2D$可见线$普通线
100
AcDbVertex
100
AcDb2dVertex
 10
146.9492697776369
 20
950.6650387305542
 30
0.0
  0
VERTEX
  5
536
330
4F6
100
AcDbEntity
  8
Make2D$可见线$普通线
100
AcDbVertex
100
AcDb2dVertex
 10
147.2563146549304
 20
950.3533954872632
 30
0.0
  0
SEQEND
  5
537
330
4F6
100
AcDbEntity
  8
Make2D$可见线$普通线
  0
ENDSEC
  0
SECTION
  2
OBJECTS
  0
DICTIONARY
  5
C
330
0
100
AcDbDictionary
281
     1
  3
ACAD_GROUP
350
D
  3
ACAD_LAYOUT
350
1A
  3
ACAD_MATERIAL
350
3B
  3
ACAD_MLEADERSTYLE
350
562
  3
ACAD_MLINESTYLE
350
17
  3
ACAD_PLOTSETTINGS
350
19
  3
ACAD_PLOTSTYLENAME
350
E
  3
ACAD_SCALELIST
350
3F
  3
ACAD_TABLESTYLE
350
561
  3
ACAD_VISUALSTYLE
350
2A
  3
AcDbVariableDictionary
350
538
  0
DICTIONARY
  5
D
102
{ACAD_REACTORS
330
C
102
}
330
C
100
AcDbDictionary
281
     1
  0
DICTIONARY
  5
1A
102
{ACAD_REACTORS
330
C
102
}
330
C
100
AcDbDictionary
281
     1
  3
Layout1
350
1E
  3
Layout2
350
26
  3
Model
350
22
  0
DICTIONARY
  5
3B
102
{ACAD_REACTORS
330
C
102
}
330
C
100
AcDbDictionary
281
     1
  3
ByBlock
350
3D
  3
ByLayer
350
3C
  3
Global
350
3E
  0
DICTIONARY
  5
562
102
{ACAD_REACTORS
330
C
102
}
330
C
100
AcDbDictionary
281
     1
  0
DICTIONARY
  5
17
102
{ACAD_REACTORS
330
C
102
}
330
C
100
AcDbDictionary
281
     1
  3
Standard
350
18
  0
DICTIONARY
  5
19
102
{ACAD_REACTORS
330
C
102
}
330
C
100
AcDbDictionary
281
     1
  0
ACDBDICTIONARYWDFLT
  5
E
102
{ACAD_REACTORS
330
C
102
}
330
C
100
AcDbDictionary
281
     1
  3
Normal
350
F
100
AcDbDictionaryWithDefault
340
F
  0
DICTIONARY
  5
3F
102
{ACAD_REACTORS
330
C
102
}
330
C
100
AcDbDictionary
281
     1
  3
A0
350
40
  3
A1
350
41
  3
A2
350
42
  3
A3
350
43
  3
A4
350
44
  3
A5
350
45
  3
A6
350
46
  3
A7
350
47
  3
A8
350
48
  3
A9
350
49
  3
B0
350
4A
  3
B1
350
4B
  3
B2
350
4C
  3
B3
350
4D
  3
B4
350
4E
  3
B5
350
4F
  3
B6
350
50
  3
B7
350
51
  3
B8
350
52
  3
B9
350
53
  3
C0
350
54
  3
C1
350
55
  3
C2
350
56
  3
C3
350
57
  3
C4
350
58
  3
C5
350
59
  3
C6
350
5A
  3
C7
350
5B
  3
C8
350
5C
  3
C9
350
5D
  3
D0
350
5E
  3
D1
350
5F
  3
D2
350
60
  0
DICTIONARY
  5
561
102
{ACAD_REACTORS
330
C
102
}
330
C
100
AcDbDictionary
281
     1
  0
DICTIONARY
  5
2A
102
{ACAD_REACTORS
330
C
102
}
330
C
100
AcDbDictionary
281
     1
  3
2dWireframe
350
2F
  3
3D Hidden
350
31
  3
3dWireframe
350
30
  3
Basic
350
32
  3
Brighten
350
36
  3
ColorChange
350
3A
  3
Conceptual
350
34
  3
Dim
350
35
  3
Facepattern
350
39
  3
Flat
350
2B
  3
FlatWithEdges
350
2C
  3
Gouraud
350
2D
  3
GouraudWithEdges
350
2E
  3
Linepattern
350
38
  3
Realistic
350
33
  3
Thicken
350
37
  0
DICTIONARY
  5
538
102
{ACAD_REACTORS
330
C
102
}
330
C
100
AcDbDictionary
281
     1
  3
CANNOSCALE
350
539
  3
MSLTSCALE
350
53A
  0
LAYOUT
  5
1E
102
{ACAD_REACTORS
330
1A
102
}
330
1A
100
AcDbPlotSettings
  1

  2
none_device
  4

  6

 40
0.0
 41
0.0
 42
0.0
 43
0.0
 44
0.0
 45
0.0
 46
0.0
 47
0.0
 48
0.0
 49
0.0
140
0.0
141
0.0
142
1.0
143
1.0
 70
   688
 72
     0
 73
     0
 74
     5
  7

 75
    16
 76
     0
 77
     2
 78
   300
147
1.0
148
0.0
149
0.0
100
AcDbLayout
  1
Layout1
 70
     1
 71
     1
 10
0.0
 20
0.0
 11
12.0
 21
9.0
 12
0.0
 22
0.0
 32
0.0
 14
1.000000000000000E+20
 24
1.000000000000000E+20
 34
1.000000000000000E+20
 15
-1.000000000000000E+20
 25
-1.000000000000000E+20
 35
-1.000000000000000E+20
146
0.0
 13
0.0
 23
0.0
 33
0.0
 16
1.0
 26
0.0
 36
0.0
 17
0.0
 27
1.0
 37
0.0
 76
     0
330
1B
  0
LAYOUT
  5
26
102
{ACAD_REACTORS
330
1A
102
}
330
1A
100
AcDbPlotSettings
  1

  2
none_device
  4

  6

 40
0.0
 41
0.0
 42
0.0
 43
0.0
 44
0.0
 45
0.0
 46
0.0
 47
0.0
 48
0.0
 49
0.0
140
0.0
141
0.0
142
1.0
143
1.0
 70
   688
 72
     0
 73
     0
 74
     5
  7

 75
    16
 76
     0
 77
     2
 78
   300
147
1.0
148
0.0
149
0.0
100
AcDbLayout
  1
Layout2
 70
     1
 71
     2
 10
0.0
 20
0.0
 11
0.0
 21
0.0
 12
0.0
 22
0.0
 32
0.0
 14
0.0
 24
0.0
 34
0.0
 15
0.0
 25
0.0
 35
0.0
146
0.0
 13
0.0
 23
0.0
 33
0.0
 16
1.0
 26
0.0
 36
0.0
 17
0.0
 27
1.0
 37
0.0
 76
     0
330
23
  0
LAYOUT
  5
22
102
{ACAD_REACTORS
330
1A
102
}
330
1A
100
AcDbPlotSettings
  1

  2
none_device
  4
Letter_(8.50_x_11.00_Inches)
  6

 40
6.35
 41
6.35
 42
6.35000508
 43
6.35000508
 44
215.9
 45
279.4
 46
0.0
 47
0.0
 48
0.0
 49
0.0
140
0.0
141
0.0
142
1.0
143
1.0
 70
  1712
 72
     0
 73
     0
 74
     0
  7

 75
     0
 76
     0
 77
     2
 78
   300
147
1.0
148
0.0
149
0.0
100
AcDbLayout
  1
Model
 70
     1
 71
     0
 10
0.0
 20
0.0
 11
12.0
 21
9.0
 12
0.0
 22
0.0
 32
0.0
 14
-0.0000000021431003
 24
949.6807064562169
 34
0.0
 15
315.0000000021431
 25
1025.032577058933
 35
0.0
146
0.0
 13
0.0
 23
0.0
 33
0.0
 16
1.0
 26
0.0
 36
0.0
 17
0.0
 27
1.0
 37
0.0
 76
     0
330
1F
331
29
  0
MATERIAL
  5
3D
102
{ACAD_REACTORS
330
3B
102
}
102
{ACAD_XDICTIONARY
360
55D
102
}
330
3B
100
AcDbMaterial
  1
ByBlock
  0
MATERIAL
  5
3C
102
{ACAD_REACTORS
330
3B
102
}
102
{ACAD_XDICTIONARY
360
55B
102
}
330
3B
100
AcDbMaterial
  1
ByLayer
  0
MATERIAL
  5
3E
102
{ACAD_REACTORS
330
3B
102
}
102
{ACAD_XDICTIONARY
360
55F
102
}
330
3B
100
AcDbMaterial
  1
Global
  0
MLINESTYLE
  5
18
102
{ACAD_REACTORS
330
17
102
}
330
17
100
AcDbMlineStyle
  2
Standard
 70
     0
  3

 62
   256
 51
90.0
 52
90.0
 71
     2
 49
0.5
 62
   256
  6
BYLAYER
 49
-0.5
 62
   256
  6
BYLAYER
  0
ACDBPLACEHOLDER
  5
F
102
{ACAD_REACTORS
330
E
102
}
330
E
  0
SCALE
  5
40
102
{ACAD_REACTORS
330
3F
102
}
330
3F
100
AcDbScale
 70
     0
300
1:1
140
1.0
141
1.0
290
     1
  0
SCALE
  5
41
102
{ACAD_REACTORS
330
3F
102
}
330
3F
100
AcDbScale
 70
     0
300
1:2
140
1.0
141
2.0
290
     0
  0
SCALE
  5
42
102
{ACAD_REACTORS
330
3F
102
}
330
3F
100
AcDbScale
 70
     0
300
1:4
140
1.0
141
4.0
290
     0
  0
SCALE
  5
43
102
{ACAD_REACTORS
330
3F
102
}
330
3F
100
AcDbScale
 70
     0
300
1:5
140
1.0
141
5.0
290
     0
  0
SCALE
  5
44
102
{ACAD_REACTORS
330
3F
102
}
330
3F
100
AcDbScale
 70
     0
300
1:8
140
1.0
141
8.0
290
     0
  0
SCALE
  5
45
102
{ACAD_REACTORS
330
3F
102
}
330
3F
100
AcDbScale
 70
     0
300
1:10
140
1.0
141
10.0
290
     0
  0
SCALE
  5
46
102
{ACAD_REACTORS
330
3F
102
}
330
3F
100
AcDbScale
 70
     0
300
1:16
140
1.0
141
16.0
290
     0
  0
SCALE
  5
47
102
{ACAD_REACTORS
330
3F
102
}
330
3F
100
AcDbScale
 70
     0
300
1:20
140
1.0
141
20.0
290
     0
  0
SCALE
  5
48
102
{ACAD_REACTORS
330
3F
102
}
330
3F
100
AcDbScale
 70
     0
300
1:30
140
1.0
141
30.0
290
     0
  0
SCALE
  5
49
102
{ACAD_REACTORS
330
3F
102
}
330
3F
100
AcDbScale
 70
     0
300
1:40
140
1.0
141
40.0
290
     0
  0
SCALE
  5
4A
102
{ACAD_REACTORS
330
3F
102
}
330
3F
100
AcDbScale
 70
     0
300
1:50
140
1.0
141
50.0
290
     0
  0
SCALE
  5
4B
102
{ACAD_REACTORS
330
3F
102
}
330
3F
100
AcDbScale
 70
     0
300
1:100
140
1.0
141
100.0
290
     0
  0
SCALE
  5
4C
102
{ACAD_REACTORS
330
3F
102
}
330
3F
100
AcDbScale
 70
     0
300
2:1
140
2.0
141
1.0
290
     0
  0
SCALE
  5
4D
102
{ACAD_REACTORS
330
3F
102
}
330
3F
100
AcDbScale
 70
     0
300
4:1
140
4.0
141
1.0
290
     0
  0
SCALE
  5
4E
102
{ACAD_REACTORS
330
3F
102
}
330
3F
100
AcDbScale
 70
     0
300
8:1
140
8.0
141
1.0
290
     0
  0
SCALE
  5
4F
102
{ACAD_REACTORS
330
3F
102
}
330
3F
100
AcDbScale
 70
     0
300
10:1
140
10.0
141
1.0
290
     0
  0
SCALE
  5
50
102
{ACAD_REACTORS
330
3F
102
}
330
3F
100
AcDbScale
 70
     0
300
100:1
140
100.0
141
1.0
290
     0
  0
SCALE
  5
51
102
{ACAD_REACTORS
330
3F
102
}
330
3F
100
AcDbScale
 70
     0
300
1/128" = 1'-0"
140
0.0078125
141
12.0
290
     0
  0
SCALE
  5
52
102
{ACAD_REACTORS
330
3F
102
}
330
3F
100
AcDbScale
 70
     0
300
1/64" = 1'-0"
140
0.015625
141
12.0
290
     0
  0
SCALE
  5
53
102
{ACAD_REACTORS
330
3F
102
}
330
3F
100
AcDbScale
 70
     0
300
1/32" = 1'-0"
140
0.03125
141
12.0
290
     0
  0
SCALE
  5
54
102
{ACAD_REACTORS
330
3F
102
}
330
3F
100
AcDbScale
 70
     0
300
1/16" = 1'-0"
140
0.0625
141
12.0
290
     0
  0
SCALE
  5
55
102
{ACAD_REACTORS
330
3F
102
}
330
3F
100
AcDbScale
 70
     0
300
3/32" = 1'-0"
140
0.09375
141
12.0
290
     0
  0
SCALE
  5
56
102
{ACAD_REACTORS
330
3F
102
}
330
3F
100
AcDbScale
 70
     0
300
1/8" = 1'-0"
140
0.125
141
12.0
290
     0
  0
SCALE
  5
57
102
{ACAD_REACTORS
330
3F
102
}
330
3F
100
AcDbScale
 70
     0
300
3/16" = 1'-0"
140
0.1875
141
12.0
290
     0
  0
SCALE
  5
58
102
{ACAD_REACTORS
330
3F
102
}
330
3F
100
AcDbScale
 70
     0
300
1/4" = 1'-0"
140
0.25
141
12.0
290
     0
  0
SCALE
  5
59
102
{ACAD_REACTORS
330
3F
102
}
330
3F
100
AcDbScale
 70
     0
300
3/8" = 1'-0"
140
0.375
141
12.0
290
     0
  0
SCALE
  5
5A
102
{ACAD_REACTORS
330
3F
102
}
330
3F
100
AcDbScale
 70
     0
300
1/2" = 1'-0"
140
0.5
141
12.0
290
     0
  0
SCALE
  5
5B
102
{ACAD_REACTORS
330
3F
102
}
330
3F
100
AcDbScale
 70
     0
300
3/4" = 1'-0"
140
0.75
141
12.0
290
     0
  0
SCALE
  5
5C
102
{ACAD_REACTORS
330
3F
102
}
330
3F
100
AcDbScale
 70
     0
300
1" = 1'-0"
140
1.0
141
12.0
290
     0
  0
SCALE
  5
5D
102
{ACAD_REACTORS
330
3F
102
}
330
3F
100
AcDbScale
 70
     0
300
1-1/2" = 1'-0"
140
1.5
141
12.0
290
     0
  0
SCALE
  5
5E
102
{ACAD_REACTORS
330
3F
102
}
330
3F
100
AcDbScale
 70
     0
300
3" = 1'-0"
140
3.0
141
12.0
290
     0
  0
SCALE
  5
5F
102
{ACAD_REACTORS
330
3F
102
}
330
3F
100
AcDbScale
 70
     0
300
6" = 1'-0"
140
6.0
141
12.0
290
     0
  0
SCALE
  5
60
102
{ACAD_REACTORS
330
3F
102
}
330
3F
100
AcDbScale
 70
     0
300
1'-0" = 1'-0"
140
12.0
141
12.0
290
     0
  0
VISUALSTYLE
  5
2F
102
{ACAD_REACTORS
330
2A
102
}
102
{ACAD_XDICTIONARY
360
543
102
}
330
2A
100
AcDbVisualStyle
  2
2dWireframe
 70
     4
 71
     0
 72
     2
 73
     0
 90
        0
 40
0.6
 41
30.0
 62
     5
 63
     7
421
 16777215
 74
     1
 91
        4
 64
     7
 65
   257
 75
     1
175
     1
 42
1.0
 92
        0
 66
   257
 43
1.0
 76
     1
 77
     6
 78
     2
 67
     7
 79
     5
170
     0
171
     0
290
     0
174
     0
 93
        1
 44
0.0
173
     0
291
     0
 45
0.0
1001
ACAD
1000
AcDbSavedByObjectVersion
1070
     0
  0
VISUALSTYLE
  5
31
102
{ACAD_REACTORS
330
2A
102
}
102
{ACAD_XDICTIONARY
360
547
102
}
330
2A
100
AcDbVisualStyle
  2
3D Hidden
 70
     6
 71
     1
 72
     2
 73
     2
 90
        0
 40
0.6
 41
30.0
 62
     5
 63
     7
421
 16777215
 74
     2
 91
        2
 64
     7
 65
   257
 75
     2
175
     1
 42
40.0
 92
        0
 66
   257
 43
1.0
 76
     1
 77
     6
 78
     2
 67
     7
 79
     3
170
     0
171
     0
290
     0
174
     0
 93
        1
 44
0.0
173
     0
291
     0
 45
0.0
1001
ACAD
1000
AcDbSavedByObjectVersion
1070
     0
  0
VISUALSTYLE
  5
30
102
{ACAD_REACTORS
330
2A
102
}
102
{ACAD_XDICTIONARY
360
545
102
}
330
2A
100
AcDbVisualStyle
  2
3dWireframe
 70
     5
 71
     0
 72
     2
 73
     0
 90
        0
 40
0.6
 41
30.0
 62
     5
 63
     7
421
 16777215
 74
     1
 91
        4
 64
     7
 65
   257
 75
     1
175
     1
 42
1.0
 92
        0
 66
   257
 43
1.0
 76
     1
 77
     6
 78
     2
 67
     7
 79
     5
170
     0
171
     0
290
     0
174
     0
 93
        1
 44
0.0
173
     0
291
     0
 45
0.0
1001
ACAD
1000
AcDbSavedByObjectVersion
1070
     0
  0
VISUALSTYLE
  5
32
102
{ACAD_REACTORS
330
2A
102
}
102
{ACAD_XDICTIONARY
360
549
102
}
330
2A
100
AcDbVisualStyle
  2
Basic
 70
     7
 71
     1
 72
     0
 73
     1
 90
        0
 40
0.6
 41
30.0
 62
     5
 63
     7
421
 16777215
 74
     0
 91
        4
 64
     7
 65
   257
 75
     1
175
     1
 42
1.0
 92
        8
 66
     7
 43
1.0
 76
     1
 77
     6
 78
     2
 67
     7
 79
     5
170
     0
171
     0
290
     0
174
     0
 93
        1
 44
0.0
173
     0
291
     1
 45
0.0
1001
ACAD
1000
AcDbSavedByObjectVersion
1070
     0
  0
VISUALSTYLE
  5
36
102
{ACAD_REACTORS
330
2A
102
}
102
{ACAD_XDICTIONARY
360
551
102
}
330
2A
100
AcDbVisualStyle
  2
Brighten
 70
    12
 71
     2
 72
     2
 73
     0
 90
        0
 40
0.6
 41
30.0
 62
     5
 63
     7
421
 16777215
 74
     1
 91
        4
 64
     7
 65
   257
 75
     1
175
     1
 42
1.0
 92
        8
 66
     7
 43
1.0
 76
     1
 77
     6
 78
     2
 67
     7
 79
     5
170
     0
171
     0
290
     0
174
     0
 93
        1
 44
50.0
173
     0
291
     1
 45
0.0
1001
ACAD
1000
AcDbSavedByObjectVersion
1070
     0
  0
VISUALSTYLE
  5
3A
102
{ACAD_REACTORS
330
2A
102
}
102
{ACAD_XDICTIONARY
360
559
102
}
330
2A
100
AcDbVisualStyle
  2
ColorChange
 70
    16
 71
     2
 72
     2
 73
     3
 90
        0
 40
0.6
 41
30.0
 62
     5
 63
     8
421
  8421504
 74
     1
 91
        4
 64
     7
 65
   257
 75
     1
175
     1
 42
1.0
 92
        8
 66
     8
424
  8421504
 43
1.0
 76
     1
 77
     6
 78
     2
 67
     7
 79
     5
170
     0
171
     0
290
     0
174
     0
 93
        1
 44
0.0
173
     0
291
     1
 45
0.0
1001
ACAD
1000
AcDbSavedByObjectVersion
1070
     0
  0
VISUALSTYLE
  5
34
102
{ACAD_REACTORS
330
2A
102
}
102
{ACAD_XDICTIONARY
360
54D
102
}
330
2A
100
AcDbVisualStyle
  2
Conceptual
 70
     9
 71
     3
 72
     2
 73
     0
 90
        0
 40
0.6
 41
30.0
 62
     5
 63
     7
421
 16777215
 74
     2
 91
        2
 64
     7
 65
   257
 75
     1
175
     1
 42
40.0
 92
        8
 66
     7
 43
1.0
 76
     1
 77
     6
 78
     2
 67
     7
 79
     3
170
     0
171
     0
290
     0
174
     0
 93
        1
 44
0.0
173
     0
291
     0
 45
0.0
1001
ACAD
1000
AcDbSavedByObjectVersion
1070
     0
  0
VISUALSTYLE
  5
35
102
{ACAD_REACTORS
330
2A
102
}
102
{ACAD_XDICTIONARY
360
54F
102
}
330
2A
100
AcDbVisualStyle
  2
Dim
 70
    11
 71
     2
 72
     2
 73
     0
 90
        0
 40
0.6
 41
30.0
 62
     5
 63
     7
421
 16777215
 74
     1
 91
        4
 64
     7
 65
   257
 75
     1
175
     1
 42
1.0
 92
        8
 66
     7
 43
1.0
 76
     1
 77
     6
 78
     2
 67
     7
 79
     5
170
     0
171
     0
290
     0
174
     0
 93
        1
 44
-50.0
173
     0
291
     1
 45
0.0
1001
ACAD
1000
AcDbSavedByObjectVersion
1070
     0
  0
VISUALSTYLE
  5
39
102
{ACAD_REACTORS
330
2A
102
}
102
{ACAD_XDICTIONARY
360
557
102
}
330
2A
100
AcDbVisualStyle
  2
Facepattern
 70
    15
 71
     2
 72
     2
 73
     0
 90
        0
 40
0.6
 41
30.0
 62
     5
 63
     7
421
 16777215
 74
     1
 91
        4
 64
     7
 65
   257
 75
     1
175
     1
 42
1.0
 92
        8
 66
     7
 43
1.0
 76
     1
 77
     6
 78
     2
 67
     7
 79
     5
170
     0
171
     0
290
     0
174
     0
 93
        1
 44
0.0
173
     0
291
     1
 45
0.0
1001
ACAD
1000
AcDbSavedByObjectVersion
1070
     0
  0
VISUALSTYLE
  5
2B
102
{ACAD_REACTORS
330
2A
102
}
102
{ACAD_XDICTIONARY
360
53B
102
}
330
2A
100
AcDbVisualStyle
  2
Flat
 70
     0
 71
     2
 72
     1
 73
     1
 90
        2
 40
0.6
 41
30.0
 62
     5
 63
     7
421
 16777215
 74
     0
 91
        4
 64
     7
 65
   257
 75
     1
175
     1
 42
1.0
 92
        8
 66
     7
 43
1.0
 76
     1
 77
     6
 78
     2
 67
     7
 79
     5
170
     0
171
     0
290
     0
174
     0
 93
       13
 44
0.0
173
     0
291
     1
 45
0.0
1001
ACAD
1000
AcDbSavedByObjectVersion
1070
     0
  0
VISUALSTYLE
  5
2C
102
{ACAD_REACTORS
330
2A
102
}
102
{ACAD_XDICTIONARY
360
53D
102
}
330
2A
100
AcDbVisualStyle
  2
FlatWithEdges
 70
     1
 71
     2
 72
     1
 73
     1
 90
        2
 40
0.6
 41
30.0
 62
     5
 63
     7
421
 16777215
 74
     1
 91
        4
 64
     7
 65
   257
 75
     1
175
     1
 42
1.0
 92
        0
 66
   257
 43
1.0
 76
     1
 77
     6
 78
     2
 67
     7
 79
     5
170
     0
171
     0
290
     0
174
     0
 93
       13
 44
0.0
173
     0
291
     1
 45
0.0
1001
ACAD
1000
AcDbSavedByObjectVersion
1070
     0
  0
VISUALSTYLE
  5
2D
102
{ACAD_REACTORS
330
2A
102
}
102
{ACAD_XDICTIONARY
360
53F
102
}
330
2A
100
AcDbVisualStyle
  2
Gouraud
 70
     2
 71
     2
 72
     2
 73
     1
 90
        2
 40
0.6
 41
30.0
 62
     5
 63
     7
421
 16777215
 74
     0
 91
        4
 64
     7
 65
   257
 75
     1
175
     1
 42
1.0
 92
        0
 66
     7
 43
1.0
 76
     1
 77
     6
 78
     2
 67
     7
 79
     5
170
     0
171
     0
290
     0
174
     0
 93
       13
 44
0.0
173
     0
291
     1
 45
0.0
1001
ACAD
1000
AcDbSavedByObjectVersion
1070
     0
  0
VISUALSTYLE
  5
2E
102
{ACAD_REACTORS
330
2A
102
}
102
{ACAD_XDICTIONARY
360
541
102
}
330
2A
100
AcDbVisualStyle
  2
GouraudWithEdges
 70
     3
 71
     2
 72
     2
 73
     1
 90
        2
 40
0.6
 41
30.0
 62
     5
 63
     7
421
 16777215
 74
     1
 91
        4
 64
     7
 65
   257
 75
     1
175
     1
 42
1.0
 92
        0
 66
   257
 43
1.0
 76
     1
 77
     6
 78
     2
 67
     7
 79
     5
170
     0
171
     0
290
     0
174
     0
 93
       13
 44
0.0
173
     0
291
     1
 45
0.0
1001
ACAD
1000
AcDbSavedByObjectVersion
1070
     0
  0
VISUALSTYLE
  5
38
102
{ACAD_REACTORS
330
2A
102
}
102
{ACAD_XDICTIONARY
360
555
102
}
330
2A
100
AcDbVisualStyle
  2
Linepattern
 70
    14
 71
     2
 72
     2
 73
     0
 90
        0
 40
0.6
 41
30.0
 62
     5
 63
     7
421
 16777215
 74
     1
 91
        4
 64
     7
 65
   257
 75
     7
175
     7
 42
1.0
 92
        8
 66
     7
 43
1.0
 76
     1
 77
     6
 78
     2
 67
     7
 79
     5
170
     0
171
     0
290
     0
174
     0
 93
        1
 44
0.0
173
     0
291
     1
 45
0.0
1001
ACAD
1000
AcDbSavedByObjectVersion
1070
     0
  0
VISUALSTYLE
  5
33
102
{ACAD_REACTORS
330
2A
102
}
102
{ACAD_XDICTIONARY
360
54B
102
}
330
2A
100
AcDbVisualStyle
  2
Realistic
 70
     8
 71
     2
 72
     3
 73
     0
 90
        2
 40
0.6
 41
30.0
 62
     5
 63
     7
421
 16777215
 74
     0
 91
        0
 64
     7
 65
   257
 75
     1
175
     1
 42
1.0
 92
        8
 66
   257
 43
1.0
 76
     1
 77
     6
 78
     2
 67
     7
 79
     3
170
     0
171
     0
290
     0
174
     0
 93
       13
 44
0.0
173
     0
291
     0
 45
0.0
1001
ACAD
1000
AcDbSavedByObjectVersion
1070
     0
  0
VISUALSTYLE
  5
37
102
{ACAD_REACTORS
330
2A
102
}
102
{ACAD_XDICTIONARY
360
553
102
}
330
2A
100
AcDbVisualStyle
  2
Thicken
 70
    13
 71
     2
 72
     2
 73
     0
 90
        0
 40
0.6
 41
30.0
 62
     5
 63
     7
421
 16777215
 74
     1
 91
        4
 64
     7
 65
   257
 75
     1
175
     1
 42
1.0
 92
       12
 66
     7
 43
1.0
 76
     1
 77
     6
 78
     2
 67
     7
 79
     5
170
     0
171
     0
290
     0
174
     0
 93
        1
 44
0.0
173
     0
291
     1
 45
0.0
1001
ACAD
1000
AcDbSavedByObjectVersion
1070
     0
  0
DICTIONARYVAR
  5
539
102
{ACAD_REACTORS
330
538
102
}
330
538
100
DictionaryVariables
280
     0
  1
1:1
  0
DICTIONARYVAR
  5
53A
102
{ACAD_REACTORS
330
538
102
}
330
538
100
DictionaryVariables
280
     0
  1
1
  0
DICTIONARY
  5
55D
330
3D
100
AcDbDictionary
280
     1
281
     1
  3
ACAD_XREC_ROUNDTRIP
360
55E
  0
DICTIONARY
  5
55B
330
3C
100
AcDbDictionary
280
     1
281
     1
  3
ACAD_XREC_ROUNDTRIP
360
55C
  0
DICTIONARY
  5
55F
330
3E
100
AcDbDictionary
280
     1
281
     1
  3
ACAD_XREC_ROUNDTRIP
360
560
  0
DICTIONARY
  5
543
330
2F
100
AcDbDictionary
280
     1
281
     1
  3
ACAD_XREC_ROUNDTRIP
360
544
  0
DICTIONARY
  5
547
330
31
100
AcDbDictionary
280
     1
281
     1
  3
ACAD_XREC_ROUNDTRIP
360
548
  0
DICTIONARY
  5
545
330
30
100
AcDbDictionary
280
     1
281
     1
  3
ACAD_XREC_ROUNDTRIP
360
546
  0
DICTIONARY
  5
549
330
32
100
AcDbDictionary
280
     1
281
     1
  3
ACAD_XREC_ROUNDTRIP
360
54A
  0
DICTIONARY
  5
551
330
36
100
AcDbDictionary
280
     1
281
     1
  3
ACAD_XREC_ROUNDTRIP
360
552
  0
DICTIONARY
  5
559
330
3A
100
AcDbDictionary
280
     1
281
     1
  3
ACAD_XREC_ROUNDTRIP
360
55A
  0
DICTIONARY
  5
54D
330
34
100
AcDbDictionary
280
     1
281
     1
  3
ACAD_XREC_ROUNDTRIP
360
54E
  0
DICTIONARY
  5
54F
330
35
100
AcDbDictionary
280
     1
281
     1
  3
ACAD_XREC_ROUNDTRIP
360
550
  0
DICTIONARY
  5
557
330
39
100
AcDbDictionary
280
     1
281
     1
  3
ACAD_XREC_ROUNDTRIP
360
558
  0
DICTIONARY
  5
53B
330
2B
100
AcDbDictionary
280
     1
281
     1
  3
ACAD_XREC_ROUNDTRIP
360
53C
  0
DICTIONARY
  5
53D
330
2C
100
AcDbDictionary
280
     1
281
     1
  3
ACAD_XREC_ROUNDTRIP
360
53E
  0
DICTIONARY
  5
53F
330
2D
100
AcDbDictionary
280
     1
281
     1
  3
ACAD_XREC_ROUNDTRIP
360
540
  0
DICTIONARY
  5
541
330
2E
100
AcDbDictionary
280
     1
281
     1
  3
ACAD_XREC_ROUNDTRIP
360
542
  0
DICTIONARY
  5
555
330
38
100
AcDbDictionary
280
     1
281
     1
  3
ACAD_XREC_ROUNDTRIP
360
556
  0
DICTIONARY
  5
54B
330
33
100
AcDbDictionary
280
     1
281
     1
  3
ACAD_XREC_ROUNDTRIP
360
54C
  0
DICTIONARY
  5
553
330
37
100
AcDbDictionary
280
     1
281
     1
  3
ACAD_XREC_ROUNDTRIP
360
554
  0
XRECORD
  5
55E
102
{ACAD_REACTORS
330
55D
102
}
330
55D
100
AcDbXrecord
280
     1
102
MATERIAL
148
0.0
149
0.0
149
0.0
 93
        0
 94
      127
282
     0
 72
     1
 77
     1
171
     1
175
     1
179
     1
273
     0
  0
XRECORD
  5
55C
102
{ACAD_REACTORS
330
55B
102
}
330
55B
100
AcDbXrecord
280
     1
102
MATERIAL
148
0.0
149
0.0
149
0.0
 93
        0
 94
      127
282
     0
 72
     1
 77
     1
171
     1
175
     1
179
     1
273
     0
  0
XRECORD
  5
560
102
{ACAD_REACTORS
330
55F
102
}
330
55F
100
AcDbXrecord
280
     1
102
MATERIAL
148
0.0
149
0.0
149
0.0
 93
        0
 94
      127
282
     0
 72
     1
 77
     1
171
     1
175
     1
179
     1
273
     0
  0
XRECORD
  5
544
102
{ACAD_REACTORS
330
543
102
}
330
543
100
AcDbXrecord
280
     1
102
RTVSPropertyOp0
 70
     1
102
RTVSPropertyOp1
 70
     1
102
RTVSPropertyOp2
 70
     1
102
RTVSPropertyOp3
 70
     1
102
RTVSPropertyOp4
 70
     1
102
RTVSPropertyOp5
 70
     1
102
RTVSPropertyOp6
 70
     1
102
RTVSPropertyOp7
 70
     1
102
RTVSPropertyOp8
 70
     1
102
RTVSPropertyOp9
 70
     1
102
RTVSPropertyOp10
 70
     1
102
RTVSPropertyOp11
 70
     1
102
RTVSPropertyOp12
 70
     1
102
RTVSPropertyOp13
 70
     1
102
RTVSPropertyOp14
 70
     1
102
RTVSPropertyOp15
 70
     1
102
RTVSPropertyOp16
 70
     1
102
RTVSPropertyOp17
 70
     1
102
RTVSPropertyOp18
 70
     1
102
RTVSPropertyOp19
 70
     1
102
RTVSPropertyOp20
 70
     1
102
RTVSPropertyOp21
 70
     1
102
RTVSPropertyOp22
 70
     1
102
RTVSPropertyOp23
 70
     1
102
RTVSPropertyOp24
 70
     1
102
RTVSPropertyOp25
 70
     1
102
RTVSPropertyOp26
 70
     1
102
RTVSPropertyOp27
 70
     1
102
RTVSPropertyOp28
 70
     1
102
RTVSPropertyOp29
 70
     1
102
RTVSPropertyOp30
 70
     1
102
RTVSPropertyOp31
 70
     1
102
RTVSPropertyOp32
 70
     1
102
RTVSPropertyOp33
 70
     1
102
RTVSPropertyOp34
 70
     1
102
RTVSPropertyOp35
 70
     1
102
RTVSPropertyOp36
 70
     1
102
RTVSPropertyOp37
 70
     1
102
RTVSPropertyOp38
 70
     1
102
RTVSPropertyOp39
 70
     1
102
RTVSPropertyOp40
 70
     1
102
RTVSPropertyOp41
 70
     1
102
RTVSPropertyOp42
 70
     1
102
RTVSPropertyOp43
 70
     1
102
RTVSPropertyOp44
 70
     1
102
RTVSPropertyOp45
 70
     1
102
RTVSPropertyOp46
 70
     1
102
RTVSPropertyOp47
 70
     1
102
RTVSPropertyOp48
 70
     1
102
RTVSPropertyOp49
 70
     1
102
RTVSPropertyOp50
 70
     1
102
RTVSPropertyOp51
 70
     0
102
RTVSPropertyOp52
 70
     0
102
RTVSPropertyOp53
 70
     1
102
RTVSPropertyOp54
 70
     1
102
RTVSPropertyOp55
 70
     1
102
RTVSPropertyOp56
 70
     1
102
RTVSPropertyOp57
 70
     1
102
RTVSPost2010Prop28
280
     1
102
RTVSPost2010PropOp28
 70
     1
102
RTVSPost2010Prop29
280
     1
102
RTVSPost2010PropOp29
 70
     1
102
RTVSPost2010Prop30
280
     0
102
RTVSPost2010PropOp30
 70
     1
102
RTVSPost2010Prop31
280
     0
102
RTVSPost2010PropOp31
 70
     1
102
RTVSPost2010Prop32
280
     0
102
RTVSPost2010PropOp32
 70
     1
102
RTVSPost2010Prop33
280
     0
102
RTVSPost2010PropOp33
 70
     1
102
RTVSPost2010Prop34
280
     0
102
RTVSPost2010PropOp34
 70
     1
102
RTVSPost2010Prop35
280
     0
102
RTVSPost2010PropOp35
 70
     1
102
RTVSPost2010Prop36
280
     0
102
RTVSPost2010PropOp36
 70
     1
102
RTVSPost2010Prop37
 90
       50
102
RTVSPost2010PropOp37
 70
     1
102
RTVSPost2010Prop38
140
0.0
102
RTVSPost2010PropOp38
 70
     1
102
RTVSPost2010Prop39
140
1.0
102
RTVSPost2010PropOp39
 70
     1
102
RTVSPost2010Prop40
 90
        0
102
RTVSPost2010PropOp40
 70
     1
102
RTVSPost2010Prop41ColorIndex
 90
       18
102
RTVSPost2010Prop41ColorRGB
 90
        0
102
RTVSPost2010PropOp41
 70
     1
102
RTVSPost2010Prop42
 90
       50
102
RTVSPost2010PropOp42
 70
     1
102
RTVSPost2010Prop43
 90
        3
102
RTVSPost2010PropOp43
 70
     1
102
RTVSPost2010Prop44ColorIndex
 90
        5
102
RTVSPost2010Prop44ColorRGB
 90
      255
102
RTVSPost2010PropOp44
 70
     1
102
RTVSPost2010Prop45
280
     0
102
RTVSPost2010PropOp45
 70
     1
102
RTVSPost2010Prop46
 90
       50
102
RTVSPost2010PropOp46
 70
     1
102
RTVSPost2010Prop47
 90
       50
102
RTVSPost2010PropOp47
 70
     1
102
RTVSPost2010Prop48
 90
       50
102
RTVSPost2010PropOp48
 70
     1
102
RTVSPost2010Prop49
280
     0
102
RTVSPost2010PropOp49
 70
     1
102
RTVSPost2010Prop50
 90
       50
102
RTVSPost2010PropOp50
 70
     1
102
RTVSPost2010Prop51ColorIndex
 90
      256
102
RTVSPost2010Prop51ColorRGB
 90
-16777216
102
RTVSPost2010PropOp51
 70
     0
102
RTVSPost2010Prop52
140
1.0
102
RTVSPost2010PropOp52
 70
     0
102
RTVSPost2010Prop53
 90
        2
102
RTVSPost2010PropOp53
 70
     1
102
RTVSPost2010Prop54
  1
strokes_ogs.tif
102
RTVSPost2010PropOp54
 70
     1
102
RTVSPost2010Prop55
280
     0
102
RTVSPost2010PropOp55
 70
     1
102
RTVSPost2010Prop56
140
1.0
102
RTVSPost2010PropOp56
 70
     1
102
RTVSPost2010Prop57
140
1.0
102
RTVSPost2010PropOp57
 70
     1
  0
XRECORD
  5
548
102
{ACAD_REACTORS
330
547
102
}
330
547
100
AcDbXrecord
280
     1
102
RTVSPropertyOp0
 70
     1
102
RTVSPropertyOp1
 70
     1
102
RTVSPropertyOp2
 70
     1
102
RTVSPropertyOp3
 70
     1
102
RTVSPropertyOp4
 70
     1
102
RTVSPropertyOp5
 70
     1
102
RTVSPropertyOp6
 70
     1
102
RTVSPropertyOp7
 70
     1
102
RTVSPropertyOp8
 70
     1
102
RTVSPropertyOp9
 70
     1
102
RTVSPropertyOp10
 70
     1
102
RTVSPropertyOp11
 70
     1
102
RTVSPropertyOp12
 70
     1
102
RTVSPropertyOp13
 70
     1
102
RTVSPropertyOp14
 70
     1
102
RTVSPropertyOp15
 70
     1
102
RTVSPropertyOp16
 70
     1
102
RTVSPropertyOp17
 70
     1
102
RTVSPropertyOp18
 70
     1
102
RTVSPropertyOp19
 70
     1
102
RTVSPropertyOp20
 70
     1
102
RTVSPropertyOp21
 70
     1
102
RTVSPropertyOp22
 70
     1
102
RTVSPropertyOp23
 70
     1
102
RTVSPropertyOp24
 70
     1
102
RTVSPropertyOp25
 70
     1
102
RTVSPropertyOp26
 70
     1
102
RTVSPropertyOp27
 70
     1
102
RTVSPropertyOp28
 70
     1
102
RTVSPropertyOp29
 70
     1
102
RTVSPropertyOp30
 70
     1
102
RTVSPropertyOp31
 70
     1
102
RTVSPropertyOp32
 70
     1
102
RTVSPropertyOp33
 70
     1
102
RTVSPropertyOp34
 70
     1
102
RTVSPropertyOp35
 70
     1
102
RTVSPropertyOp36
 70
     1
102
RTVSPropertyOp37
 70
     1
102
RTVSPropertyOp38
 70
     1
102
RTVSPropertyOp39
 70
     1
102
RTVSPropertyOp40
 70
     1
102
RTVSPropertyOp41
 70
     1
102
RTVSPropertyOp42
 70
     1
102
RTVSPropertyOp43
 70
     1
102
RTVSPropertyOp44
 70
     1
102
RTVSPropertyOp45
 70
     1
102
RTVSPropertyOp46
 70
     1
102
RTVSPropertyOp47
 70
     1
102
RTVSPropertyOp48
 70
     1
102
RTVSPropertyOp49
 70
     1
102
RTVSPropertyOp50
 70
     1
102
RTVSPropertyOp51
 70
     0
102
RTVSPropertyOp52
 70
     0
102
RTVSPropertyOp53
 70
     1
102
RTVSPropertyOp54
 70
     1
102
RTVSPropertyOp55
 70
     1
102
RTVSPropertyOp56
 70
     1
102
RTVSPropertyOp57
 70
     1
102
RTVSPost2010Prop28
280
     0
102
RTVSPost2010PropOp28
 70
     1
102
RTVSPost2010Prop29
280
     1
102
RTVSPost2010PropOp29
 70
     1
102
RTVSPost2010Prop30
280
     1
102
RTVSPost2010PropOp30
 70
     1
102
RTVSPost2010Prop31
280
     0
102
RTVSPost2010PropOp31
 70
     1
102
RTVSPost2010Prop32
280
     0
102
RTVSPost2010PropOp32
 70
     1
102
RTVSPost2010Prop33
280
     0
102
RTVSPost2010PropOp33
 70
     1
102
RTVSPost2010Prop34
280
     0
102
RTVSPost2010PropOp34
 70
     1
102
RTVSPost2010Prop35
280
     0
102
RTVSPost2010PropOp35
 70
     1
102
RTVSPost2010Prop36
280
     0
102
RTVSPost2010PropOp36
 70
     1
102
RTVSPost2010Prop37
 90
       50
102
RTVSPost2010PropOp37
 70
     1
102
RTVSPost2010Prop38
140
0.0
102
RTVSPost2010PropOp38
 70
     1
102
RTVSPost2010Prop39
140
1.0
102
RTVSPost2010PropOp39
 70
     1
102
RTVSPost2010Prop40
 90
        0
102
RTVSPost2010PropOp40
 70
     1
102
RTVSPost2010Prop41ColorIndex
 90
       18
102
RTVSPost2010Prop41ColorRGB
 90
        0
102
RTVSPost2010PropOp41
 70
     1
102
RTVSPost2010Prop42
 90
       50
102
RTVSPost2010PropOp42
 70
     1
102
RTVSPost2010Prop43
 90
        3
102
RTVSPost2010PropOp43
 70
     1
102
RTVSPost2010Prop44ColorIndex
 90
        5
102
RTVSPost2010Prop44ColorRGB
 90
      255
102
RTVSPost2010PropOp44
 70
     1
102
RTVSPost2010Prop45
280
     0
102
RTVSPost2010PropOp45
 70
     1
102
RTVSPost2010Prop46
 90
       50
102
RTVSPost2010PropOp46
 70
     1
102
RTVSPost2010Prop47
 90
       50
102
RTVSPost2010PropOp47
 70
     1
102
RTVSPost2010Prop48
 90
       50
102
RTVSPost2010PropOp48
 70
     1
102
RTVSPost2010Prop49
280
     0
102
RTVSPost2010PropOp49
 70
     1
102
RTVSPost2010Prop50
 90
       50
102
RTVSPost2010PropOp50
 70
     1
102
RTVSPost2010Prop51ColorIndex
 90
      256
102
RTVSPost2010Prop51ColorRGB
 90
-16777216
102
RTVSPost2010PropOp51
 70
     0
102
RTVSPost2010Prop52
140
1.0
102
RTVSPost2010PropOp52
 70
     0
102
RTVSPost2010Prop53
 90
        2
102
RTVSPost2010PropOp53
 70
     1
102
RTVSPost2010Prop54
  1
strokes_ogs.tif
102
RTVSPost2010PropOp54
 70
     1
102
RTVSPost2010Prop55
280
     0
102
RTVSPost2010PropOp55
 70
     1
102
RTVSPost2010Prop56
140
1.0
102
RTVSPost2010PropOp56
 70
     1
102
RTVSPost2010Prop57
140
1.0
102
RTVSPost2010PropOp57
 70
     1
  0
XRECORD
  5
546
102
{ACAD_REACTORS
330
545
102
}
330
545
100
AcDbXrecord
280
     1
102
RTVSPropertyOp0
 70
     1
102
RTVSPropertyOp1
 70
     1
102
RTVSPropertyOp2
 70
     1
102
RTVSPropertyOp3
 70
     1
102
RTVSPropertyOp4
 70
     1
102
RTVSPropertyOp5
 70
     1
102
RTVSPropertyOp6
 70
     1
102
RTVSPropertyOp7
 70
     1
102
RTVSPropertyOp8
 70
     1
102
RTVSPropertyOp9
 70
     1
102
RTVSPropertyOp10
 70
     1
102
RTVSPropertyOp11
 70
     1
102
RTVSPropertyOp12
 70
     1
102
RTVSPropertyOp13
 70
     1
102
RTVSPropertyOp14
 70
     1
102
RTVSPropertyOp15
 70
     1
102
RTVSPropertyOp16
 70
     1
102
RTVSPropertyOp17
 70
     1
102
RTVSPropertyOp18
 70
     1
102
RTVSPropertyOp19
 70
     1
102
RTVSPropertyOp20
 70
     1
102
RTVSPropertyOp21
 70
     1
102
RTVSPropertyOp22
 70
     1
102
RTVSPropertyOp23
 70
     1
102
RTVSPropertyOp24
 70
     1
102
RTVSPropertyOp25
 70
     1
102
RTVSPropertyOp26
 70
     1
102
RTVSPropertyOp27
 70
     1
102
RTVSPropertyOp28
 70
     1
102
RTVSPropertyOp29
 70
     1
102
RTVSPropertyOp30
 70
     1
102
RTVSPropertyOp31
 70
     1
102
RTVSPropertyOp32
 70
     1
102
RTVSPropertyOp33
 70
     1
102
RTVSPropertyOp34
 70
     1
102
RTVSPropertyOp35
 70
     1
102
RTVSPropertyOp36
 70
     1
102
RTVSPropertyOp37
 70
     1
102
RTVSPropertyOp38
 70
     1
102
RTVSPropertyOp39
 70
     1
102
RTVSPropertyOp40
 70
     1
102
RTVSPropertyOp41
 70
     1
102
RTVSPropertyOp42
 70
     1
102
RTVSPropertyOp43
 70
     1
102
RTVSPropertyOp44
 70
     1
102
RTVSPropertyOp45
 70
     1
102
RTVSPropertyOp46
 70
     1
102
RTVSPropertyOp47
 70
     1
102
RTVSPropertyOp48
 70
     1
102
RTVSPropertyOp49
 70
     1
102
RTVSPropertyOp50
 70
     1
102
RTVSPropertyOp51
 70
     0
102
RTVSPropertyOp52
 70
     0
102
RTVSPropertyOp53
 70
     1
102
RTVSPropertyOp54
 70
     1
102
RTVSPropertyOp55
 70
     1
102
RTVSPropertyOp56
 70
     1
102
RTVSPropertyOp57
 70
     1
102
RTVSPost2010Prop28
280
     0
102
RTVSPost2010PropOp28
 70
     1
102
RTVSPost2010Prop29
280
     1
102
RTVSPost2010PropOp29
 70
     1
102
RTVSPost2010Prop30
280
     1
102
RTVSPost2010PropOp30
 70
     1
102
RTVSPost2010Prop31
280
     0
102
RTVSPost2010PropOp31
 70
     1
102
RTVSPost2010Prop32
280
     0
102
RTVSPost2010PropOp32
 70
     1
102
RTVSPost2010Prop33
280
     0
102
RTVSPost2010PropOp33
 70
     1
102
RTVSPost2010Prop34
280
     0
102
RTVSPost2010PropOp34
 70
     1
102
RTVSPost2010Prop35
280
     0
102
RTVSPost2010PropOp35
 70
     1
102
RTVSPost2010Prop36
280
     0
102
RTVSPost2010PropOp36
 70
     1
102
RTVSPost2010Prop37
 90
       50
102
RTVSPost2010PropOp37
 70
     1
102
RTVSPost2010Prop38
140
0.0
102
RTVSPost2010PropOp38
 70
     1
102
RTVSPost2010Prop39
140
1.0
102
RTVSPost2010PropOp39
 70
     1
102
RTVSPost2010Prop40
 90
        0
102
RTVSPost2010PropOp40
 70
     1
102
RTVSPost2010Prop41ColorIndex
 90
       18
102
RTVSPost2010Prop41ColorRGB
 90
        0
102
RTVSPost2010PropOp41
 70
     1
102
RTVSPost2010Prop42
 90
       50
102
RTVSPost2010PropOp42
 70
     1
102
RTVSPost2010Prop43
 90
        3
102
RTVSPost2010PropOp43
 70
     1
102
RTVSPost2010Prop44ColorIndex
 90
        5
102
RTVSPost2010Prop44ColorRGB
 90
      255
102
RTVSPost2010PropOp44
 70
     1
102
RTVSPost2010Prop45
280
     0
102
RTVSPost2010PropOp45
 70
     1
102
RTVSPost2010Prop46
 90
       50
102
RTVSPost2010PropOp46
 70
     1
102
RTVSPost2010Prop47
 90
       50
102
RTVSPost2010PropOp47
 70
     1
102
RTVSPost2010Prop48
 90
       50
102
RTVSPost2010PropOp48
 70
     1
102
RTVSPost2010Prop49
280
     0
102
RTVSPost2010PropOp49
 70
     1
102
RTVSPost2010Prop50
 90
       50
102
RTVSPost2010PropOp50
 70
     1
102
RTVSPost2010Prop51ColorIndex
 90
      256
102
RTVSPost2010Prop51ColorRGB
 90
-16777216
102
RTVSPost2010PropOp51
 70
     0
102
RTVSPost2010Prop52
140
1.0
102
RTVSPost2010PropOp52
 70
     0
102
RTVSPost2010Prop53
 90
        2
102
RTVSPost2010PropOp53
 70
     1
102
RTVSPost2010Prop54
  1
strokes_ogs.tif
102
RTVSPost2010PropOp54
 70
     1
102
RTVSPost2010Prop55
280
     0
102
RTVSPost2010PropOp55
 70
     1
102
RTVSPost2010Prop56
140
1.0
102
RTVSPost2010PropOp56
 70
     1
102
RTVSPost2010Prop57
140
1.0
102
RTVSPost2010PropOp57
 70
     1
  0
XRECORD
  5
54A
102
{ACAD_REACTORS
330
549
102
}
330
549
100
AcDbXrecord
280
     1
102
RTVSPropertyOp0
 70
     1
102
RTVSPropertyOp1
 70
     1
102
RTVSPropertyOp2
 70
     1
102
RTVSPropertyOp3
 70
     1
102
RTVSPropertyOp4
 70
     1
102
RTVSPropertyOp5
 70
     1
102
RTVSPropertyOp6
 70
     1
102
RTVSPropertyOp7
 70
     1
102
RTVSPropertyOp8
 70
     1
102
RTVSPropertyOp9
 70
     1
102
RTVSPropertyOp10
 70
     1
102
RTVSPropertyOp11
 70
     1
102
RTVSPropertyOp12
 70
     1
102
RTVSPropertyOp13
 70
     1
102
RTVSPropertyOp14
 70
     1
102
RTVSPropertyOp15
 70
     1
102
RTVSPropertyOp16
 70
     1
102
RTVSPropertyOp17
 70
     1
102
RTVSPropertyOp18
 70
     1
102
RTVSPropertyOp19
 70
     1
102
RTVSPropertyOp20
 70
     1
102
RTVSPropertyOp21
 70
     1
102
RTVSPropertyOp22
 70
     1
102
RTVSPropertyOp23
 70
     1
102
RTVSPropertyOp24
 70
     1
102
RTVSPropertyOp25
 70
     1
102
RTVSPropertyOp26
 70
     1
102
RTVSPropertyOp27
 70
     1
102
RTVSPropertyOp28
 70
     1
102
RTVSPropertyOp29
 70
     1
102
RTVSPropertyOp30
 70
     1
102
RTVSPropertyOp31
 70
     1
102
RTVSPropertyOp32
 70
     1
102
RTVSPropertyOp33
 70
     1
102
RTVSPropertyOp34
 70
     1
102
RTVSPropertyOp35
 70
     1
102
RTVSPropertyOp36
 70
     1
102
RTVSPropertyOp37
 70
     1
102
RTVSPropertyOp38
 70
     1
102
RTVSPropertyOp39
 70
     1
102
RTVSPropertyOp40
 70
     1
102
RTVSPropertyOp41
 70
     1
102
RTVSPropertyOp42
 70
     1
102
RTVSPropertyOp43
 70
     1
102
RTVSPropertyOp44
 70
     1
102
RTVSPropertyOp45
 70
     1
102
RTVSPropertyOp46
 70
     1
102
RTVSPropertyOp47
 70
     1
102
RTVSPropertyOp48
 70
     1
102
RTVSPropertyOp49
 70
     1
102
RTVSPropertyOp50
 70
     1
102
RTVSPropertyOp51
 70
     0
102
RTVSPropertyOp52
 70
     0
102
RTVSPropertyOp53
 70
     1
102
RTVSPropertyOp54
 70
     1
102
RTVSPropertyOp55
 70
     1
102
RTVSPropertyOp56
 70
     1
102
RTVSPropertyOp57
 70
     1
102
RTVSPost2010Prop28
280
     0
102
RTVSPost2010PropOp28
 70
     1
102
RTVSPost2010Prop29
280
     1
102
RTVSPost2010PropOp29
 70
     1
102
RTVSPost2010Prop30
280
     1
102
RTVSPost2010PropOp30
 70
     1
102
RTVSPost2010Prop31
280
     0
102
RTVSPost2010PropOp31
 70
     1
102
RTVSPost2010Prop32
280
     0
102
RTVSPost2010PropOp32
 70
     1
102
RTVSPost2010Prop33
280
     0
102
RTVSPost2010PropOp33
 70
     1
102
RTVSPost2010Prop34
280
     0
102
RTVSPost2010PropOp34
 70
     1
102
RTVSPost2010Prop35
280
     0
102
RTVSPost2010PropOp35
 70
     1
102
RTVSPost2010Prop36
280
     0
102
RTVSPost2010PropOp36
 70
     1
102
RTVSPost2010Prop37
 90
       50
102
RTVSPost2010PropOp37
 70
     1
102
RTVSPost2010Prop38
140
0.0
102
RTVSPost2010PropOp38
 70
     1
102
RTVSPost2010Prop39
140
1.0
102
RTVSPost2010PropOp39
 70
     1
102
RTVSPost2010Prop40
 90
        0
102
RTVSPost2010PropOp40
 70
     1
102
RTVSPost2010Prop41ColorIndex
 90
       18
102
RTVSPost2010Prop41ColorRGB
 90
        0
102
RTVSPost2010PropOp41
 70
     1
102
RTVSPost2010Prop42
 90
       50
102
RTVSPost2010PropOp42
 70
     1
102
RTVSPost2010Prop43
 90
        3
102
RTVSPost2010PropOp43
 70
     1
102
RTVSPost2010Prop44ColorIndex
 90
        5
102
RTVSPost2010Prop44ColorRGB
 90
      255
102
RTVSPost2010PropOp44
 70
     1
102
RTVSPost2010Prop45
280
     0
102
RTVSPost2010PropOp45
 70
     1
102
RTVSPost2010Prop46
 90
       50
102
RTVSPost2010PropOp46
 70
     1
102
RTVSPost2010Prop47
 90
       50
102
RTVSPost2010PropOp47
 70
     1
102
RTVSPost2010Prop48
 90
       50
102
RTVSPost2010PropOp48
 70
     1
102
RTVSPost2010Prop49
280
     0
102
RTVSPost2010PropOp49
 70
     1
102
RTVSPost2010Prop50
 90
       50
102
RTVSPost2010PropOp50
 70
     1
102
RTVSPost2010Prop51ColorIndex
 90
      256
102
RTVSPost2010Prop51ColorRGB
 90
-16777216
102
RTVSPost2010PropOp51
 70
     0
102
RTVSPost2010Prop52
140
1.0
102
RTVSPost2010PropOp52
 70
     0
102
RTVSPost2010Prop53
 90
        2
102
RTVSPost2010PropOp53
 70
     1
102
RTVSPost2010Prop54
  1
strokes_ogs.tif
102
RTVSPost2010PropOp54
 70
     1
102
RTVSPost2010Prop55
280
     0
102
RTVSPost2010PropOp55
 70
     1
102
RTVSPost2010Prop56
140
1.0
102
RTVSPost2010PropOp56
 70
     1
102
RTVSPost2010Prop57
140
1.0
102
RTVSPost2010PropOp57
 70
     1
  0
XRECORD
  5
552
102
{ACAD_REACTORS
330
551
102
}
330
551
100
AcDbXrecord
280
     1
102
RTVSPropertyOp0
 70
     1
102
RTVSPropertyOp1
 70
     1
102
RTVSPropertyOp2
 70
     1
102
RTVSPropertyOp3
 70
     1
102
RTVSPropertyOp4
 70
     1
102
RTVSPropertyOp5
 70
     1
102
RTVSPropertyOp6
 70
     1
102
RTVSPropertyOp7
 70
     1
102
RTVSPropertyOp8
 70
     1
102
RTVSPropertyOp9
 70
     1
102
RTVSPropertyOp10
 70
     1
102
RTVSPropertyOp11
 70
     1
102
RTVSPropertyOp12
 70
     1
102
RTVSPropertyOp13
 70
     1
102
RTVSPropertyOp14
 70
     1
102
RTVSPropertyOp15
 70
     1
102
RTVSPropertyOp16
 70
     1
102
RTVSPropertyOp17
 70
     1
102
RTVSPropertyOp18
 70
     1
102
RTVSPropertyOp19
 70
     1
102
RTVSPropertyOp20
 70
     1
102
RTVSPropertyOp21
 70
     1
102
RTVSPropertyOp22
 70
     1
102
RTVSPropertyOp23
 70
     1
102
RTVSPropertyOp24
 70
     1
102
RTVSPropertyOp25
 70
     1
102
RTVSPropertyOp26
 70
     1
102
RTVSPropertyOp27
 70
     1
102
RTVSPropertyOp28
 70
     1
102
RTVSPropertyOp29
 70
     1
102
RTVSPropertyOp30
 70
     1
102
RTVSPropertyOp31
 70
     1
102
RTVSPropertyOp32
 70
     1
102
RTVSPropertyOp33
 70
     1
102
RTVSPropertyOp34
 70
     1
102
RTVSPropertyOp35
 70
     1
102
RTVSPropertyOp36
 70
     1
102
RTVSPropertyOp37
 70
     1
102
RTVSPropertyOp38
 70
     1
102
RTVSPropertyOp39
 70
     1
102
RTVSPropertyOp40
 70
     1
102
RTVSPropertyOp41
 70
     1
102
RTVSPropertyOp42
 70
     1
102
RTVSPropertyOp43
 70
     1
102
RTVSPropertyOp44
 70
     1
102
RTVSPropertyOp45
 70
     1
102
RTVSPropertyOp46
 70
     1
102
RTVSPropertyOp47
 70
     1
102
RTVSPropertyOp48
 70
     1
102
RTVSPropertyOp49
 70
     1
102
RTVSPropertyOp50
 70
     1
102
RTVSPropertyOp51
 70
     0
102
RTVSPropertyOp52
 70
     0
102
RTVSPropertyOp53
 70
     1
102
RTVSPropertyOp54
 70
     1
102
RTVSPropertyOp55
 70
     1
102
RTVSPropertyOp56
 70
     1
102
RTVSPropertyOp57
 70
     1
102
RTVSPost2010Prop28
280
     0
102
RTVSPost2010PropOp28
 70
     1
102
RTVSPost2010Prop29
280
     1
102
RTVSPost2010PropOp29
 70
     1
102
RTVSPost2010Prop30
280
     1
102
RTVSPost2010PropOp30
 70
     1
102
RTVSPost2010Prop31
280
     0
102
RTVSPost2010PropOp31
 70
     1
102
RTVSPost2010Prop32
280
     0
102
RTVSPost2010PropOp32
 70
     1
102
RTVSPost2010Prop33
280
     0
102
RTVSPost2010PropOp33
 70
     1
102
RTVSPost2010Prop34
280
     0
102
RTVSPost2010PropOp34
 70
     1
102
RTVSPost2010Prop35
280
     0
102
RTVSPost2010PropOp35
 70
     1
102
RTVSPost2010Prop36
280
     0
102
RTVSPost2010PropOp36
 70
     1
102
RTVSPost2010Prop37
 90
       50
102
RTVSPost2010PropOp37
 70
     1
102
RTVSPost2010Prop38
140
0.0
102
RTVSPost2010PropOp38
 70
     1
102
RTVSPost2010Prop39
140
1.0
102
RTVSPost2010PropOp39
 70
     1
102
RTVSPost2010Prop40
 90
        0
102
RTVSPost2010PropOp40
 70
     1
102
RTVSPost2010Prop41ColorIndex
 90
       18
102
RTVSPost2010Prop41ColorRGB
 90
        0
102
RTVSPost2010PropOp41
 70
     1
102
RTVSPost2010Prop42
 90
       50
102
RTVSPost2010PropOp42
 70
     1
102
RTVSPost2010Prop43
 90
        3
102
RTVSPost2010PropOp43
 70
     1
102
RTVSPost2010Prop44ColorIndex
 90
        5
102
RTVSPost2010Prop44ColorRGB
 90
      255
102
RTVSPost2010PropOp44
 70
     1
102
RTVSPost2010Prop45
280
     0
102
RTVSPost2010PropOp45
 70
     1
102
RTVSPost2010Prop46
 90
       50
102
RTVSPost2010PropOp46
 70
     1
102
RTVSPost2010Prop47
 90
       50
102
RTVSPost2010PropOp47
 70
     1
102
RTVSPost2010Prop48
 90
       50
102
RTVSPost2010PropOp48
 70
     1
102
RTVSPost2010Prop49
280
     0
102
RTVSPost2010PropOp49
 70
     1
102
RTVSPost2010Prop50
 90
       50
102
RTVSPost2010PropOp50
 70
     1
102
RTVSPost2010Prop51ColorIndex
 90
      256
102
RTVSPost2010Prop51ColorRGB
 90
-16777216
102
RTVSPost2010PropOp51
 70
     0
102
RTVSPost2010Prop52
140
1.0
102
RTVSPost2010PropOp52
 70
     0
102
RTVSPost2010Prop53
 90
        2
102
RTVSPost2010PropOp53
 70
     1
102
RTVSPost2010Prop54
  1
strokes_ogs.tif
102
RTVSPost2010PropOp54
 70
     1
102
RTVSPost2010Prop55
280
     0
102
RTVSPost2010PropOp55
 70
     1
102
RTVSPost2010Prop56
140
1.0
102
RTVSPost2010PropOp56
 70
     1
102
RTVSPost2010Prop57
140
1.0
102
RTVSPost2010PropOp57
 70
     1
  0
XRECORD
  5
55A
102
{ACAD_REACTORS
330
559
102
}
330
559
100
AcDbXrecord
280
     1
102
RTVSPropertyOp0
 70
     1
102
RTVSPropertyOp1
 70
     1
102
RTVSPropertyOp2
 70
     1
102
RTVSPropertyOp3
 70
     1
102
RTVSPropertyOp4
 70
     1
102
RTVSPropertyOp5
 70
     1
102
RTVSPropertyOp6
 70
     1
102
RTVSPropertyOp7
 70
     1
102
RTVSPropertyOp8
 70
     1
102
RTVSPropertyOp9
 70
     1
102
RTVSPropertyOp10
 70
     1
102
RTVSPropertyOp11
 70
     1
102
RTVSPropertyOp12
 70
     1
102
RTVSPropertyOp13
 70
     1
102
RTVSPropertyOp14
 70
     1
102
RTVSPropertyOp15
 70
     1
102
RTVSPropertyOp16
 70
     1
102
RTVSPropertyOp17
 70
     1
102
RTVSPropertyOp18
 70
     1
102
RTVSPropertyOp19
 70
     1
102
RTVSPropertyOp20
 70
     1
102
RTVSPropertyOp21
 70
     1
102
RTVSPropertyOp22
 70
     1
102
RTVSPropertyOp23
 70
     1
102
RTVSPropertyOp24
 70
     1
102
RTVSPropertyOp25
 70
     1
102
RTVSPropertyOp26
 70
     1
102
RTVSPropertyOp27
 70
     1
102
RTVSPropertyOp28
 70
     1
102
RTVSPropertyOp29
 70
     1
102
RTVSPropertyOp30
 70
     1
102
RTVSPropertyOp31
 70
     1
102
RTVSPropertyOp32
 70
     1
102
RTVSPropertyOp33
 70
     1
102
RTVSPropertyOp34
 70
     1
102
RTVSPropertyOp35
 70
     1
102
RTVSPropertyOp36
 70
     1
102
RTVSPropertyOp37
 70
     1
102
RTVSPropertyOp38
 70
     1
102
RTVSPropertyOp39
 70
     1
102
RTVSPropertyOp40
 70
     1
102
RTVSPropertyOp41
 70
     1
102
RTVSPropertyOp42
 70
     1
102
RTVSPropertyOp43
 70
     1
102
RTVSPropertyOp44
 70
     1
102
RTVSPropertyOp45
 70
     1
102
RTVSPropertyOp46
 70
     1
102
RTVSPropertyOp47
 70
     1
102
RTVSPropertyOp48
 70
     1
102
RTVSPropertyOp49
 70
     1
102
RTVSPropertyOp50
 70
     1
102
RTVSPropertyOp51
 70
     0
102
RTVSPropertyOp52
 70
     0
102
RTVSPropertyOp53
 70
     1
102
RTVSPropertyOp54
 70
     1
102
RTVSPropertyOp55
 70
     1
102
RTVSPropertyOp56
 70
     1
102
RTVSPropertyOp57
 70
     1
102
RTVSPost2010Prop28
280
     0
102
RTVSPost2010PropOp28
 70
     1
102
RTVSPost2010Prop29
280
     1
102
RTVSPost2010PropOp29
 70
     1
102
RTVSPost2010Prop30
280
     1
102
RTVSPost2010PropOp30
 70
     1
102
RTVSPost2010Prop31
280
     0
102
RTVSPost2010PropOp31
 70
     1
102
RTVSPost2010Prop32
280
     0
102
RTVSPost2010PropOp32
 70
     1
102
RTVSPost2010Prop33
280
     0
102
RTVSPost2010PropOp33
 70
     1
102
RTVSPost2010Prop34
280
     0
102
RTVSPost2010PropOp34
 70
     1
102
RTVSPost2010Prop35
280
     0
102
RTVSPost2010PropOp35
 70
     1
102
RTVSPost2010Prop36
280
     0
102
RTVSPost2010PropOp36
 70
     1
102
RTVSPost2010Prop37
 90
       50
102
RTVSPost2010PropOp37
 70
     1
102
RTVSPost2010Prop38
140
0.0
102
RTVSPost2010PropOp38
 70
     1
102
RTVSPost2010Prop39
140
1.0
102
RTVSPost2010PropOp39
 70
     1
102
RTVSPost2010Prop40
 90
        0
102
RTVSPost2010PropOp40
 70
     1
102
RTVSPost2010Prop41ColorIndex
 90
       18
102
RTVSPost2010Prop41ColorRGB
 90
        0
102
RTVSPost2010PropOp41
 70
     1
102
RTVSPost2010Prop42
 90
       50
102
RTVSPost2010PropOp42
 70
     1
102
RTVSPost2010Prop43
 90
        3
102
RTVSPost2010PropOp43
 70
     1
102
RTVSPost2010Prop44ColorIndex
 90
        5
102
RTVSPost2010Prop44ColorRGB
 90
      255
102
RTVSPost2010PropOp44
 70
     1
102
RTVSPost2010Prop45
280
     0
102
RTVSPost2010PropOp45
 70
     1
102
RTVSPost2010Prop46
 90
       50
102
RTVSPost2010PropOp46
 70
     1
102
RTVSPost2010Prop47
 90
       50
102
RTVSPost2010PropOp47
 70
     1
102
RTVSPost2010Prop48
 90
       50
102
RTVSPost2010PropOp48
 70
     1
102
RTVSPost2010Prop49
280
     0
102
RTVSPost2010PropOp49
 70
     1
102
RTVSPost2010Prop50
 90
       50
102
RTVSPost2010PropOp50
 70
     1
102
RTVSPost2010Prop51ColorIndex
 90
      256
102
RTVSPost2010Prop51ColorRGB
 90
-16777216
102
RTVSPost2010PropOp51
 70
     0
102
RTVSPost2010Prop52
140
1.0
102
RTVSPost2010PropOp52
 70
     0
102
RTVSPost2010Prop53
 90
        2
102
RTVSPost2010PropOp53
 70
     1
102
RTVSPost2010Prop54
  1
strokes_ogs.tif
102
RTVSPost2010PropOp54
 70
     1
102
RTVSPost2010Prop55
280
     0
102
RTVSPost2010PropOp55
 70
     1
102
RTVSPost2010Prop56
140
1.0
102
RTVSPost2010PropOp56
 70
     1
102
RTVSPost2010Prop57
140
1.0
102
RTVSPost2010PropOp57
 70
     1
  0
XRECORD
  5
54E
102
{ACAD_REACTORS
330
54D
102
}
330
54D
100
AcDbXrecord
280
     1
102
RTVSPropertyOp0
 70
     1
102
RTVSPropertyOp1
 70
     1
102
RTVSPropertyOp2
 70
     1
102
RTVSPropertyOp3
 70
     1
102
RTVSPropertyOp4
 70
     1
102
RTVSPropertyOp5
 70
     1
102
RTVSPropertyOp6
 70
     1
102
RTVSPropertyOp7
 70
     1
102
RTVSPropertyOp8
 70
     1
102
RTVSPropertyOp9
 70
     1
102
RTVSPropertyOp10
 70
     1
102
RTVSPropertyOp11
 70
     1
102
RTVSPropertyOp12
 70
     1
102
RTVSPropertyOp13
 70
     1
102
RTVSPropertyOp14
 70
     1
102
RTVSPropertyOp15
 70
     1
102
RTVSPropertyOp16
 70
     1
102
RTVSPropertyOp17
 70
     1
102
RTVSPropertyOp18
 70
     1
102
RTVSPropertyOp19
 70
     1
102
RTVSPropertyOp20
 70
     1
102
RTVSPropertyOp21
 70
     1
102
RTVSPropertyOp22
 70
     1
102
RTVSPropertyOp23
 70
     1
102
RTVSPropertyOp24
 70
     1
102
RTVSPropertyOp25
 70
     1
102
RTVSPropertyOp26
 70
     1
102
RTVSPropertyOp27
 70
     1
102
RTVSPropertyOp28
 70
     1
102
RTVSPropertyOp29
 70
     1
102
RTVSPropertyOp30
 70
     1
102
RTVSPropertyOp31
 70
     1
102
RTVSPropertyOp32
 70
     1
102
RTVSPropertyOp33
 70
     1
102
RTVSPropertyOp34
 70
     1
102
RTVSPropertyOp35
 70
     1
102
RTVSPropertyOp36
 70
     1
102
RTVSPropertyOp37
 70
     1
102
RTVSPropertyOp38
 70
     1
102
RTVSPropertyOp39
 70
     1
102
RTVSPropertyOp40
 70
     1
102
RTVSPropertyOp41
 70
     1
102
RTVSPropertyOp42
 70
     1
102
RTVSPropertyOp43
 70
     1
102
RTVSPropertyOp44
 70
     1
102
RTVSPropertyOp45
 70
     1
102
RTVSPropertyOp46
 70
     1
102
RTVSPropertyOp47
 70
     1
102
RTVSPropertyOp48
 70
     1
102
RTVSPropertyOp49
 70
     1
102
RTVSPropertyOp50
 70
     1
102
RTVSPropertyOp51
 70
     0
102
RTVSPropertyOp52
 70
     0
102
RTVSPropertyOp53
 70
     1
102
RTVSPropertyOp54
 70
     1
102
RTVSPropertyOp55
 70
     1
102
RTVSPropertyOp56
 70
     1
102
RTVSPropertyOp57
 70
     1
102
RTVSPost2010Prop28
280
     0
102
RTVSPost2010PropOp28
 70
     1
102
RTVSPost2010Prop29
280
     1
102
RTVSPost2010PropOp29
 70
     1
102
RTVSPost2010Prop30
280
     1
102
RTVSPost2010PropOp30
 70
     1
102
RTVSPost2010Prop31
280
     0
102
RTVSPost2010PropOp31
 70
     1
102
RTVSPost2010Prop32
280
     0
102
RTVSPost2010PropOp32
 70
     1
102
RTVSPost2010Prop33
280
     0
102
RTVSPost2010PropOp33
 70
     1
102
RTVSPost2010Prop34
280
     0
102
RTVSPost2010PropOp34
 70
     1
102
RTVSPost2010Prop35
280
     0
102
RTVSPost2010PropOp35
 70
     1
102
RTVSPost2010Prop36
280
     0
102
RTVSPost2010PropOp36
 70
     1
102
RTVSPost2010Prop37
 90
       50
102
RTVSPost2010PropOp37
 70
     1
102
RTVSPost2010Prop38
140
0.0
102
RTVSPost2010PropOp38
 70
     1
102
RTVSPost2010Prop39
140
1.0
102
RTVSPost2010PropOp39
 70
     1
102
RTVSPost2010Prop40
 90
        0
102
RTVSPost2010PropOp40
 70
     1
102
RTVSPost2010Prop41ColorIndex
 90
       18
102
RTVSPost2010Prop41ColorRGB
 90
        0
102
RTVSPost2010PropOp41
 70
     1
102
RTVSPost2010Prop42
 90
       50
102
RTVSPost2010PropOp42
 70
     1
102
RTVSPost2010Prop43
 90
        3
102
RTVSPost2010PropOp43
 70
     1
102
RTVSPost2010Prop44ColorIndex
 90
        5
102
RTVSPost2010Prop44ColorRGB
 90
      255
102
RTVSPost2010PropOp44
 70
     1
102
RTVSPost2010Prop45
280
     0
102
RTVSPost2010PropOp45
 70
     1
102
RTVSPost2010Prop46
 90
       50
102
RTVSPost2010PropOp46
 70
     1
102
RTVSPost2010Prop47
 90
       50
102
RTVSPost2010PropOp47
 70
     1
102
RTVSPost2010Prop48
 90
       50
102
RTVSPost2010PropOp48
 70
     1
102
RTVSPost2010Prop49
280
     0
102
RTVSPost2010PropOp49
 70
     1
102
RTVSPost2010Prop50
 90
       50
102
RTVSPost2010PropOp50
 70
     1
102
RTVSPost2010Prop51ColorIndex
 90
      256
102
RTVSPost2010Prop51ColorRGB
 90
-16777216
102
RTVSPost2010PropOp51
 70
     0
102
RTVSPost2010Prop52
140
1.0
102
RTVSPost2010PropOp52
 70
     0
102
RTVSPost2010Prop53
 90
        2
102
RTVSPost2010PropOp53
 70
     1
102
RTVSPost2010Prop54
  1
strokes_ogs.tif
102
RTVSPost2010PropOp54
 70
     1
102
RTVSPost2010Prop55
280
     0
102
RTVSPost2010PropOp55
 70
     1
102
RTVSPost2010Prop56
140
1.0
102
RTVSPost2010PropOp56
 70
     1
102
RTVSPost2010Prop57
140
1.0
102
RTVSPost2010PropOp57
 70
     1
  0
XRECORD
  5
550
102
{ACAD_REACTORS
330
54F
102
}
330
54F
100
AcDbXrecord
280
     1
102
RTVSPropertyOp0
 70
     1
102
RTVSPropertyOp1
 70
     1
102
RTVSPropertyOp2
 70
     1
102
RTVSPropertyOp3
 70
     1
102
RTVSPropertyOp4
 70
     1
102
RTVSPropertyOp5
 70
     1
102
RTVSPropertyOp6
 70
     1
102
RTVSPropertyOp7
 70
     1
102
RTVSPropertyOp8
 70
     1
102
RTVSPropertyOp9
 70
     1
102
RTVSPropertyOp10
 70
     1
102
RTVSPropertyOp11
 70
     1
102
RTVSPropertyOp12
 70
     1
102
RTVSPropertyOp13
 70
     1
102
RTVSPropertyOp14
 70
     1
102
RTVSPropertyOp15
 70
     1
102
RTVSPropertyOp16
 70
     1
102
RTVSPropertyOp17
 70
     1
102
RTVSPropertyOp18
 70
     1
102
RTVSPropertyOp19
 70
     1
102
RTVSPropertyOp20
 70
     1
102
RTVSPropertyOp21
 70
     1
102
RTVSPropertyOp22
 70
     1
102
RTVSPropertyOp23
 70
     1
102
RTVSPropertyOp24
 70
     1
102
RTVSPropertyOp25
 70
     1
102
RTVSPropertyOp26
 70
     1
102
RTVSPropertyOp27
 70
     1
102
RTVSPropertyOp28
 70
     1
102
RTVSPropertyOp29
 70
     1
102
RTVSPropertyOp30
 70
     1
102
RTVSPropertyOp31
 70
     1
102
RTVSPropertyOp32
 70
     1
102
RTVSPropertyOp33
 70
     1
102
RTVSPropertyOp34
 70
     1
102
RTVSPropertyOp35
 70
     1
102
RTVSPropertyOp36
 70
     1
102
RTVSPropertyOp37
 70
     1
102
RTVSPropertyOp38
 70
     1
102
RTVSPropertyOp39
 70
     1
102
RTVSPropertyOp40
 70
     1
102
RTVSPropertyOp41
 70
     1
102
RTVSPropertyOp42
 70
     1
102
RTVSPropertyOp43
 70
     1
102
RTVSPropertyOp44
 70
     1
102
RTVSPropertyOp45
 70
     1
102
RTVSPropertyOp46
 70
     1
102
RTVSPropertyOp47
 70
     1
102
RTVSPropertyOp48
 70
     1
102
RTVSPropertyOp49
 70
     1
102
RTVSPropertyOp50
 70
     1
102
RTVSPropertyOp51
 70
     0
102
RTVSPropertyOp52
 70
     0
102
RTVSPropertyOp53
 70
     1
102
RTVSPropertyOp54
 70
     1
102
RTVSPropertyOp55
 70
     1
102
RTVSPropertyOp56
 70
     1
102
RTVSPropertyOp57
 70
     1
102
RTVSPost2010Prop28
280
     0
102
RTVSPost2010PropOp28
 70
     1
102
RTVSPost2010Prop29
280
     1
102
RTVSPost2010PropOp29
 70
     1
102
RTVSPost2010Prop30
280
     1
102
RTVSPost2010PropOp30
 70
     1
102
RTVSPost2010Prop31
280
     0
102
RTVSPost2010PropOp31
 70
     1
102
RTVSPost2010Prop32
280
     0
102
RTVSPost2010PropOp32
 70
     1
102
RTVSPost2010Prop33
280
     0
102
RTVSPost2010PropOp33
 70
     1
102
RTVSPost2010Prop34
280
     0
102
RTVSPost2010PropOp34
 70
     1
102
RTVSPost2010Prop35
280
     0
102
RTVSPost2010PropOp35
 70
     1
102
RTVSPost2010Prop36
280
     0
102
RTVSPost2010PropOp36
 70
     1
102
RTVSPost2010Prop37
 90
       50
102
RTVSPost2010PropOp37
 70
     1
102
RTVSPost2010Prop38
140
0.0
102
RTVSPost2010PropOp38
 70
     1
102
RTVSPost2010Prop39
140
1.0
102
RTVSPost2010PropOp39
 70
     1
102
RTVSPost2010Prop40
 90
        0
102
RTVSPost2010PropOp40
 70
     1
102
RTVSPost2010Prop41ColorIndex
 90
       18
102
RTVSPost2010Prop41ColorRGB
 90
        0
102
RTVSPost2010PropOp41
 70
     1
102
RTVSPost2010Prop42
 90
       50
102
RTVSPost2010PropOp42
 70
     1
102
RTVSPost2010Prop43
 90
        3
102
RTVSPost2010PropOp43
 70
     1
102
RTVSPost2010Prop44ColorIndex
 90
        5
102
RTVSPost2010Prop44ColorRGB
 90
      255
102
RTVSPost2010PropOp44
 70
     1
102
RTVSPost2010Prop45
280
     0
102
RTVSPost2010PropOp45
 70
     1
102
RTVSPost2010Prop46
 90
       50
102
RTVSPost2010PropOp46
 70
     1
102
RTVSPost2010Prop47
 90
       50
102
RTVSPost2010PropOp47
 70
     1
102
RTVSPost2010Prop48
 90
       50
102
RTVSPost2010PropOp48
 70
     1
102
RTVSPost2010Prop49
280
     0
102
RTVSPost2010PropOp49
 70
     1
102
RTVSPost2010Prop50
 90
       50
102
RTVSPost2010PropOp50
 70
     1
102
RTVSPost2010Prop51ColorIndex
 90
      256
102
RTVSPost2010Prop51ColorRGB
 90
-16777216
102
RTVSPost2010PropOp51
 70
     0
102
RTVSPost2010Prop52
140
1.0
102
RTVSPost2010PropOp52
 70
     0
102
RTVSPost2010Prop53
 90
        2
102
RTVSPost2010PropOp53
 70
     1
102
RTVSPost2010Prop54
  1
strokes_ogs.tif
102
RTVSPost2010PropOp54
 70
     1
102
RTVSPost2010Prop55
280
     0
102
RTVSPost2010PropOp55
 70
     1
102
RTVSPost2010Prop56
140
1.0
102
RTVSPost2010PropOp56
 70
     1
102
RTVSPost2010Prop57
140
1.0
102
RTVSPost2010PropOp57
 70
     1
  0
XRECORD
  5
558
102
{ACAD_REACTORS
330
557
102
}
330
557
100
AcDbXrecord
280
     1
102
RTVSPropertyOp0
 70
     1
102
RTVSPropertyOp1
 70
     1
102
RTVSPropertyOp2
 70
     1
102
RTVSPropertyOp3
 70
     1
102
RTVSPropertyOp4
 70
     1
102
RTVSPropertyOp5
 70
     1
102
RTVSPropertyOp6
 70
     1
102
RTVSPropertyOp7
 70
     1
102
RTVSPropertyOp8
 70
     1
102
RTVSPropertyOp9
 70
     1
102
RTVSPropertyOp10
 70
     1
102
RTVSPropertyOp11
 70
     1
102
RTVSPropertyOp12
 70
     1
102
RTVSPropertyOp13
 70
     1
102
RTVSPropertyOp14
 70
     1
102
RTVSPropertyOp15
 70
     1
102
RTVSPropertyOp16
 70
     1
102
RTVSPropertyOp17
 70
     1
102
RTVSPropertyOp18
 70
     1
102
RTVSPropertyOp19
 70
     1
102
RTVSPropertyOp20
 70
     1
102
RTVSPropertyOp21
 70
     1
102
RTVSPropertyOp22
 70
     1
102
RTVSPropertyOp23
 70
     1
102
RTVSPropertyOp24
 70
     1
102
RTVSPropertyOp25
 70
     1
102
RTVSPropertyOp26
 70
     1
102
RTVSPropertyOp27
 70
     1
102
RTVSPropertyOp28
 70
     1
102
RTVSPropertyOp29
 70
     1
102
RTVSPropertyOp30
 70
     1
102
RTVSPropertyOp31
 70
     1
102
RTVSPropertyOp32
 70
     1
102
RTVSPropertyOp33
 70
     1
102
RTVSPropertyOp34
 70
     1
102
RTVSPropertyOp35
 70
     1
102
RTVSPropertyOp36
 70
     1
102
RTVSPropertyOp37
 70
     1
102
RTVSPropertyOp38
 70
     1
102
RTVSPropertyOp39
 70
     1
102
RTVSPropertyOp40
 70
     1
102
RTVSPropertyOp41
 70
     1
102
RTVSPropertyOp42
 70
     1
102
RTVSPropertyOp43
 70
     1
102
RTVSPropertyOp44
 70
     1
102
RTVSPropertyOp45
 70
     1
102
RTVSPropertyOp46
 70
     1
102
RTVSPropertyOp47
 70
     1
102
RTVSPropertyOp48
 70
     1
102
RTVSPropertyOp49
 70
     1
102
RTVSPropertyOp50
 70
     1
102
RTVSPropertyOp51
 70
     0
102
RTVSPropertyOp52
 70
     0
102
RTVSPropertyOp53
 70
     1
102
RTVSPropertyOp54
 70
     1
102
RTVSPropertyOp55
 70
     1
102
RTVSPropertyOp56
 70
     1
102
RTVSPropertyOp57
 70
     1
102
RTVSPost2010Prop28
280
     0
102
RTVSPost2010PropOp28
 70
     1
102
RTVSPost2010Prop29
280
     1
102
RTVSPost2010PropOp29
 70
     1
102
RTVSPost2010Prop30
280
     1
102
RTVSPost2010PropOp30
 70
     1
102
RTVSPost2010Prop31
280
     0
102
RTVSPost2010PropOp31
 70
     1
102
RTVSPost2010Prop32
280
     0
102
RTVSPost2010PropOp32
 70
     1
102
RTVSPost2010Prop33
280
     0
102
RTVSPost2010PropOp33
 70
     1
102
RTVSPost2010Prop34
280
     0
102
RTVSPost2010PropOp34
 70
     1
102
RTVSPost2010Prop35
280
     0
102
RTVSPost2010PropOp35
 70
     1
102
RTVSPost2010Prop36
280
     0
102
RTVSPost2010PropOp36
 70
     1
102
RTVSPost2010Prop37
 90
       50
102
RTVSPost2010PropOp37
 70
     1
102
RTVSPost2010Prop38
140
0.0
102
RTVSPost2010PropOp38
 70
     1
102
RTVSPost2010Prop39
140
1.0
102
RTVSPost2010PropOp39
 70
     1
102
RTVSPost2010Prop40
 90
        0
102
RTVSPost2010PropOp40
 70
     1
102
RTVSPost2010Prop41ColorIndex
 90
       18
102
RTVSPost2010Prop41ColorRGB
 90
        0
102
RTVSPost2010PropOp41
 70
     1
102
RTVSPost2010Prop42
 90
       50
102
RTVSPost2010PropOp42
 70
     1
102
RTVSPost2010Prop43
 90
        3
102
RTVSPost2010PropOp43
 70
     1
102
RTVSPost2010Prop44ColorIndex
 90
        5
102
RTVSPost2010Prop44ColorRGB
 90
      255
102
RTVSPost2010PropOp44
 70
     1
102
RTVSPost2010Prop45
280
     0
102
RTVSPost2010PropOp45
 70
     1
102
RTVSPost2010Prop46
 90
       50
102
RTVSPost2010PropOp46
 70
     1
102
RTVSPost2010Prop47
 90
       50
102
RTVSPost2010PropOp47
 70
     1
102
RTVSPost2010Prop48
 90
       50
102
RTVSPost2010PropOp48
 70
     1
102
RTVSPost2010Prop49
280
     0
102
RTVSPost2010PropOp49
 70
     1
102
RTVSPost2010Prop50
 90
       50
102
RTVSPost2010PropOp50
 70
     1
102
RTVSPost2010Prop51ColorIndex
 90
      256
102
RTVSPost2010Prop51ColorRGB
 90
-16777216
102
RTVSPost2010PropOp51
 70
     0
102
RTVSPost2010Prop52
140
1.0
102
RTVSPost2010PropOp52
 70
     0
102
RTVSPost2010Prop53
 90
        2
102
RTVSPost2010PropOp53
 70
     1
102
RTVSPost2010Prop54
  1
strokes_ogs.tif
102
RTVSPost2010PropOp54
 70
     1
102
RTVSPost2010Prop55
280
     0
102
RTVSPost2010PropOp55
 70
     1
102
RTVSPost2010Prop56
140
1.0
102
RTVSPost2010PropOp56
 70
     1
102
RTVSPost2010Prop57
140
1.0
102
RTVSPost2010PropOp57
 70
     1
  0
XRECORD
  5
53C
102
{ACAD_REACTORS
330
53B
102
}
330
53B
100
AcDbXrecord
280
     1
102
RTVSPropertyOp0
 70
     1
102
RTVSPropertyOp1
 70
     1
102
RTVSPropertyOp2
 70
     1
102
RTVSPropertyOp3
 70
     1
102
RTVSPropertyOp4
 70
     1
102
RTVSPropertyOp5
 70
     1
102
RTVSPropertyOp6
 70
     1
102
RTVSPropertyOp7
 70
     1
102
RTVSPropertyOp8
 70
     1
102
RTVSPropertyOp9
 70
     1
102
RTVSPropertyOp10
 70
     1
102
RTVSPropertyOp11
 70
     1
102
RTVSPropertyOp12
 70
     1
102
RTVSPropertyOp13
 70
     1
102
RTVSPropertyOp14
 70
     1
102
RTVSPropertyOp15
 70
     1
102
RTVSPropertyOp16
 70
     1
102
RTVSPropertyOp17
 70
     1
102
RTVSPropertyOp18
 70
     1
102
RTVSPropertyOp19
 70
     1
102
RTVSPropertyOp20
 70
     1
102
RTVSPropertyOp21
 70
     1
102
RTVSPropertyOp22
 70
     1
102
RTVSPropertyOp23
 70
     1
102
RTVSPropertyOp24
 70
     1
102
RTVSPropertyOp25
 70
     1
102
RTVSPropertyOp26
 70
     1
102
RTVSPropertyOp27
 70
     1
102
RTVSPropertyOp28
 70
     1
102
RTVSPropertyOp29
 70
     1
102
RTVSPropertyOp30
 70
     1
102
RTVSPropertyOp31
 70
     1
102
RTVSPropertyOp32
 70
     1
102
RTVSPropertyOp33
 70
     1
102
RTVSPropertyOp34
 70
     1
102
RTVSPropertyOp35
 70
     1
102
RTVSPropertyOp36
 70
     1
102
RTVSPropertyOp37
 70
     1
102
RTVSPropertyOp38
 70
     1
102
RTVSPropertyOp39
 70
     1
102
RTVSPropertyOp40
 70
     1
102
RTVSPropertyOp41
 70
     1
102
RTVSPropertyOp42
 70
     1
102
RTVSPropertyOp43
 70
     1
102
RTVSPropertyOp44
 70
     1
102
RTVSPropertyOp45
 70
     1
102
RTVSPropertyOp46
 70
     1
102
RTVSPropertyOp47
 70
     1
102
RTVSPropertyOp48
 70
     1
102
RTVSPropertyOp49
 70
     1
102
RTVSPropertyOp50
 70
     1
102
RTVSPropertyOp51
 70
     0
102
RTVSPropertyOp52
 70
     0
102
RTVSPropertyOp53
 70
     1
102
RTVSPropertyOp54
 70
     1
102
RTVSPropertyOp55
 70
     1
102
RTVSPropertyOp56
 70
     1
102
RTVSPropertyOp57
 70
     1
102
RTVSPost2010Prop28
280
     0
102
RTVSPost2010PropOp28
 70
     1
102
RTVSPost2010Prop29
280
     1
102
RTVSPost2010PropOp29
 70
     1
102
RTVSPost2010Prop30
280
     1
102
RTVSPost2010PropOp30
 70
     1
102
RTVSPost2010Prop31
280
     0
102
RTVSPost2010PropOp31
 70
     1
102
RTVSPost2010Prop32
280
     0
102
RTVSPost2010PropOp32
 70
     1
102
RTVSPost2010Prop33
280
     0
102
RTVSPost2010PropOp33
 70
     1
102
RTVSPost2010Prop34
280
     0
102
RTVSPost2010PropOp34
 70
     1
102
RTVSPost2010Prop35
280
     0
102
RTVSPost2010PropOp35
 70
     1
102
RTVSPost2010Prop36
280
     0
102
RTVSPost2010PropOp36
 70
     1
102
RTVSPost2010Prop37
 90
       50
102
RTVSPost2010PropOp37
 70
     1
102
RTVSPost2010Prop38
140
0.0
102
RTVSPost2010PropOp38
 70
     1
102
RTVSPost2010Prop39
140
1.0
102
RTVSPost2010PropOp39
 70
     1
102
RTVSPost2010Prop40
 90
        0
102
RTVSPost2010PropOp40
 70
     1
102
RTVSPost2010Prop41ColorIndex
 90
       18
102
RTVSPost2010Prop41ColorRGB
 90
        0
102
RTVSPost2010PropOp41
 70
     1
102
RTVSPost2010Prop42
 90
       50
102
RTVSPost2010PropOp42
 70
     1
102
RTVSPost2010Prop43
 90
        3
102
RTVSPost2010PropOp43
 70
     1
102
RTVSPost2010Prop44ColorIndex
 90
        5
102
RTVSPost2010Prop44ColorRGB
 90
      255
102
RTVSPost2010PropOp44
 70
     1
102
RTVSPost2010Prop45
280
     0
102
RTVSPost2010PropOp45
 70
     1
102
RTVSPost2010Prop46
 90
       50
102
RTVSPost2010PropOp46
 70
     1
102
RTVSPost2010Prop47
 90
       50
102
RTVSPost2010PropOp47
 70
     1
102
RTVSPost2010Prop48
 90
       50
102
RTVSPost2010PropOp48
 70
     1
102
RTVSPost2010Prop49
280
     0
102
RTVSPost2010PropOp49
 70
     1
102
RTVSPost2010Prop50
 90
       50
102
RTVSPost2010PropOp50
 70
     1
102
RTVSPost2010Prop51ColorIndex
 90
      256
102
RTVSPost2010Prop51ColorRGB
 90
-16777216
102
RTVSPost2010PropOp51
 70
     0
102
RTVSPost2010Prop52
140
1.0
102
RTVSPost2010PropOp52
 70
     0
102
RTVSPost2010Prop53
 90
        2
102
RTVSPost2010PropOp53
 70
     1
102
RTVSPost2010Prop54
  1
strokes_ogs.tif
102
RTVSPost2010PropOp54
 70
     1
102
RTVSPost2010Prop55
280
     0
102
RTVSPost2010PropOp55
 70
     1
102
RTVSPost2010Prop56
140
1.0
102
RTVSPost2010PropOp56
 70
     1
102
RTVSPost2010Prop57
140
1.0
102
RTVSPost2010PropOp57
 70
     1
  0
XRECORD
  5
53E
102
{ACAD_REACTORS
330
53D
102
}
330
53D
100
AcDbXrecord
280
     1
102
RTVSPropertyOp0
 70
     1
102
RTVSPropertyOp1
 70
     1
102
RTVSPropertyOp2
 70
     1
102
RTVSPropertyOp3
 70
     1
102
RTVSPropertyOp4
 70
     1
102
RTVSPropertyOp5
 70
     1
102
RTVSPropertyOp6
 70
     1
102
RTVSPropertyOp7
 70
     1
102
RTVSPropertyOp8
 70
     1
102
RTVSPropertyOp9
 70
     1
102
RTVSPropertyOp10
 70
     1
102
RTVSPropertyOp11
 70
     1
102
RTVSPropertyOp12
 70
     1
102
RTVSPropertyOp13
 70
     1
102
RTVSPropertyOp14
 70
     1
102
RTVSPropertyOp15
 70
     1
102
RTVSPropertyOp16
 70
     1
102
RTVSPropertyOp17
 70
     1
102
RTVSPropertyOp18
 70
     1
102
RTVSPropertyOp19
 70
     1
102
RTVSPropertyOp20
 70
     1
102
RTVSPropertyOp21
 70
     1
102
RTVSPropertyOp22
 70
     1
102
RTVSPropertyOp23
 70
     1
102
RTVSPropertyOp24
 70
     1
102
RTVSPropertyOp25
 70
     1
102
RTVSPropertyOp26
 70
     1
102
RTVSPropertyOp27
 70
     1
102
RTVSPropertyOp28
 70
     1
102
RTVSPropertyOp29
 70
     1
102
RTVSPropertyOp30
 70
     1
102
RTVSPropertyOp31
 70
     1
102
RTVSPropertyOp32
 70
     1
102
RTVSPropertyOp33
 70
     1
102
RTVSPropertyOp34
 70
     1
102
RTVSPropertyOp35
 70
     1
102
RTVSPropertyOp36
 70
     1
102
RTVSPropertyOp37
 70
     1
102
RTVSPropertyOp38
 70
     1
102
RTVSPropertyOp39
 70
     1
102
RTVSPropertyOp40
 70
     1
102
RTVSPropertyOp41
 70
     1
102
RTVSPropertyOp42
 70
     1
102
RTVSPropertyOp43
 70
     1
102
RTVSPropertyOp44
 70
     1
102
RTVSPropertyOp45
 70
     1
102
RTVSPropertyOp46
 70
     1
102
RTVSPropertyOp47
 70
     1
102
RTVSPropertyOp48
 70
     1
102
RTVSPropertyOp49
 70
     1
102
RTVSPropertyOp50
 70
     1
102
RTVSPropertyOp51
 70
     0
102
RTVSPropertyOp52
 70
     0
102
RTVSPropertyOp53
 70
     1
102
RTVSPropertyOp54
 70
     1
102
RTVSPropertyOp55
 70
     1
102
RTVSPropertyOp56
 70
     1
102
RTVSPropertyOp57
 70
     1
102
RTVSPost2010Prop28
280
     0
102
RTVSPost2010PropOp28
 70
     1
102
RTVSPost2010Prop29
280
     1
102
RTVSPost2010PropOp29
 70
     1
102
RTVSPost2010Prop30
280
     1
102
RTVSPost2010PropOp30
 70
     1
102
RTVSPost2010Prop31
280
     0
102
RTVSPost2010PropOp31
 70
     1
102
RTVSPost2010Prop32
280
     0
102
RTVSPost2010PropOp32
 70
     1
102
RTVSPost2010Prop33
280
     0
102
RTVSPost2010PropOp33
 70
     1
102
RTVSPost2010Prop34
280
     0
102
RTVSPost2010PropOp34
 70
     1
102
RTVSPost2010Prop35
280
     0
102
RTVSPost2010PropOp35
 70
     1
102
RTVSPost2010Prop36
280
     0
102
RTVSPost2010PropOp36
 70
     1
102
RTVSPost2010Prop37
 90
       50
102
RTVSPost2010PropOp37
 70
     1
102
RTVSPost2010Prop38
140
0.0
102
RTVSPost2010PropOp38
 70
     1
102
RTVSPost2010Prop39
140
1.0
102
RTVSPost2010PropOp39
 70
     1
102
RTVSPost2010Prop40
 90
        0
102
RTVSPost2010PropOp40
 70
     1
102
RTVSPost2010Prop41ColorIndex
 90
       18
102
RTVSPost2010Prop41ColorRGB
 90
        0
102
RTVSPost2010PropOp41
 70
     1
102
RTVSPost2010Prop42
 90
       50
102
RTVSPost2010PropOp42
 70
     1
102
RTVSPost2010Prop43
 90
        3
102
RTVSPost2010PropOp43
 70
     1
102
RTVSPost2010Prop44ColorIndex
 90
        5
102
RTVSPost2010Prop44ColorRGB
 90
      255
102
RTVSPost2010PropOp44
 70
     1
102
RTVSPost2010Prop45
280
     0
102
RTVSPost2010PropOp45
 70
     1
102
RTVSPost2010Prop46
 90
       50
102
RTVSPost2010PropOp46
 70
     1
102
RTVSPost2010Prop47
 90
       50
102
RTVSPost2010PropOp47
 70
     1
102
RTVSPost2010Prop48
 90
       50
102
RTVSPost2010PropOp48
 70
     1
102
RTVSPost2010Prop49
280
     0
102
RTVSPost2010PropOp49
 70
     1
102
RTVSPost2010Prop50
 90
       50
102
RTVSPost2010PropOp50
 70
     1
102
RTVSPost2010Prop51ColorIndex
 90
      256
102
RTVSPost2010Prop51ColorRGB
 90
-16777216
102
RTVSPost2010PropOp51
 70
     0
102
RTVSPost2010Prop52
140
1.0
102
RTVSPost2010PropOp52
 70
     0
102
RTVSPost2010Prop53
 90
        2
102
RTVSPost2010PropOp53
 70
     1
102
RTVSPost2010Prop54
  1
strokes_ogs.tif
102
RTVSPost2010PropOp54
 70
     1
102
RTVSPost2010Prop55
280
     0
102
RTVSPost2010PropOp55
 70
     1
102
RTVSPost2010Prop56
140
1.0
102
RTVSPost2010PropOp56
 70
     1
102
RTVSPost2010Prop57
140
1.0
102
RTVSPost2010PropOp57
 70
     1
  0
XRECORD
  5
540
102
{ACAD_REACTORS
330
53F
102
}
330
53F
100
AcDbXrecord
280
     1
102
RTVSPropertyOp0
 70
     1
102
RTVSPropertyOp1
 70
     1
102
RTVSPropertyOp2
 70
     1
102
RTVSPropertyOp3
 70
     1
102
RTVSPropertyOp4
 70
     1
102
RTVSPropertyOp5
 70
     1
102
RTVSPropertyOp6
 70
     1
102
RTVSPropertyOp7
 70
     1
102
RTVSPropertyOp8
 70
     1
102
RTVSPropertyOp9
 70
     1
102
RTVSPropertyOp10
 70
     1
102
RTVSPropertyOp11
 70
     1
102
RTVSPropertyOp12
 70
     1
102
RTVSPropertyOp13
 70
     1
102
RTVSPropertyOp14
 70
     1
102
RTVSPropertyOp15
 70
     1
102
RTVSPropertyOp16
 70
     1
102
RTVSPropertyOp17
 70
     1
102
RTVSPropertyOp18
 70
     1
102
RTVSPropertyOp19
 70
     1
102
RTVSPropertyOp20
 70
     1
102
RTVSPropertyOp21
 70
     1
102
RTVSPropertyOp22
 70
     1
102
RTVSPropertyOp23
 70
     1
102
RTVSPropertyOp24
 70
     1
102
RTVSPropertyOp25
 70
     1
102
RTVSPropertyOp26
 70
     1
102
RTVSPropertyOp27
 70
     1
102
RTVSPropertyOp28
 70
     1
102
RTVSPropertyOp29
 70
     1
102
RTVSPropertyOp30
 70
     1
102
RTVSPropertyOp31
 70
     1
102
RTVSPropertyOp32
 70
     1
102
RTVSPropertyOp33
 70
     1
102
RTVSPropertyOp34
 70
     1
102
RTVSPropertyOp35
 70
     1
102
RTVSPropertyOp36
 70
     1
102
RTVSPropertyOp37
 70
     1
102
RTVSPropertyOp38
 70
     1
102
RTVSPropertyOp39
 70
     1
102
RTVSPropertyOp40
 70
     1
102
RTVSPropertyOp41
 70
     1
102
RTVSPropertyOp42
 70
     1
102
RTVSPropertyOp43
 70
     1
102
RTVSPropertyOp44
 70
     1
102
RTVSPropertyOp45
 70
     1
102
RTVSPropertyOp46
 70
     1
102
RTVSPropertyOp47
 70
     1
102
RTVSPropertyOp48
 70
     1
102
RTVSPropertyOp49
 70
     1
102
RTVSPropertyOp50
 70
     1
102
RTVSPropertyOp51
 70
     0
102
RTVSPropertyOp52
 70
     0
102
RTVSPropertyOp53
 70
     1
102
RTVSPropertyOp54
 70
     1
102
RTVSPropertyOp55
 70
     1
102
RTVSPropertyOp56
 70
     1
102
RTVSPropertyOp57
 70
     1
102
RTVSPost2010Prop28
280
     0
102
RTVSPost2010PropOp28
 70
     1
102
RTVSPost2010Prop29
280
     1
102
RTVSPost2010PropOp29
 70
     1
102
RTVSPost2010Prop30
280
     1
102
RTVSPost2010PropOp30
 70
     1
102
RTVSPost2010Prop31
280
     0
102
RTVSPost2010PropOp31
 70
     1
102
RTVSPost2010Prop32
280
     0
102
RTVSPost2010PropOp32
 70
     1
102
RTVSPost2010Prop33
280
     0
102
RTVSPost2010PropOp33
 70
     1
102
RTVSPost2010Prop34
280
     0
102
RTVSPost2010PropOp34
 70
     1
102
RTVSPost2010Prop35
280
     0
102
RTVSPost2010PropOp35
 70
     1
102
RTVSPost2010Prop36
280
     0
102
RTVSPost2010PropOp36
 70
     1
102
RTVSPost2010Prop37
 90
       50
102
RTVSPost2010PropOp37
 70
     1
102
RTVSPost2010Prop38
140
0.0
102
RTVSPost2010PropOp38
 70
     1
102
RTVSPost2010Prop39
140
1.0
102
RTVSPost2010PropOp39
 70
     1
102
RTVSPost2010Prop40
 90
        0
102
RTVSPost2010PropOp40
 70
     1
102
RTVSPost2010Prop41ColorIndex
 90
       18
102
RTVSPost2010Prop41ColorRGB
 90
        0
102
RTVSPost2010PropOp41
 70
     1
102
RTVSPost2010Prop42
 90
       50
102
RTVSPost2010PropOp42
 70
     1
102
RTVSPost2010Prop43
 90
        3
102
RTVSPost2010PropOp43
 70
     1
102
RTVSPost2010Prop44ColorIndex
 90
        5
102
RTVSPost2010Prop44ColorRGB
 90
      255
102
RTVSPost2010PropOp44
 70
     1
102
RTVSPost2010Prop45
280
     0
102
RTVSPost2010PropOp45
 70
     1
102
RTVSPost2010Prop46
 90
       50
102
RTVSPost2010PropOp46
 70
     1
102
RTVSPost2010Prop47
 90
       50
102
RTVSPost2010PropOp47
 70
     1
102
RTVSPost2010Prop48
 90
       50
102
RTVSPost2010PropOp48
 70
     1
102
RTVSPost2010Prop49
280
     0
102
RTVSPost2010PropOp49
 70
     1
102
RTVSPost2010Prop50
 90
       50
102
RTVSPost2010PropOp50
 70
     1
102
RTVSPost2010Prop51ColorIndex
 90
      256
102
RTVSPost2010Prop51ColorRGB
 90
-16777216
102
RTVSPost2010PropOp51
 70
     0
102
RTVSPost2010Prop52
140
1.0
102
RTVSPost2010PropOp52
 70
     0
102
RTVSPost2010Prop53
 90
        2
102
RTVSPost2010PropOp53
 70
     1
102
RTVSPost2010Prop54
  1
strokes_ogs.tif
102
RTVSPost2010PropOp54
 70
     1
102
RTVSPost2010Prop55
280
     0
102
RTVSPost2010PropOp55
 70
     1
102
RTVSPost2010Prop56
140
1.0
102
RTVSPost2010PropOp56
 70
     1
102
RTVSPost2010Prop57
140
1.0
102
RTVSPost2010PropOp57
 70
     1
  0
XRECORD
  5
542
102
{ACAD_REACTORS
330
541
102
}
330
541
100
AcDbXrecord
280
     1
102
RTVSPropertyOp0
 70
     1
102
RTVSPropertyOp1
 70
     1
102
RTVSPropertyOp2
 70
     1
102
RTVSPropertyOp3
 70
     1
102
RTVSPropertyOp4
 70
     1
102
RTVSPropertyOp5
 70
     1
102
RTVSPropertyOp6
 70
     1
102
RTVSPropertyOp7
 70
     1
102
RTVSPropertyOp8
 70
     1
102
RTVSPropertyOp9
 70
     1
102
RTVSPropertyOp10
 70
     1
102
RTVSPropertyOp11
 70
     1
102
RTVSPropertyOp12
 70
     1
102
RTVSPropertyOp13
 70
     1
102
RTVSPropertyOp14
 70
     1
102
RTVSPropertyOp15
 70
     1
102
RTVSPropertyOp16
 70
     1
102
RTVSPropertyOp17
 70
     1
102
RTVSPropertyOp18
 70
     1
102
RTVSPropertyOp19
 70
     1
102
RTVSPropertyOp20
 70
     1
102
RTVSPropertyOp21
 70
     1
102
RTVSPropertyOp22
 70
     1
102
RTVSPropertyOp23
 70
     1
102
RTVSPropertyOp24
 70
     1
102
RTVSPropertyOp25
 70
     1
102
RTVSPropertyOp26
 70
     1
102
RTVSPropertyOp27
 70
     1
102
RTVSPropertyOp28
 70
     1
102
RTVSPropertyOp29
 70
     1
102
RTVSPropertyOp30
 70
     1
102
RTVSPropertyOp31
 70
     1
102
RTVSPropertyOp32
 70
     1
102
RTVSPropertyOp33
 70
     1
102
RTVSPropertyOp34
 70
     1
102
RTVSPropertyOp35
 70
     1
102
RTVSPropertyOp36
 70
     1
102
RTVSPropertyOp37
 70
     1
102
RTVSPropertyOp38
 70
     1
102
RTVSPropertyOp39
 70
     1
102
RTVSPropertyOp40
 70
     1
102
RTVSPropertyOp41
 70
     1
102
RTVSPropertyOp42
 70
     1
102
RTVSPropertyOp43
 70
     1
102
RTVSPropertyOp44
 70
     1
102
RTVSPropertyOp45
 70
     1
102
RTVSPropertyOp46
 70
     1
102
RTVSPropertyOp47
 70
     1
102
RTVSPropertyOp48
 70
     1
102
RTVSPropertyOp49
 70
     1
102
RTVSPropertyOp50
 70
     1
102
RTVSPropertyOp51
 70
     0
102
RTVSPropertyOp52
 70
     0
102
RTVSPropertyOp53
 70
     1
102
RTVSPropertyOp54
 70
     1
102
RTVSPropertyOp55
 70
     1
102
RTVSPropertyOp56
 70
     1
102
RTVSPropertyOp57
 70
     1
102
RTVSPost2010Prop28
280
     0
102
RTVSPost2010PropOp28
 70
     1
102
RTVSPost2010Prop29
280
     1
102
RTVSPost2010PropOp29
 70
     1
102
RTVSPost2010Prop30
280
     1
102
RTVSPost2010PropOp30
 70
     1
102
RTVSPost2010Prop31
280
     0
102
RTVSPost2010PropOp31
 70
     1
102
RTVSPost2010Prop32
280
     0
102
RTVSPost2010PropOp32
 70
     1
102
RTVSPost2010Prop33
280
     0
102
RTVSPost2010PropOp33
 70
     1
102
RTVSPost2010Prop34
280
     0
102
RTVSPost2010PropOp34
 70
     1
102
RTVSPost2010Prop35
280
     0
102
RTVSPost2010PropOp35
 70
     1
102
RTVSPost2010Prop36
280
     0
102
RTVSPost2010PropOp36
 70
     1
102
RTVSPost2010Prop37
 90
       50
102
RTVSPost2010PropOp37
 70
     1
102
RTVSPost2010Prop38
140
0.0
102
RTVSPost2010PropOp38
 70
     1
102
RTVSPost2010Prop39
140
1.0
102
RTVSPost2010PropOp39
 70
     1
102
RTVSPost2010Prop40
 90
        0
102
RTVSPost2010PropOp40
 70
     1
102
RTVSPost2010Prop41ColorIndex
 90
       18
102
RTVSPost2010Prop41ColorRGB
 90
        0
102
RTVSPost2010PropOp41
 70
     1
102
RTVSPost2010Prop42
 90
       50
102
RTVSPost2010PropOp42
 70
     1
102
RTVSPost2010Prop43
 90
        3
102
RTVSPost2010PropOp43
 70
     1
102
RTVSPost2010Prop44ColorIndex
 90
        5
102
RTVSPost2010Prop44ColorRGB
 90
      255
102
RTVSPost2010PropOp44
 70
     1
102
RTVSPost2010Prop45
280
     0
102
RTVSPost2010PropOp45
 70
     1
102
RTVSPost2010Prop46
 90
       50
102
RTVSPost2010PropOp46
 70
     1
102
RTVSPost2010Prop47
 90
       50
102
RTVSPost2010PropOp47
 70
     1
102
RTVSPost2010Prop48
 90
       50
102
RTVSPost2010PropOp48
 70
     1
102
RTVSPost2010Prop49
280
     0
102
RTVSPost2010PropOp49
 70
     1
102
RTVSPost2010Prop50
 90
       50
102
RTVSPost2010PropOp50
 70
     1
102
RTVSPost2010Prop51ColorIndex
 90
      256
102
RTVSPost2010Prop51ColorRGB
 90
-16777216
102
RTVSPost2010PropOp51
 70
     0
102
RTVSPost2010Prop52
140
1.0
102
RTVSPost2010PropOp52
 70
     0
102
RTVSPost2010Prop53
 90
        2
102
RTVSPost2010PropOp53
 70
     1
102
RTVSPost2010Prop54
  1
strokes_ogs.tif
102
RTVSPost2010PropOp54
 70
     1
102
RTVSPost2010Prop55
280
     0
102
RTVSPost2010PropOp55
 70
     1
102
RTVSPost2010Prop56
140
1.0
102
RTVSPost2010PropOp56
 70
     1
102
RTVSPost2010Prop57
140
1.0
102
RTVSPost2010PropOp57
 70
     1
  0
XRECORD
  5
556
102
{ACAD_REACTORS
330
555
102
}
330
555
100
AcDbXrecord
280
     1
102
RTVSPropertyOp0
 70
     1
102
RTVSPropertyOp1
 70
     1
102
RTVSPropertyOp2
 70
     1
102
RTVSPropertyOp3
 70
     1
102
RTVSPropertyOp4
 70
     1
102
RTVSPropertyOp5
 70
     1
102
RTVSPropertyOp6
 70
     1
102
RTVSPropertyOp7
 70
     1
102
RTVSPropertyOp8
 70
     1
102
RTVSPropertyOp9
 70
     1
102
RTVSPropertyOp10
 70
     1
102
RTVSPropertyOp11
 70
     1
102
RTVSPropertyOp12
 70
     1
102
RTVSPropertyOp13
 70
     1
102
RTVSPropertyOp14
 70
     1
102
RTVSPropertyOp15
 70
     1
102
RTVSPropertyOp16
 70
     1
102
RTVSPropertyOp17
 70
     1
102
RTVSPropertyOp18
 70
     1
102
RTVSPropertyOp19
 70
     1
102
RTVSPropertyOp20
 70
     1
102
RTVSPropertyOp21
 70
     1
102
RTVSPropertyOp22
 70
     1
102
RTVSPropertyOp23
 70
     1
102
RTVSPropertyOp24
 70
     1
102
RTVSPropertyOp25
 70
     1
102
RTVSPropertyOp26
 70
     1
102
RTVSPropertyOp27
 70
     1
102
RTVSPropertyOp28
 70
     1
102
RTVSPropertyOp29
 70
     1
102
RTVSPropertyOp30
 70
     1
102
RTVSPropertyOp31
 70
     1
102
RTVSPropertyOp32
 70
     1
102
RTVSPropertyOp33
 70
     1
102
RTVSPropertyOp34
 70
     1
102
RTVSPropertyOp35
 70
     1
102
RTVSPropertyOp36
 70
     1
102
RTVSPropertyOp37
 70
     1
102
RTVSPropertyOp38
 70
     1
102
RTVSPropertyOp39
 70
     1
102
RTVSPropertyOp40
 70
     1
102
RTVSPropertyOp41
 70
     1
102
RTVSPropertyOp42
 70
     1
102
RTVSPropertyOp43
 70
     1
102
RTVSPropertyOp44
 70
     1
102
RTVSPropertyOp45
 70
     1
102
RTVSPropertyOp46
 70
     1
102
RTVSPropertyOp47
 70
     1
102
RTVSPropertyOp48
 70
     1
102
RTVSPropertyOp49
 70
     1
102
RTVSPropertyOp50
 70
     1
102
RTVSPropertyOp51
 70
     0
102
RTVSPropertyOp52
 70
     0
102
RTVSPropertyOp53
 70
     1
102
RTVSPropertyOp54
 70
     1
102
RTVSPropertyOp55
 70
     1
102
RTVSPropertyOp56
 70
     1
102
RTVSPropertyOp57
 70
     1
102
RTVSPost2010Prop28
280
     0
102
RTVSPost2010PropOp28
 70
     1
102
RTVSPost2010Prop29
280
     1
102
RTVSPost2010PropOp29
 70
     1
102
RTVSPost2010Prop30
280
     1
102
RTVSPost2010PropOp30
 70
     1
102
RTVSPost2010Prop31
280
     0
102
RTVSPost2010PropOp31
 70
     1
102
RTVSPost2010Prop32
280
     0
102
RTVSPost2010PropOp32
 70
     1
102
RTVSPost2010Prop33
280
     0
102
RTVSPost2010PropOp33
 70
     1
102
RTVSPost2010Prop34
280
     0
102
RTVSPost2010PropOp34
 70
     1
102
RTVSPost2010Prop35
280
     0
102
RTVSPost2010PropOp35
 70
     1
102
RTVSPost2010Prop36
280
     0
102
RTVSPost2010PropOp36
 70
     1
102
RTVSPost2010Prop37
 90
       50
102
RTVSPost2010PropOp37
 70
     1
102
RTVSPost2010Prop38
140
0.0
102
RTVSPost2010PropOp38
 70
     1
102
RTVSPost2010Prop39
140
1.0
102
RTVSPost2010PropOp39
 70
     1
102
RTVSPost2010Prop40
 90
        0
102
RTVSPost2010PropOp40
 70
     1
102
RTVSPost2010Prop41ColorIndex
 90
       18
102
RTVSPost2010Prop41ColorRGB
 90
        0
102
RTVSPost2010PropOp41
 70
     1
102
RTVSPost2010Prop42
 90
       50
102
RTVSPost2010PropOp42
 70
     1
102
RTVSPost2010Prop43
 90
        3
102
RTVSPost2010PropOp43
 70
     1
102
RTVSPost2010Prop44ColorIndex
 90
        5
102
RTVSPost2010Prop44ColorRGB
 90
      255
102
RTVSPost2010PropOp44
 70
     1
102
RTVSPost2010Prop45
280
     0
102
RTVSPost2010PropOp45
 70
     1
102
RTVSPost2010Prop46
 90
       50
102
RTVSPost2010PropOp46
 70
     1
102
RTVSPost2010Prop47
 90
       50
102
RTVSPost2010PropOp47
 70
     1
102
RTVSPost2010Prop48
 90
       50
102
RTVSPost2010PropOp48
 70
     1
102
RTVSPost2010Prop49
280
     0
102
RTVSPost2010PropOp49
 70
     1
102
RTVSPost2010Prop50
 90
       50
102
RTVSPost2010PropOp50
 70
     1
102
RTVSPost2010Prop51ColorIndex
 90
      256
102
RTVSPost2010Prop51ColorRGB
 90
-16777216
102
RTVSPost2010PropOp51
 70
     0
102
RTVSPost2010Prop52
140
1.0
102
RTVSPost2010PropOp52
 70
     0
102
RTVSPost2010Prop53
 90
        2
102
RTVSPost2010PropOp53
 70
     1
102
RTVSPost2010Prop54
  1
strokes_ogs.tif
102
RTVSPost2010PropOp54
 70
     1
102
RTVSPost2010Prop55
280
     0
102
RTVSPost2010PropOp55
 70
     1
102
RTVSPost2010Prop56
140
1.0
102
RTVSPost2010PropOp56
 70
     1
102
RTVSPost2010Prop57
140
1.0
102
RTVSPost2010PropOp57
 70
     1
  0
XRECORD
  5
54C
102
{ACAD_REACTORS
330
54B
102
}
330
54B
100
AcDbXrecord
280
     1
102
RTVSPropertyOp0
 70
     1
102
RTVSPropertyOp1
 70
     1
102
RTVSPropertyOp2
 70
     1
102
RTVSPropertyOp3
 70
     1
102
RTVSPropertyOp4
 70
     1
102
RTVSPropertyOp5
 70
     1
102
RTVSPropertyOp6
 70
     1
102
RTVSPropertyOp7
 70
     1
102
RTVSPropertyOp8
 70
     1
102
RTVSPropertyOp9
 70
     1
102
RTVSPropertyOp10
 70
     1
102
RTVSPropertyOp11
 70
     1
102
RTVSPropertyOp12
 70
     1
102
RTVSPropertyOp13
 70
     1
102
RTVSPropertyOp14
 70
     1
102
RTVSPropertyOp15
 70
     1
102
RTVSPropertyOp16
 70
     1
102
RTVSPropertyOp17
 70
     1
102
RTVSPropertyOp18
 70
     1
102
RTVSPropertyOp19
 70
     1
102
RTVSPropertyOp20
 70
     1
102
RTVSPropertyOp21
 70
     1
102
RTVSPropertyOp22
 70
     1
102
RTVSPropertyOp23
 70
     1
102
RTVSPropertyOp24
 70
     1
102
RTVSPropertyOp25
 70
     1
102
RTVSPropertyOp26
 70
     1
102
RTVSPropertyOp27
 70
     1
102
RTVSPropertyOp28
 70
     1
102
RTVSPropertyOp29
 70
     1
102
RTVSPropertyOp30
 70
     1
102
RTVSPropertyOp31
 70
     1
102
RTVSPropertyOp32
 70
     1
102
RTVSPropertyOp33
 70
     1
102
RTVSPropertyOp34
 70
     1
102
RTVSPropertyOp35
 70
     1
102
RTVSPropertyOp36
 70
     1
102
RTVSPropertyOp37
 70
     1
102
RTVSPropertyOp38
 70
     1
102
RTVSPropertyOp39
 70
     1
102
RTVSPropertyOp40
 70
     1
102
RTVSPropertyOp41
 70
     1
102
RTVSPropertyOp42
 70
     1
102
RTVSPropertyOp43
 70
     1
102
RTVSPropertyOp44
 70
     1
102
RTVSPropertyOp45
 70
     1
102
RTVSPropertyOp46
 70
     1
102
RTVSPropertyOp47
 70
     1
102
RTVSPropertyOp48
 70
     1
102
RTVSPropertyOp49
 70
     1
102
RTVSPropertyOp50
 70
     1
102
RTVSPropertyOp51
 70
     0
102
RTVSPropertyOp52
 70
     0
102
RTVSPropertyOp53
 70
     1
102
RTVSPropertyOp54
 70
     1
102
RTVSPropertyOp55
 70
     1
102
RTVSPropertyOp56
 70
     1
102
RTVSPropertyOp57
 70
     1
102
RTVSPost2010Prop28
280
     0
102
RTVSPost2010PropOp28
 70
     1
102
RTVSPost2010Prop29
280
     1
102
RTVSPost2010PropOp29
 70
     1
102
RTVSPost2010Prop30
280
     1
102
RTVSPost2010PropOp30
 70
     1
102
RTVSPost2010Prop31
280
     0
102
RTVSPost2010PropOp31
 70
     1
102
RTVSPost2010Prop32
280
     0
102
RTVSPost2010PropOp32
 70
     1
102
RTVSPost2010Prop33
280
     0
102
RTVSPost2010PropOp33
 70
     1
102
RTVSPost2010Prop34
280
     0
102
RTVSPost2010PropOp34
 70
     1
102
RTVSPost2010Prop35
280
     0
102
RTVSPost2010PropOp35
 70
     1
102
RTVSPost2010Prop36
280
     0
102
RTVSPost2010PropOp36
 70
     1
102
RTVSPost2010Prop37
 90
       50
102
RTVSPost2010PropOp37
 70
     1
102
RTVSPost2010Prop38
140
0.0
102
RTVSPost2010PropOp38
 70
     1
102
RTVSPost2010Prop39
140
1.0
102
RTVSPost2010PropOp39
 70
     1
102
RTVSPost2010Prop40
 90
        0
102
RTVSPost2010PropOp40
 70
     1
102
RTVSPost2010Prop41ColorIndex
 90
       18
102
RTVSPost2010Prop41ColorRGB
 90
        0
102
RTVSPost2010PropOp41
 70
     1
102
RTVSPost2010Prop42
 90
       50
102
RTVSPost2010PropOp42
 70
     1
102
RTVSPost2010Prop43
 90
        3
102
RTVSPost2010PropOp43
 70
     1
102
RTVSPost2010Prop44ColorIndex
 90
        5
102
RTVSPost2010Prop44ColorRGB
 90
      255
102
RTVSPost2010PropOp44
 70
     1
102
RTVSPost2010Prop45
280
     0
102
RTVSPost2010PropOp45
 70
     1
102
RTVSPost2010Prop46
 90
       50
102
RTVSPost2010PropOp46
 70
     1
102
RTVSPost2010Prop47
 90
       50
102
RTVSPost2010PropOp47
 70
     1
102
RTVSPost2010Prop48
 90
       50
102
RTVSPost2010PropOp48
 70
     1
102
RTVSPost2010Prop49
280
     0
102
RTVSPost2010PropOp49
 70
     1
102
RTVSPost2010Prop50
 90
       50
102
RTVSPost2010PropOp50
 70
     1
102
RTVSPost2010Prop51ColorIndex
 90
      256
102
RTVSPost2010Prop51ColorRGB
 90
-16777216
102
RTVSPost2010PropOp51
 70
     0
102
RTVSPost2010Prop52
140
1.0
102
RTVSPost2010PropOp52
 70
     0
102
RTVSPost2010Prop53
 90
        2
102
RTVSPost2010PropOp53
 70
     1
102
RTVSPost2010Prop54
  1
strokes_ogs.tif
102
RTVSPost2010PropOp54
 70
     1
102
RTVSPost2010Prop55
280
     0
102
RTVSPost2010PropOp55
 70
     1
102
RTVSPost2010Prop56
140
1.0
102
RTVSPost2010PropOp56
 70
     1
102
RTVSPost2010Prop57
140
1.0
102
RTVSPost2010PropOp57
 70
     1
  0
XRECORD
  5
554
102
{ACAD_REACTORS
330
553
102
}
330
553
100
AcDbXrecord
280
     1
102
RTVSPropertyOp0
 70
     1
102
RTVSPropertyOp1
 70
     1
102
RTVSPropertyOp2
 70
     1
102
RTVSPropertyOp3
 70
     1
102
RTVSPropertyOp4
 70
     1
102
RTVSPropertyOp5
 70
     1
102
RTVSPropertyOp6
 70
     1
102
RTVSPropertyOp7
 70
     1
102
RTVSPropertyOp8
 70
     1
102
RTVSPropertyOp9
 70
     1
102
RTVSPropertyOp10
 70
     1
102
RTVSPropertyOp11
 70
     1
102
RTVSPropertyOp12
 70
     1
102
RTVSPropertyOp13
 70
     1
102
RTVSPropertyOp14
 70
     1
102
RTVSPropertyOp15
 70
     1
102
RTVSPropertyOp16
 70
     1
102
RTVSPropertyOp17
 70
     1
102
RTVSPropertyOp18
 70
     1
102
RTVSPropertyOp19
 70
     1
102
RTVSPropertyOp20
 70
     1
102
RTVSPropertyOp21
 70
     1
102
RTVSPropertyOp22
 70
     1
102
RTVSPropertyOp23
 70
     1
102
RTVSPropertyOp24
 70
     1
102
RTVSPropertyOp25
 70
     1
102
RTVSPropertyOp26
 70
     1
102
RTVSPropertyOp27
 70
     1
102
RTVSPropertyOp28
 70
     1
102
RTVSPropertyOp29
 70
     1
102
RTVSPropertyOp30
 70
     1
102
RTVSPropertyOp31
 70
     1
102
RTVSPropertyOp32
 70
     1
102
RTVSPropertyOp33
 70
     1
102
RTVSPropertyOp34
 70
     1
102
RTVSPropertyOp35
 70
     1
102
RTVSPropertyOp36
 70
     1
102
RTVSPropertyOp37
 70
     1
102
RTVSPropertyOp38
 70
     1
102
RTVSPropertyOp39
 70
     1
102
RTVSPropertyOp40
 70
     1
102
RTVSPropertyOp41
 70
     1
102
RTVSPropertyOp42
 70
     1
102
RTVSPropertyOp43
 70
     1
102
RTVSPropertyOp44
 70
     1
102
RTVSPropertyOp45
 70
     1
102
RTVSPropertyOp46
 70
     1
102
RTVSPropertyOp47
 70
     1
102
RTVSPropertyOp48
 70
     1
102
RTVSPropertyOp49
 70
     1
102
RTVSPropertyOp50
 70
     1
102
RTVSPropertyOp51
 70
     0
102
RTVSPropertyOp52
 70
     0
102
RTVSPropertyOp53
 70
     1
102
RTVSPropertyOp54
 70
     1
102
RTVSPropertyOp55
 70
     1
102
RTVSPropertyOp56
 70
     1
102
RTVSPropertyOp57
 70
     1
102
RTVSPost2010Prop28
280
     0
102
RTVSPost2010PropOp28
 70
     1
102
RTVSPost2010Prop29
280
     1
102
RTVSPost2010PropOp29
 70
     1
102
RTVSPost2010Prop30
280
     1
102
RTVSPost2010PropOp30
 70
     1
102
RTVSPost2010Prop31
280
     0
102
RTVSPost2010PropOp31
 70
     1
102
RTVSPost2010Prop32
280
     0
102
RTVSPost2010PropOp32
 70
     1
102
RTVSPost2010Prop33
280
     0
102
RTVSPost2010PropOp33
 70
     1
102
RTVSPost2010Prop34
280
     0
102
RTVSPost2010PropOp34
 70
     1
102
RTVSPost2010Prop35
280
     0
102
RTVSPost2010PropOp35
 70
     1
102
RTVSPost2010Prop36
280
     0
102
RTVSPost2010PropOp36
 70
     1
102
RTVSPost2010Prop37
 90
       50
102
RTVSPost2010PropOp37
 70
     1
102
RTVSPost2010Prop38
140
0.0
102
RTVSPost2010PropOp38
 70
     1
102
RTVSPost2010Prop39
140
1.0
102
RTVSPost2010PropOp39
 70
     1
102
RTVSPost2010Prop40
 90
        0
102
RTVSPost2010PropOp40
 70
     1
102
RTVSPost2010Prop41ColorIndex
 90
       18
102
RTVSPost2010Prop41ColorRGB
 90
        0
102
RTVSPost2010PropOp41
 70
     1
102
RTVSPost2010Prop42
 90
       50
102
RTVSPost2010PropOp42
 70
     1
102
RTVSPost2010Prop43
 90
        3
102
RTVSPost2010PropOp43
 70
     1
102
RTVSPost2010Prop44ColorIndex
 90
        5
102
RTVSPost2010Prop44ColorRGB
 90
      255
102
RTVSPost2010PropOp44
 70
     1
102
RTVSPost2010Prop45
280
     0
102
RTVSPost2010PropOp45
 70
     1
102
RTVSPost2010Prop46
 90
       50
102
RTVSPost2010PropOp46
 70
     1
102
RTVSPost2010Prop47
 90
       50
102
RTVSPost2010PropOp47
 70
     1
102
RTVSPost2010Prop48
 90
       50
102
RTVSPost2010PropOp48
 70
     1
102
RTVSPost2010Prop49
280
     0
102
RTVSPost2010PropOp49
 70
     1
102
RTVSPost2010Prop50
 90
       50
102
RTVSPost2010PropOp50
 70
     1
102
RTVSPost2010Prop51ColorIndex
 90
      256
102
RTVSPost2010Prop51ColorRGB
 90
-16777216
102
RTVSPost2010PropOp51
 70
     0
102
RTVSPost2010Prop52
140
1.0
102
RTVSPost2010PropOp52
 70
     0
102
RTVSPost2010Prop53
 90
        2
102
RTVSPost2010PropOp53
 70
     1
102
RTVSPost2010Prop54
  1
strokes_ogs.tif
102
RTVSPost2010PropOp54
 70
     1
102
RTVSPost2010Prop55
280
     0
102
RTVSPost2010PropOp55
 70
     1
102
RTVSPost2010Prop56
140
1.0
102
RTVSPost2010PropOp56
 70
     1
102
RTVSPost2010Prop57
140
1.0
102
RTVSPost2010PropOp57
 70
     1
  0
ENDSEC
  0
EOF
