  0
SECTION
  2
HEADER
  9
$ACADVER
  1
AC1018
  9
$ACADMAINTVER
 70
     0
  9
$DWGCODEPAGE
  3
ANSI_936
  9
$INSBASE
 10
0.0
 20
0.0
 30
0.0
  9
$EXTMIN
 10
509.680706456217
 20
1046.680706456217
 30
0.0
  9
$EXTMAX
 10
750.6807064583604
 20
1122.032631393991
 30
0.0
  9
$LIMMIN
 10
0.0
 20
0.0
  9
$LIMMAX
 10
12.0
 20
9.0
  9
$ORTHOMODE
 70
     0
  9
$REGENMODE
 70
     1
  9
$FILLMODE
 70
     1
  9
$QTEXTMODE
 70
     0
  9
$MIRRTEXT
 70
     1
  9
$LTSCALE
 40
1.0
  9
$ATTMODE
 70
     1
  9
$TEXTSIZE
 40
0.2
  9
$TRACEWID
 40
0.05
  9
$TEXTSTYLE
  7
Standard
  9
$CLAYER
  8
E9127
  9
$CELTYPE
  6
ByLayer
  9
$CECOLOR
 62
   256
  9
$CELTSCALE
 40
1.0
  9
$DISPSILH
 70
     0
  9
$DIMSCALE
 40
1.0
  9
$DIMASZ
 40
0.18
  9
$DIMEXO
 40
0.0625
  9
$DIMDLI
 40
0.38
  9
$DIMRND
 40
0.0
  9
$DIMDLE
 40
0.0
  9
$DIMEXE
 40
0.18
  9
$DIMTP
 40
0.0
  9
$DIMTM
 40
0.0
  9
$DIMTXT
 40
0.18
  9
$DIMCEN
 40
0.09
  9
$DIMTSZ
 40
0.0
  9
$DIMTOL
 70
     0
  9
$DIMLIM
 70
     0
  9
$DIMTIH
 70
     1
  9
$DIMTOH
 70
     1
  9
$DIMSE1
 70
     0
  9
$DIMSE2
 70
     0
  9
$DIMTAD
 70
     0
  9
$DIMZIN
 70
     0
  9
$DIMBLK
  1

  9
$DIMASO
 70
     1
  9
$DIMSHO
 70
     1
  9
$DIMPOST
  1

  9
$DIMAPOST
  1

  9
$DIMALT
 70
     0
  9
$DIMALTD
 70
     2
  9
$DIMALTF
 40
25.4
  9
$DIMLFAC
 40
1.0
  9
$DIMTOFL
 70
     0
  9
$DIMTVP
 40
0.0
  9
$DIMTIX
 70
     0
  9
$DIMSOXD
 70
     0
  9
$DIMSAH
 70
     0
  9
$DIMBLK1
  1

  9
$DIMBLK2
  1

  9
$DIMSTYLE
  2
Standard
  9
$DIMCLRD
 70
     0
  9
$DIMCLRE
 70
     0
  9
$DIMCLRT
 70
     0
  9
$DIMTFAC
 40
1.0
  9
$DIMGAP
 40
0.09
  9
$DIMJUST
 70
     0
  9
$DIMSD1
 70
     0
  9
$DIMSD2
 70
     0
  9
$DIMTOLJ
 70
     1
  9
$DIMTZIN
 70
     0
  9
$DIMALTZ
 70
     0
  9
$DIMALTTZ
 70
     0
  9
$DIMUPT
 70
     0
  9
$DIMDEC
 70
     4
  9
$DIMTDEC
 70
     4
  9
$DIMALTU
 70
     2
  9
$DIMALTTD
 70
     2
  9
$DIMTXSTY
  7
Standard
  9
$DIMAUNIT
 70
     0
  9
$DIMADEC
 70
     0
  9
$DIMALTRND
 40
0.0
  9
$DIMAZIN
 70
     0
  9
$DIMDSEP
 70
    46
  9
$DIMATFIT
 70
     3
  9
$DIMFRAC
 70
     0
  9
$DIMLDRBLK
  1

  9
$DIMLUNIT
 70
     2
  9
$DIMLWD
 70
    -2
  9
$DIMLWE
 70
    -2
  9
$DIMTMOVE
 70
     2
  9
$LUNITS
 70
     2
  9
$LUPREC
 70
     2
  9
$SKETCHINC
 40
0.1
  9
$FILLETRAD
 40
0.5
  9
$AUNITS
 70
     0
  9
$AUPREC
 70
     0
  9
$MENU
  1
.
  9
$ELEVATION
 40
0.0
  9
$PELEVATION
 40
0.0
  9
$THICKNESS
 40
0.0
  9
$LIMCHECK
 70
     0
  9
$CHAMFERA
 40
0.5
  9
$CHAMFERB
 40
0.5
  9
$CHAMFERC
 40
1.0
  9
$CHAMFERD
 40
0.0
  9
$SKPOLY
 70
     0
  9
$TDCREATE
 40
2456749.428767581
  9
$TDUCREATE
 40
2456749.095434248
  9
$TDUPDATE
 40
2456749.428768125
  9
$TDUUPDATE
 40
2456749.095434792
  9
$TDINDWG
 40
0.0000000116
  9
$TDUSRTIMER
 40
0.0000000116
  9
$USRTIMER
 70
     1
  9
$ANGBASE
 50
0.0
  9
$ANGDIR
 70
     0
  9
$PDMODE
 70
     0
  9
$PDSIZE
 40
0.0
  9
$PLINEWID
 40
0.0
  9
$SPLFRAME
 70
     0
  9
$SPLINETYPE
 70
     6
  9
$SPLINESEGS
 70
     8
  9
$HANDSEED
  5
54D
  9
$SURFTAB1
 70
     6
  9
$SURFTAB2
 70
     6
  9
$SURFTYPE
 70
     6
  9
$SURFU
 70
     6
  9
$SURFV
 70
     6
  9
$UCSBASE
  2

  9
$UCSNAME
  2

  9
$UCSORG
 10
0.0
 20
0.0
 30
0.0
  9
$UCSXDIR
 10
1.0
 20
0.0
 30
0.0
  9
$UCSYDIR
 10
0.0
 20
1.0
 30
0.0
  9
$UCSORTHOREF
  2

  9
$UCSORTHOVIEW
 70
     0
  9
$UCSORGTOP
 10
0.0
 20
0.0
 30
0.0
  9
$UCSORGBOTTOM
 10
0.0
 20
0.0
 30
0.0
  9
$UCSORGLEFT
 10
0.0
 20
0.0
 30
0.0
  9
$UCSORGRIGHT
 10
0.0
 20
0.0
 30
0.0
  9
$UCSORGFRONT
 10
0.0
 20
0.0
 30
0.0
  9
$UCSORGBACK
 10
0.0
 20
0.0
 30
0.0
  9
$PUCSBASE
  2

  9
$PUCSNAME
  2

  9
$PUCSORG
 10
0.0
 20
0.0
 30
0.0
  9
$PUCSXDIR
 10
1.0
 20
0.0
 30
0.0
  9
$PUCSYDIR
 10
0.0
 20
1.0
 30
0.0
  9
$PUCSORTHOREF
  2

  9
$PUCSORTHOVIEW
 70
     0
  9
$PUCSORGTOP
 10
0.0
 20
0.0
 30
0.0
  9
$PUCSORGBOTTOM
 10
0.0
 20
0.0
 30
0.0
  9
$PUCSORGLEFT
 10
0.0
 20
0.0
 30
0.0
  9
$PUCSORGRIGHT
 10
0.0
 20
0.0
 30
0.0
  9
$PUCSORGFRONT
 10
0.0
 20
0.0
 30
0.0
  9
$PUCSORGBACK
 10
0.0
 20
0.0
 30
0.0
  9
$USERI1
 70
     0
  9
$USERI2
 70
     0
  9
$USERI3
 70
     0
  9
$USERI4
 70
     0
  9
$USERI5
 70
     0
  9
$USERR1
 40
0.0
  9
$USERR2
 40
0.0
  9
$USERR3
 40
0.0
  9
$USERR4
 40
0.0
  9
$USERR5
 40
0.0
  9
$WORLDVIEW
 70
     1
  9
$SHADEDGE
 70
     3
  9
$SHADEDIF
 70
    70
  9
$TILEMODE
 70
     1
  9
$MAXACTVP
 70
    64
  9
$PINSBASE
 10
0.0
 20
0.0
 30
0.0
  9
$PLIMCHECK
 70
     0
  9
$PEXTMIN
 10
1.000000000000000E+20
 20
1.000000000000000E+20
 30
1.000000000000000E+20
  9
$PEXTMAX
 10
-1.000000000000000E+20
 20
-1.000000000000000E+20
 30
-1.000000000000000E+20
  9
$PLIMMIN
 10
0.0
 20
0.0
  9
$PLIMMAX
 10
12.0
 20
9.0
  9
$UNITMODE
 70
     0
  9
$VISRETAIN
 70
     1
  9
$PLINEGEN
 70
     0
  9
$PSLTSCALE
 70
     1
  9
$TREEDEPTH
 70
  3020
  9
$CMLSTYLE
  2
Standard
  9
$CMLJUST
 70
     0
  9
$CMLSCALE
 40
1.0
  9
$PROXYGRAPHICS
 70
     1
  9
$MEASUREMENT
 70
     0
  9
$CELWEIGHT
370
    -1
  9
$ENDCAPS
280
     0
  9
$JOINSTYLE
280
     0
  9
$LWDISPLAY
290
     0
  9
$INSUNITS
 70
     4
  9
$HYPERLINKBASE
  1

  9
$STYLESHEET
  1

  9
$XEDIT
290
     1
  9
$CEPSNTYPE
380
     0
  9
$PSTYLEMODE
290
     1
  9
$FINGERPRINTGUID
  2
{BEC3FA93-01CE-4B9B-8F79-04997CC18541}
  9
$VERSIONGUID
  2
{FAEB1C32-E019-11D5-929B-00C0DF256EC4}
  9
$EXTNAMES
290
     1
  9
$PSVPSCALE
 40
0.0
  9
$OLESTARTUP
290
     0
  9
$SORTENTS
280
   127
  9
$INDEXCTL
280
     0
  9
$HIDETEXT
280
     1
  9
$XCLIPFRAME
290
     0
  9
$HALOGAP
280
     0
  9
$OBSCOLOR
 70
   257
  9
$OBSLTYPE
280
     0
  9
$INTERSECTIONDISPLAY
280
     0
  9
$INTERSECTIONCOLOR
 70
   257
  9
$DIMASSOC
280
     2
  9
$PROJECTNAME
  1

  0
ENDSEC
  0
SECTION
  2
CLASSES
  0
CLASS
  1
ACDBDICTIONARYWDFLT
  2
AcDbDictionaryWithDefault
  3
ObjectDBX Classes
 90
        0
 91
        4
280
     0
281
     0
  0
CLASS
  1
VISUALSTYLE
  2
AcDbVisualStyle
  3
ObjectDBX Classes
 90
     4095
 91
        4
280
     0
281
     0
  0
CLASS
  1
MATERIAL
  2
AcDbMaterial
  3
ObjectDBX Classes
 90
     1153
 91
        4
280
     0
281
     0
  0
CLASS
  1
SCALE
  2
AcDbScale
  3
ObjectDBX Classes
 90
     1153
 91
        4
280
     0
281
     0
  0
CLASS
  1
SUN
  2
AcDbSun
  3
SCENEOE
 90
     1153
 91
        4
280
     0
281
     0
  0
CLASS
  1
DICTIONARYVAR
  2
AcDbDictionaryVar
  3
ObjectDBX Classes
 90
        0
 91
        4
280
     0
281
     0
  0
ENDSEC
  0
SECTION
  2
TABLES
  0
TABLE
  2
VPORT
  5
8
330
0
100
AcDbSymbolTable
 70
     1
  0
VPORT
  5
29
330
8
100
AcDbSymbolTableRecord
100
AcDbViewportTableRecord
  2
*Active
 70
     0
 10
0.0
 20
0.0
 11
1.0
 21
1.0
 12
630.1807064562171
 22
1084.356668924476
 13
0.0
 23
0.0
 14
0.5
 24
0.5
 15
0.5
 25
0.5
 16
0.0
 26
0.0
 36
1.0
 17
0.0
 27
0.0
 37
0.0
 40
76.85896343524941
 41
3.198325725627223
 42
50.0
 43
0.0
 44
0.0
 50
0.0
 51
0.0
 71
     0
 72
   100
 73
     1
 74
     3
 75
     0
 76
     0
 77
     0
 78
     0
281
     0
 65
     1
110
0.0
120
0.0
130
0.0
111
1.0
121
0.0
131
0.0
112
0.0
122
1.0
132
0.0
 79
     0
146
0.0
  0
ENDTAB
  0
TABLE
  2
LTYPE
  5
5
330
0
100
AcDbSymbolTable
 70
     1
  0
LTYPE
  5
14
330
5
100
AcDbSymbolTableRecord
100
AcDbLinetypeTableRecord
  2
ByBlock
 70
     0
  3

 72
    65
 73
     0
 40
0.0
  0
LTYPE
  5
15
330
5
100
AcDbSymbolTableRecord
100
AcDbLinetypeTableRecord
  2
ByLayer
 70
     0
  3

 72
    65
 73
     0
 40
0.0
  0
LTYPE
  5
16
330
5
100
AcDbSymbolTableRecord
100
AcDbLinetypeTableRecord
  2
Continuous
 70
     0
  3
Solid line
 72
    65
 73
     0
 40
0.0
  0
ENDTAB
  0
TABLE
  2
LAYER
  5
2
330
0
100
AcDbSymbolTable
 70
     3
  0
LAYER
  5
10
330
2
100
AcDbSymbolTableRecord
100
AcDbLayerTableRecord
  2
0
 70
     0
 62
     7
  6
Continuous
370
    -3
390
F
  0
LAYER
  5
62
330
2
100
AcDbSymbolTableRecord
100
AcDbLayerTableRecord
  2
Make2D$可见线$普通线
 70
     0
 62
    18
420
        0
  6
Continuous
370
    -3
390
F
  0
LAYER
  5
44A
330
2
100
AcDbSymbolTableRecord
100
AcDbLayerTableRecord
  2
E9127
 70
     0
 62
    18
420
        0
  6
Continuous
370
    -3
390
F
  0
ENDTAB
  0
TABLE
  2
STYLE
  5
3
330
0
100
AcDbSymbolTable
 70
     1
  0
STYLE
  5
11
330
3
100
AcDbSymbolTableRecord
100
AcDbTextStyleTableRecord
  2
Standard
 70
     0
 40
0.0
 41
1.0
 50
0.0
 71
     0
 42
0.2
  3
txt
  4

  0
ENDTAB
  0
TABLE
  2
VIEW
  5
6
330
0
100
AcDbSymbolTable
 70
     0
  0
ENDTAB
  0
TABLE
  2
UCS
  5
7
330
0
100
AcDbSymbolTable
 70
     0
  0
ENDTAB
  0
TABLE
  2
APPID
  5
9
330
0
100
AcDbSymbolTable
 70
     1
  0
APPID
  5
12
330
9
100
AcDbSymbolTableRecord
100
AcDbRegAppTableRecord
  2
ACAD
 70
     0
  0
ENDTAB
  0
TABLE
  2
DIMSTYLE
  5
A
330
0
100
AcDbSymbolTable
 70
     1
100
AcDbDimStyleTable
  0
DIMSTYLE
105
27
330
A
100
AcDbSymbolTableRecord
100
AcDbDimStyleTableRecord
  2
Standard
 70
     0
178
     0
340
11
  0
ENDTAB
  0
TABLE
  2
BLOCK_RECORD
  5
1
330
0
100
AcDbSymbolTable
 70
     1
  0
BLOCK_RECORD
  5
1F
330
1
100
AcDbSymbolTableRecord
100
AcDbBlockTableRecord
  2
*Model_Space
340
22
  0
BLOCK_RECORD
  5
1B
330
1
100
AcDbSymbolTableRecord
100
AcDbBlockTableRecord
  2
*Paper_Space
340
1E
  0
BLOCK_RECORD
  5
23
330
1
100
AcDbSymbolTableRecord
100
AcDbBlockTableRecord
  2
*Paper_Space0
340
26
  0
ENDTAB
  0
ENDSEC
  0
SECTION
  2
BLOCKS
  0
BLOCK
  5
20
330
1F
100
AcDbEntity
  8
0
100
AcDbBlockBegin
  2
*Model_Space
 70
     0
 10
0.0
 20
0.0
 30
0.0
  3
*Model_Space
  1
*Model_Space
  0
ENDBLK
  5
21
330
1F
100
AcDbEntity
  8
0
100
AcDbBlockEnd
  0
BLOCK
  5
1C
330
1B
100
AcDbEntity
 67
     1
  8
0
100
AcDbBlockBegin
  2
*Paper_Space
 70
     0
 10
0.0
 20
0.0
 30
0.0
  3
*Paper_Space
  1
*Paper_Space
  0
ENDBLK
  5
1D
330
1B
100
AcDbEntity
 67
     1
  8
0
100
AcDbBlockEnd
  0
BLOCK
  5
24
330
23
100
AcDbEntity
  8
0
100
AcDbBlockBegin
  2
*Paper_Space0
 70
     0
 10
0.0
 20
0.0
 30
0.0
  3
*Paper_Space0
  1
*Paper_Space0
  0
ENDBLK
  5
25
330
23
100
AcDbEntity
  8
0
100
AcDbBlockEnd
  0
ENDSEC
  0
SECTION
  2
ENTITIES
  0
LINE
  5
63
330
1F
100
AcDbEntity
  8
Make2D$可见线$普通线
100
AcDbLine
 10
578.680706456217
 20
1101.532577058934
 30
0.0
 11
577.7209152669993
 21
1101.532577058934
 31
0.0
  0
LINE
  5
64
330
1F
100
AcDbEntity
  8
Make2D$可见线$普通线
100
AcDbLine
 10
578.680706456217
 20
1081.532577058934
 30
0.0
 11
577.7209152669993
 21
1081.532577058934
 31
0.0
  0
LINE
  5
65
330
1F
100
AcDbEntity
  8
Make2D$可见线$普通线
100
AcDbLine
 10
594.6736233763455
 20
1072.609011007108
 30
0.0
 11
594.6424584612143
 21
1072.895792847076
 31
0.0
  0
ARC
  5
66
330
1F
100
AcDbEntity
  8
Make2D$可见线$普通线
100
AcDbCircle
 10
607.1962247746524
 20
1048.14567693654
 30
0.0
 40
0.4863950482605593
100
AcDbArc
 50
296.8347714106529
 51
71.04083452550285
  0
ARC
  5
67
330
1F
100
AcDbEntity
  8
Make2D$可见线$普通线
100
AcDbCircle
 10
628.1698190738242
 20
1050.611083706608
 30
0.0
 40
0.4909092014029405
100
AcDbArc
 50
117.6647405264591
 51
250.3243959227612
  0
ARC
  5
68
330
1F
100
AcDbEntity
  8
Make2D$可见线$普通线
100
AcDbCircle
 10
628.166946519169
 20
1048.969758572112
 30
0.0
 40
0.4871090498585212
100
AcDbArc
 50
116.9968915518534
 51
250.6930623642135
  0
ARC
  5
69
330
1F
100
AcDbEntity
  8
Make2D$可见线$普通线
100
AcDbCircle
 10
628.1708898285185
 20
1047.324380509235
 30
0.0
 40
0.4909294527440226
100
AcDbArc
 50
117.5725706324715
 51
201.548938164871
  0
LINE
  5
6A
330
1F
100
AcDbEntity
  8
Make2D$可见线$普通线
100
AcDbLine
 10
607.3848089979122
 20
1051.887989345428
 30
0.0
 11
607.3676437584202
 21
1051.895977402031
 31
0.0
  0
POLYLINE
  5
6B
330
1F
100
AcDbEntity
  8
Make2D$可见线$普通线
100
AcDb2dPolyline
 66
     1
 10
0.0
 20
0.0
 30
0.0
  0
VERTEX
  5
6C
330
6B
100
AcDbEntity
  8
Make2D$可见线$普通线
100
AcDbVertex
100
AcDb2dVertex
 10
608.0472259637953
 20
1056.750645533272
 30
0.0
 42
-0.3628268635506117
  0
VERTEX
  5
6D
330
6B
100
AcDbEntity
  8
Make2D$可见线$普通线
100
AcDbVertex
100
AcDb2dVertex
 10
608.4620755938314
 20
1056.255058659551
 30
0.0
  0
VERTEX
  5
6E
330
6B
100
AcDbEntity
  8
Make2D$可见线$普通线
100
AcDbVertex
100
AcDb2dVertex
 10
608.4620755938312
 20
1055.24493597704
 30
0.0
 42
-0.3589818407706964
  0
VERTEX
  5
6F
330
6B
100
AcDbEntity
  8
Make2D$可见线$普通线
100
AcDbVertex
100
AcDb2dVertex
 10
608.0487538731425
 20
1054.748915788082
 30
0.0
  0
SEQEND
  5
70
330
6B
100
AcDbEntity
  8
Make2D$可见线$普通线
  0
LINE
  5
71
330
1F
100
AcDbEntity
  8
Make2D$可见线$普通线
100
AcDbLine
 10
627.3141810966733
 20
1056.750645533272
 30
0.0
 11
627.3015957571039
 21
1056.748236744321
 31
0.0
  0
LINE
  5
72
330
1F
100
AcDbEntity
  8
Make2D$可见线$普通线
100
AcDbLine
 10
621.7822832729196
 20
1110.432592218232
 30
0.0
 11
621.6835936534715
 21
1110.531281065372
 31
0.0
  0
LINE
  5
73
330
1F
100
AcDbEntity
  8
Make2D$可见线$普通线
100
AcDbLine
 10
613.5822832729193
 20
1110.432585363909
 30
0.0
 11
613.680972892364
 21
1110.531275755463
 31
0.0
  0
LINE
  5
74
330
1F
100
AcDbEntity
  8
Make2D$可见线$普通线
100
AcDbLine
 10
621.6822832729163
 20
1110.032581045572
 30
0.0
 11
621.7822832729191
 21
1109.932581045572
 31
0.0
  0
ARC
  5
75
330
1F
100
AcDbEntity
  8
Make2D$可见线$普通线
100
AcDbCircle
 10
592.6807064561237
 20
1110.532577058947
 30
0.0
 40
2.000000000093934
100
AcDbArc
 50
349.5158770191096
 51
354.6541250286126
  0
POLYLINE
  5
76
330
1F
100
AcDbEntity
  8
Make2D$可见线$普通线
100
AcDb2dPolyline
 66
     1
 10
0.0
 20
0.0
 30
0.0
  0
VERTEX
  5
77
330
76
100
AcDbEntity
  8
Make2D$可见线$普通线
100
AcDbVertex
100
AcDb2dVertex
 10
628.2383313015937
 20
1048.471894997238
 30
0.0
  0
VERTEX
  5
78
330
76
100
AcDbEntity
  8
Make2D$可见线$普通线
100
AcDbVertex
100
AcDb2dVertex
 10
628.2262277881259
 20
1048.45936053288
 30
0.0
 42
-0.0581472172604721
  0
VERTEX
  5
79
330
76
100
AcDbEntity
  8
Make2D$可见线$普通线
100
AcDbVertex
100
AcDb2dVertex
 10
627.7872539426696
 20
1048.395127360848
 30
0.0
  0
VERTEX
  5
7A
330
76
100
AcDbEntity
  8
Make2D$可见线$普通线
100
AcDbVertex
100
AcDb2dVertex
 10
626.7426963355756
 20
1048.330914108792
 30
0.0
  0
VERTEX
  5
7B
330
76
100
AcDbEntity
  8
Make2D$可见线$普通线
100
AcDbVertex
100
AcDb2dVertex
 10
625.146073720606
 20
1048.266385161981
 30
0.0
  0
VERTEX
  5
7C
330
76
100
AcDbEntity
  8
Make2D$可见线$普通线
100
AcDbVertex
100
AcDb2dVertex
 10
620.7573569994527
 20
1048.138259932522
 30
0.0
  0
VERTEX
  5
7D
330
76
100
AcDbEntity
  8
Make2D$可见线$普通线
100
AcDbVertex
100
AcDb2dVertex
 10
613.1778813158796
 20
1047.945608321872
 30
0.0
  0
VERTEX
  5
7E
330
76
100
AcDbEntity
  8
Make2D$可见线$普通线
100
AcDbVertex
100
AcDb2dVertex
 10
610.2153333398626
 20
1047.855415732103
 30
0.0
  0
VERTEX
  5
7F
330
76
100
AcDbEntity
  8
Make2D$可见线$普通线
100
AcDbVertex
100
AcDb2dVertex
 10
609.2079444529081
 20
1047.817168327786
 30
0.0
  0
VERTEX
  5
80
330
76
100
AcDbEntity
  8
Make2D$可见线$普通线
100
AcDbVertex
100
AcDb2dVertex
 10
607.7579904062572
 20
1047.742457404896
 30
0.0
  0
VERTEX
  5
81
330
76
100
AcDbEntity
  8
Make2D$可见线$普通线
100
AcDbVertex
100
AcDb2dVertex
 10
607.5846557725718
 20
1047.728244277641
 30
0.0
  0
VERTEX
  5
82
330
76
100
AcDbEntity
  8
Make2D$可见线$普通线
100
AcDbVertex
100
AcDb2dVertex
 10
607.4116643496541
 20
1047.710331270688
 30
0.0
  0
VERTEX
  5
83
330
76
100
AcDbEntity
  8
Make2D$可见线$普通线
100
AcDbVertex
100
AcDb2dVertex
 10
607.2391344284326
 20
1047.68873191129
 30
0.0
  0
VERTEX
  5
84
330
76
100
AcDbEntity
  8
Make2D$可见线$普通线
100
AcDbVertex
100
AcDb2dVertex
 10
607.1840411023448
 20
1047.678033283453
 30
0.0
  0
SEQEND
  5
85
330
76
100
AcDbEntity
  8
Make2D$可见线$普通线
  0
POLYLINE
  5
86
330
1F
100
AcDbEntity
  8
Make2D$可见线$普通线
100
AcDb2dPolyline
 66
     1
 10
0.0
 20
0.0
 30
0.0
  0
VERTEX
  5
87
330
86
100
AcDbEntity
  8
Make2D$可见线$普通线
100
AcDbVertex
100
AcDb2dVertex
 10
627.9456164229732
 20
1051.821660568254
 30
0.0
  0
VERTEX
  5
88
330
86
100
AcDbEntity
  8
Make2D$可见线$普通线
100
AcDbVertex
100
AcDb2dVertex
 10
628.1222726320361
 20
1051.798731894513
 30
0.0
 42
-0.1868770857967337
  0
VERTEX
  5
89
330
86
100
AcDbEntity
  8
Make2D$可见线$普通线
100
AcDbVertex
100
AcDb2dVertex
 10
628.2383313015938
 20
1051.759906958031
 30
0.0
  0
SEQEND
  5
8A
330
86
100
AcDbEntity
  8
Make2D$可见线$普通线
  0
POLYLINE
  5
8B
330
1F
100
AcDbEntity
  8
Make2D$可见线$普通线
100
AcDb2dPolyline
 66
     1
 10
0.0
 20
0.0
 30
0.0
  0
VERTEX
  5
8C
330
8B
100
AcDbEntity
  8
Make2D$可见线$普通线
100
AcDbVertex
100
AcDb2dVertex
 10
627.4027148632374
 20
1056.758442056151
 30
0.0
 42
0.4137505519901426
  0
VERTEX
  5
8D
330
8B
100
AcDbEntity
  8
Make2D$可见线$普通线
100
AcDbVertex
100
AcDb2dVertex
 10
626.8993314666374
 20
1056.255058659551
 30
0.0
  0
VERTEX
  5
8E
330
8B
100
AcDbEntity
  8
Make2D$可见线$普通线
100
AcDbVertex
100
AcDb2dVertex
 10
626.899331466637
 20
1055.24493597704
 30
0.0
 42
0.3590215905826565
  0
VERTEX
  5
8F
330
8B
100
AcDbEntity
  8
Make2D$可见线$普通线
100
AcDbVertex
100
AcDb2dVertex
 10
627.3127236090642
 20
1054.748902531727
 30
0.0
  0
SEQEND
  5
90
330
8B
100
AcDbEntity
  8
Make2D$可见线$普通线
  0
POLYLINE
  5
91
330
1F
100
AcDbEntity
  8
Make2D$可见线$普通线
100
AcDb2dPolyline
 66
     1
 10
0.0
 20
0.0
 30
0.0
  0
VERTEX
  5
92
330
91
100
AcDbEntity
  8
Make2D$可见线$普通线
100
AcDbVertex
100
AcDb2dVertex
 10
607.4178786729004
 20
1049.355176903215
 30
0.0
 42
0.6302414126599032
  0
VERTEX
  5
93
330
91
100
AcDbEntity
  8
Make2D$可见线$普通线
100
AcDbVertex
100
AcDb2dVertex
 10
607.3903128861493
 20
1050.232728890692
 30
0.0
  0
VERTEX
  5
94
330
91
100
AcDbEntity
  8
Make2D$可见线$普通线
100
AcDbVertex
100
AcDb2dVertex
 10
607.3280635527253
 20
1050.238705282324
 30
0.0
  0
VERTEX
  5
95
330
91
100
AcDbEntity
  8
Make2D$可见线$普通线
100
AcDbVertex
100
AcDb2dVertex
 10
607.2740364022895
 20
1050.245013207739
 30
0.0
  0
VERTEX
  5
96
330
91
100
AcDbEntity
  8
Make2D$可见线$普通线
100
AcDbVertex
100
AcDb2dVertex
 10
607.228241143177
 20
1050.251606204537
 30
0.0
  0
VERTEX
  5
97
330
91
100
AcDbEntity
  8
Make2D$可见线$普通线
100
AcDbVertex
100
AcDb2dVertex
 10
607.2084335067213
 20
1050.254995085206
 30
0.0
  0
VERTEX
  5
98
330
91
100
AcDbEntity
  8
Make2D$可见线$普通线
100
AcDbVertex
100
AcDb2dVertex
 10
607.1906874837221
 20
1050.25843781032
 30
0.0
  0
VERTEX
  5
99
330
91
100
AcDbEntity
  8
Make2D$可见线$普通线
100
AcDbVertex
100
AcDb2dVertex
 10
607.1750042877209
 20
1050.261928572081
 30
0.0
  0
VERTEX
  5
9A
330
91
100
AcDbEntity
  8
Make2D$可见线$普通线
100
AcDbVertex
100
AcDb2dVertex
 10
607.1679366290765
 20
1050.263690151766
 30
0.0
  0
VERTEX
  5
9B
330
91
100
AcDbEntity
  8
Make2D$可见线$普通线
100
AcDbVertex
100
AcDb2dVertex
 10
607.1613851322597
 20
1050.265461562688
 30
0.0
  0
VERTEX
  5
9C
330
91
100
AcDbEntity
  8
Make2D$可见线$普通线
100
AcDbVertex
100
AcDb2dVertex
 10
607.1553499489635
 20
1050.267242078872
 30
0.0
  0
VERTEX
  5
9D
330
91
100
AcDbEntity
  8
Make2D$可见线$普通线
100
AcDbVertex
100
AcDb2dVertex
 10
607.1498312308804
 20
1050.269030974343
 30
0.0
  0
VERTEX
  5
9E
330
91
100
AcDbEntity
  8
Make2D$可见线$普通线
100
AcDbVertex
100
AcDb2dVertex
 10
607.1448291297033
 20
1050.270827523125
 30
0.0
  0
VERTEX
  5
9F
330
91
100
AcDbEntity
  8
Make2D$可见线$普通线
100
AcDbVertex
100
AcDb2dVertex
 10
607.1425218578584
 20
1050.27172844064
 30
0.0
  0
VERTEX
  5
A0
330
91
100
AcDbEntity
  8
Make2D$可见线$普通线
100
AcDbVertex
100
AcDb2dVertex
 10
607.1403437971248
 20
1050.272630999243
 30
0.0
  0
VERTEX
  5
A1
330
91
100
AcDbEntity
  8
Make2D$可见线$普通线
100
AcDbVertex
100
AcDb2dVertex
 10
607.1382949664642
 20
1050.273535108187
 30
0.0
  0
VERTEX
  5
A2
330
91
100
AcDbEntity
  8
Make2D$可见线$普通线
100
AcDbVertex
100
AcDb2dVertex
 10
607.1363753848378
 20
1050.274440676724
 30
0.0
  0
VERTEX
  5
A3
330
91
100
AcDbEntity
  8
Make2D$可见线$普通线
100
AcDbVertex
100
AcDb2dVertex
 10
607.1345850712074
 20
1050.275347614107
 30
0.0
  0
VERTEX
  5
A4
330
91
100
AcDbEntity
  8
Make2D$可见线$普通线
100
AcDbVertex
100
AcDb2dVertex
 10
607.1329240445348
 20
1050.276255829591
 30
0.0
  0
VERTEX
  5
A5
330
91
100
AcDbEntity
  8
Make2D$可见线$普通线
100
AcDbVertex
100
AcDb2dVertex
 10
607.132142019733
 20
1050.276710388262
 30
0.0
  0
VERTEX
  5
A6
330
91
100
AcDbEntity
  8
Make2D$可见线$普通线
100
AcDbVertex
100
AcDb2dVertex
 10
607.1313923237813
 20
1050.277165232427
 30
0.0
  0
VERTEX
  5
A7
330
91
100
AcDbEntity
  8
Make2D$可见线$普通线
100
AcDbVertex
100
AcDb2dVertex
 10
607.1306749590498
 20
1050.277620350745
 30
0.0
  0
VERTEX
  5
A8
330
91
100
AcDbEntity
  8
Make2D$可见线$普通线
100
AcDbVertex
100
AcDb2dVertex
 10
607.1299899279087
 20
1050.27807573187
 30
0.0
  0
VERTEX
  5
A9
330
91
100
AcDbEntity
  8
Make2D$可见线$普通线
100
AcDbVertex
100
AcDb2dVertex
 10
607.1293372327282
 20
1050.27853136446
 30
0.0
  0
VERTEX
  5
AA
330
91
100
AcDbEntity
  8
Make2D$可见线$普通线
100
AcDbVertex
100
AcDb2dVertex
 10
607.1287168758784
 20
1050.278987237172
 30
0.0
  0
VERTEX
  5
AB
330
91
100
AcDbEntity
  8
Make2D$可见线$普通线
100
AcDbVertex
100
AcDb2dVertex
 10
607.1281288597297
 20
1050.279443338661
 30
0.0
  0
VERTEX
  5
AC
330
91
100
AcDbEntity
  8
Make2D$可见线$普通线
100
AcDbVertex
100
AcDb2dVertex
 10
607.1275731866522
 20
1050.279899657586
 30
0.0
  0
VERTEX
  5
AD
330
91
100
AcDbEntity
  8
Make2D$可见线$普通线
100
AcDbVertex
100
AcDb2dVertex
 10
607.127049859016
 20
1050.280356182601
 30
0.0
  0
VERTEX
  5
AE
330
91
100
AcDbEntity
  8
Make2D$可见线$普通线
100
AcDbVertex
100
AcDb2dVertex
 10
607.1265588791914
 20
1050.280812902365
 30
0.0
  0
VERTEX
  5
AF
330
91
100
AcDbEntity
  8
Make2D$可见线$普通线
100
AcDbVertex
100
AcDb2dVertex
 10
607.1263255204492
 20
1050.281041331733
 30
0.0
  0
VERTEX
  5
B0
330
91
100
AcDbEntity
  8
Make2D$可见线$普通线
100
AcDbVertex
100
AcDb2dVertex
 10
607.1261002495487
 20
1050.281269805534
 30
0.0
  0
VERTEX
  5
B1
330
91
100
AcDbEntity
  8
Make2D$可见线$普通线
100
AcDbVertex
100
AcDb2dVertex
 10
607.1258830667862
 20
1050.28149832235
 30
0.0
  0
VERTEX
  5
B2
330
91
100
AcDbEntity
  8
Make2D$可见线$普通线
100
AcDbVertex
100
AcDb2dVertex
 10
607.1256739724579
 20
1050.281726880763
 30
0.0
  0
VERTEX
  5
B3
330
91
100
AcDbEntity
  8
Make2D$可见线$普通线
100
AcDbVertex
100
AcDb2dVertex
 10
607.1254729668602
 20
1050.281955479356
 30
0.0
  0
VERTEX
  5
B4
330
91
100
AcDbEntity
  8
Make2D$可见线$普通线
100
AcDbVertex
100
AcDb2dVertex
 10
607.1252800502893
 20
1050.282184116711
 30
0.0
  0
VERTEX
  5
B5
330
91
100
AcDbEntity
  8
Make2D$可见线$普通线
100
AcDbVertex
100
AcDb2dVertex
 10
607.1250952230415
 20
1050.282412791409
 30
0.0
  0
VERTEX
  5
B6
330
91
100
AcDbEntity
  8
Make2D$可见线$普通线
100
AcDbVertex
100
AcDb2dVertex
 10
607.1249184854131
 20
1050.282641502033
 30
0.0
  0
VERTEX
  5
B7
330
91
100
AcDbEntity
  8
Make2D$可见线$普通线
100
AcDbVertex
100
AcDb2dVertex
 10
607.1247498377004
 20
1050.282870247165
 30
0.0
  0
VERTEX
  5
B8
330
91
100
AcDbEntity
  8
Make2D$可见线$普通线
100
AcDbVertex
100
AcDb2dVertex
 10
607.1245892801995
 20
1050.283099025386
 30
0.0
  0
VERTEX
  5
B9
330
91
100
AcDbEntity
  8
Make2D$可见线$普通线
100
AcDbVertex
100
AcDb2dVertex
 10
607.1244368132069
 20
1050.28332783528
 30
0.0
  0
VERTEX
  5
BA
330
91
100
AcDbEntity
  8
Make2D$可见线$普通线
100
AcDbVertex
100
AcDb2dVertex
 10
607.1242924370188
 20
1050.283556675427
 30
0.0
  0
VERTEX
  5
BB
330
91
100
AcDbEntity
  8
Make2D$可见线$普通线
100
AcDbVertex
100
AcDb2dVertex
 10
607.1241561519314
 20
1050.283785544411
 30
0.0
  0
VERTEX
  5
BC
330
91
100
AcDbEntity
  8
Make2D$可见线$普通线
100
AcDbVertex
100
AcDb2dVertex
 10
607.124027958241
 20
1050.284014440813
 30
0.0
  0
VERTEX
  5
BD
330
91
100
AcDbEntity
  8
Make2D$可见线$普通线
100
AcDbVertex
100
AcDb2dVertex
 10
607.1239078562437
 20
1050.284243363215
 30
0.0
  0
VERTEX
  5
BE
330
91
100
AcDbEntity
  8
Make2D$可见线$普通线
100
AcDbVertex
100
AcDb2dVertex
 10
607.1237958462361
 20
1050.2844723102
 30
0.0
  0
VERTEX
  5
BF
330
91
100
AcDbEntity
  8
Make2D$可见线$普通线
100
AcDbVertex
100
AcDb2dVertex
 10
607.1236919285144
 20
1050.284701280349
 30
0.0
  0
VERTEX
  5
C0
330
91
100
AcDbEntity
  8
Make2D$可见线$普通线
100
AcDbVertex
100
AcDb2dVertex
 10
607.1235961033749
 20
1050.284930272244
 30
0.0
  0
VERTEX
  5
C1
330
91
100
AcDbEntity
  8
Make2D$可见线$普通线
100
AcDbVertex
100
AcDb2dVertex
 10
607.1235083711138
 20
1050.285159284469
 30
0.0
  0
VERTEX
  5
C2
330
91
100
AcDbEntity
  8
Make2D$可见线$普通线
100
AcDbVertex
100
AcDb2dVertex
 10
607.1234287320272
 20
1050.285388315604
 30
0.0
  0
VERTEX
  5
C3
330
91
100
AcDbEntity
  8
Make2D$可见线$普通线
100
AcDbVertex
100
AcDb2dVertex
 10
607.1233571864116
 20
1050.285617364231
 30
0.0
  0
VERTEX
  5
C4
330
91
100
AcDbEntity
  8
Make2D$可见线$普通线
100
AcDbVertex
100
AcDb2dVertex
 10
607.1232937345633
 20
1050.285846428934
 30
0.0
  0
VERTEX
  5
C5
330
91
100
AcDbEntity
  8
Make2D$可见线$普通线
100
AcDbVertex
100
AcDb2dVertex
 10
607.1232383767784
 20
1050.286075508293
 30
0.0
  0
VERTEX
  5
C6
330
91
100
AcDbEntity
  8
Make2D$可见线$普通线
100
AcDbVertex
100
AcDb2dVertex
 10
607.1231911133534
 20
1050.286304600892
 30
0.0
  0
VERTEX
  5
C7
330
91
100
AcDbEntity
  8
Make2D$可见线$普通线
100
AcDbVertex
100
AcDb2dVertex
 10
607.1231519445844
 20
1050.286533705311
 30
0.0
  0
VERTEX
  5
C8
330
91
100
AcDbEntity
  8
Make2D$可见线$普通线
100
AcDbVertex
100
AcDb2dVertex
 10
607.1231208707677
 20
1050.286762820133
 30
0.0
  0
VERTEX
  5
C9
330
91
100
AcDbEntity
  8
Make2D$可见线$普通线
100
AcDbVertex
100
AcDb2dVertex
 10
607.1230978921996
 20
1050.286991943941
 30
0.0
  0
VERTEX
  5
CA
330
91
100
AcDbEntity
  8
Make2D$可见线$普通线
100
AcDbVertex
100
AcDb2dVertex
 10
607.1230830091763
 20
1050.287221075316
 30
0.0
  0
VERTEX
  5
CB
330
91
100
AcDbEntity
  8
Make2D$可见线$普通线
100
AcDbVertex
100
AcDb2dVertex
 10
607.1230775714506
 20
1050.287374398802
 30
0.0
  0
VERTEX
  5
CC
330
91
100
AcDbEntity
  8
Make2D$可见线$普通线
100
AcDbVertex
100
AcDb2dVertex
 10
607.1230757588748
 20
1050.287527720046
 30
0.0
  0
VERTEX
  5
CD
330
91
100
AcDbEntity
  8
Make2D$可见线$普通线
100
AcDbVertex
100
AcDb2dVertex
 10
607.1230793357986
 20
1050.28774310176
 30
0.0
  0
VERTEX
  5
CE
330
91
100
AcDbEntity
  8
Make2D$可见线$普通线
100
AcDbVertex
100
AcDb2dVertex
 10
607.1230900662122
 20
1050.287958477918
 30
0.0
  0
VERTEX
  5
CF
330
91
100
AcDbEntity
  8
Make2D$可见线$普通线
100
AcDbVertex
100
AcDb2dVertex
 10
607.1231079495798
 20
1050.288173848559
 30
0.0
  0
VERTEX
  5
D0
330
91
100
AcDbEntity
  8
Make2D$可见线$普通线
100
AcDbVertex
100
AcDb2dVertex
 10
607.123132985365
 20
1050.28838921372
 30
0.0
  0
VERTEX
  5
D1
330
91
100
AcDbEntity
  8
Make2D$可见线$普通线
100
AcDbVertex
100
AcDb2dVertex
 10
607.1231651730319
 20
1050.28860457344
 30
0.0
  0
VERTEX
  5
D2
330
91
100
AcDbEntity
  8
Make2D$可见线$普通线
100
AcDbVertex
100
AcDb2dVertex
 10
607.1232045120443
 20
1050.288819927757
 30
0.0
  0
VERTEX
  5
D3
330
91
100
AcDbEntity
  8
Make2D$可见线$普通线
100
AcDbVertex
100
AcDb2dVertex
 10
607.123251001866
 20
1050.289035276709
 30
0.0
  0
VERTEX
  5
D4
330
91
100
AcDbEntity
  8
Make2D$可见线$普通线
100
AcDbVertex
100
AcDb2dVertex
 10
607.1233046419609
 20
1050.289250620333
 30
0.0
  0
VERTEX
  5
D5
330
91
100
AcDbEntity
  8
Make2D$可见线$普通线
100
AcDbVertex
100
AcDb2dVertex
 10
607.123365431793
 20
1050.289465958669
 30
0.0
  0
VERTEX
  5
D6
330
91
100
AcDbEntity
  8
Make2D$可见线$普通线
100
AcDbVertex
100
AcDb2dVertex
 10
607.123433370826
 20
1050.289681291754
 30
0.0
  0
VERTEX
  5
D7
330
91
100
AcDbEntity
  8
Make2D$可见线$普通线
100
AcDbVertex
100
AcDb2dVertex
 10
607.1235084585239
 20
1050.289896619627
 30
0.0
  0
VERTEX
  5
D8
330
91
100
AcDbEntity
  8
Make2D$可见线$普通线
100
AcDbVertex
100
AcDb2dVertex
 10
607.1235906943505
 20
1050.290111942326
 30
0.0
  0
VERTEX
  5
D9
330
91
100
AcDbEntity
  8
Make2D$可见线$普通线
100
AcDbVertex
100
AcDb2dVertex
 10
607.1236800777697
 20
1050.290327259888
 30
0.0
  0
VERTEX
  5
DA
330
91
100
AcDbEntity
  8
Make2D$可见线$普通线
100
AcDbVertex
100
AcDb2dVertex
 10
607.1237766082453
 20
1050.290542572353
 30
0.0
  0
VERTEX
  5
DB
330
91
100
AcDbEntity
  8
Make2D$可见线$普通线
100
AcDbVertex
100
AcDb2dVertex
 10
607.1238802852414
 20
1050.290757879757
 30
0.0
  0
VERTEX
  5
DC
330
91
100
AcDbEntity
  8
Make2D$可见线$普通线
100
AcDbVertex
100
AcDb2dVertex
 10
607.1239911082216
 20
1050.290973182141
 30
0.0
  0
VERTEX
  5
DD
330
91
100
AcDbEntity
  8
Make2D$可见线$普通线
100
AcDbVertex
100
AcDb2dVertex
 10
607.12410907665
 20
1050.29118847954
 30
0.0
  0
VERTEX
  5
DE
330
91
100
AcDbEntity
  8
Make2D$可见线$普通线
100
AcDbVertex
100
AcDb2dVertex
 10
607.1242341899905
 20
1050.291403771994
 30
0.0
  0
VERTEX
  5
DF
330
91
100
AcDbEntity
  8
Make2D$可见线$普通线
100
AcDbVertex
100
AcDb2dVertex
 10
607.1243664477067
 20
1050.291619059541
 30
0.0
  0
VERTEX
  5
E0
330
91
100
AcDbEntity
  8
Make2D$可见线$普通线
100
AcDbVertex
100
AcDb2dVertex
 10
607.1245058492627
 20
1050.291834342218
 30
0.0
  0
VERTEX
  5
E1
330
91
100
AcDbEntity
  8
Make2D$可见线$普通线
100
AcDbVertex
100
AcDb2dVertex
 10
607.1246523941224
 20
1050.292049620065
 30
0.0
  0
VERTEX
  5
E2
330
91
100
AcDbEntity
  8
Make2D$可见线$普通线
100
AcDbVertex
100
AcDb2dVertex
 10
607.1248060817495
 20
1050.292264893119
 30
0.0
  0
VERTEX
  5
E3
330
91
100
AcDbEntity
  8
Make2D$可见线$普通线
100
AcDbVertex
100
AcDb2dVertex
 10
607.124966911608
 20
1050.292480161419
 30
0.0
  0
VERTEX
  5
E4
330
91
100
AcDbEntity
  8
Make2D$可见线$普通线
100
AcDbVertex
100
AcDb2dVertex
 10
607.1251348831616
 20
1050.292695425002
 30
0.0
  0
VERTEX
  5
E5
330
91
100
AcDbEntity
  8
Make2D$可见线$普通线
100
AcDbVertex
100
AcDb2dVertex
 10
607.1253099958744
 20
1050.292910683907
 30
0.0
  0
VERTEX
  5
E6
330
91
100
AcDbEntity
  8
Make2D$可见线$普通线
100
AcDbVertex
100
AcDb2dVertex
 10
607.1254922492103
 20
1050.293125938171
 30
0.0
  0
VERTEX
  5
E7
330
91
100
AcDbEntity
  8
Make2D$可见线$普通线
100
AcDbVertex
100
AcDb2dVertex
 10
607.125681642633
 20
1050.293341187833
 30
0.0
  0
VERTEX
  5
E8
330
91
100
AcDbEntity
  8
Make2D$可见线$普通线
100
AcDbVertex
100
AcDb2dVertex
 10
607.1258781756064
 20
1050.293556432932
 30
0.0
  0
VERTEX
  5
E9
330
91
100
AcDbEntity
  8
Make2D$可见线$普通线
100
AcDbVertex
100
AcDb2dVertex
 10
607.126292658061
 20
1050.293986909591
 30
0.0
  0
VERTEX
  5
EA
330
91
100
AcDbEntity
  8
Make2D$可见线$普通线
100
AcDbVertex
100
AcDb2dVertex
 10
607.1267356922851
 20
1050.294417368451
 30
0.0
  0
VERTEX
  5
EB
330
91
100
AcDbEntity
  8
Make2D$可见线$普通线
100
AcDbVertex
100
AcDb2dVertex
 10
607.1272072739898
 20
1050.29484780982
 30
0.0
  0
VERTEX
  5
EC
330
91
100
AcDbEntity
  8
Make2D$可见线$普通线
100
AcDbVertex
100
AcDb2dVertex
 10
607.1277073988858
 20
1050.295278234001
 30
0.0
  0
VERTEX
  5
ED
330
91
100
AcDbEntity
  8
Make2D$可见线$普通线
100
AcDbVertex
100
AcDb2dVertex
 10
607.1282360626844
 20
1050.2957086413
 30
0.0
  0
VERTEX
  5
EE
330
91
100
AcDbEntity
  8
Make2D$可见线$普通线
100
AcDbVertex
100
AcDb2dVertex
 10
607.1287932610965
 20
1050.296139032022
 30
0.0
  0
VERTEX
  5
EF
330
91
100
AcDbEntity
  8
Make2D$可见线$普通线
100
AcDbVertex
100
AcDb2dVertex
 10
607.129378989833
 20
1050.296569406472
 30
0.0
  0
VERTEX
  5
F0
330
91
100
AcDbEntity
  8
Make2D$可见线$普通线
100
AcDbVertex
100
AcDb2dVertex
 10
607.129993244605
 20
1050.296999764956
 30
0.0
  0
VERTEX
  5
F1
330
91
100
AcDbEntity
  8
Make2D$可见线$普通线
100
AcDbVertex
100
AcDb2dVertex
 10
607.1306360211236
 20
1050.297430107779
 30
0.0
  0
VERTEX
  5
F2
330
91
100
AcDbEntity
  8
Make2D$可见线$普通线
100
AcDbVertex
100
AcDb2dVertex
 10
607.1313073150998
 20
1050.297860435247
 30
0.0
  0
VERTEX
  5
F3
330
91
100
AcDbEntity
  8
Make2D$可见线$普通线
100
AcDbVertex
100
AcDb2dVertex
 10
607.1320071222444
 20
1050.298290747663
 30
0.0
  0
VERTEX
  5
F4
330
91
100
AcDbEntity
  8
Make2D$可见线$普通线
100
AcDbVertex
100
AcDb2dVertex
 10
607.1327354382686
 20
1050.298721045333
 30
0.0
  0
VERTEX
  5
F5
330
91
100
AcDbEntity
  8
Make2D$可见线$普通线
100
AcDbVertex
100
AcDb2dVertex
 10
607.1342775797996
 20
1050.299581597659
 30
0.0
  0
VERTEX
  5
F6
330
91
100
AcDbEntity
  8
Make2D$可见线$普通线
100
AcDbVertex
100
AcDb2dVertex
 10
607.1359337053807
 20
1050.300442094665
 30
0.0
  0
VERTEX
  5
F7
330
91
100
AcDbEntity
  8
Make2D$可见线$普通线
100
AcDbVertex
100
AcDb2dVertex
 10
607.1377037807002
 20
1050.301302538794
 30
0.0
  0
VERTEX
  5
F8
330
91
100
AcDbEntity
  8
Make2D$可见线$普通线
100
AcDbVertex
100
AcDb2dVertex
 10
607.139587771446
 20
1050.302162932486
 30
0.0
  0
VERTEX
  5
F9
330
91
100
AcDbEntity
  8
Make2D$可见线$普通线
100
AcDbVertex
100
AcDb2dVertex
 10
607.1415856433059
 20
1050.303023278183
 30
0.0
  0
VERTEX
  5
FA
330
91
100
AcDbEntity
  8
Make2D$可见线$普通线
100
AcDbVertex
100
AcDb2dVertex
 10
607.1436973619684
 20
1050.303883578327
 30
0.0
  0
VERTEX
  5
FB
330
91
100
AcDbEntity
  8
Make2D$可见线$普通线
100
AcDbVertex
100
AcDb2dVertex
 10
607.1459228931211
 20
1050.304743835361
 30
0.0
  0
VERTEX
  5
FC
330
91
100
AcDbEntity
  8
Make2D$可见线$普通线
100
AcDbVertex
100
AcDb2dVertex
 10
607.15071525565
 20
1050.30646422986
 30
0.0
  0
VERTEX
  5
FD
330
91
100
AcDbEntity
  8
Make2D$可见线$普通线
100
AcDbVertex
100
AcDb2dVertex
 10
607.1559624563969
 20
1050.308184481216
 30
0.0
  0
VERTEX
  5
FE
330
91
100
AcDbEntity
  8
Make2D$可见线$普通线
100
AcDbVertex
100
AcDb2dVertex
 10
607.1616642208662
 20
1050.30990460896
 30
0.0
  0
VERTEX
  5
FF
330
91
100
AcDbEntity
  8
Make2D$可见线$普通线
100
AcDbVertex
100
AcDb2dVertex
 10
607.1678202745622
 20
1050.311624632627
 30
0.0
  0
VERTEX
  5
100
330
91
100
AcDbEntity
  8
Make2D$可见线$普通线
100
AcDbVertex
100
AcDb2dVertex
 10
607.1814941516517
 20
1050.315064445862
 30
0.0
  0
VERTEX
  5
101
330
91
100
AcDbEntity
  8
Make2D$可见线$普通线
100
AcDbVertex
100
AcDb2dVertex
 10
607.1969818917
 20
1050.318504077188
 30
0.0
  0
VERTEX
  5
102
330
91
100
AcDbEntity
  8
Make2D$可见线$普通线
100
AcDbVertex
100
AcDb2dVertex
 10
607.2142812987415
 20
1050.321943682874
 30
0.0
  0
VERTEX
  5
103
330
91
100
AcDbEntity
  8
Make2D$可见线$普通线
100
AcDbVertex
100
AcDb2dVertex
 10
607.2543063299427
 20
1050.328823442396
 30
0.0
  0
VERTEX
  5
104
330
91
100
AcDbEntity
  8
Make2D$可见线$普通线
100
AcDbVertex
100
AcDb2dVertex
 10
607.3015516775322
 20
1050.33570497457
 30
0.0
  0
VERTEX
  5
105
330
91
100
AcDbEntity
  8
Make2D$可见线$普通线
100
AcDbVertex
100
AcDb2dVertex
 10
607.3559997737866
 20
1050.34258952954
 30
0.0
  0
SEQEND
  5
106
330
91
100
AcDbEntity
  8
Make2D$可见线$普通线
  0
POLYLINE
  5
107
330
1F
100
AcDbEntity
  8
Make2D$可见线$普通线
100
AcDb2dPolyline
 66
     1
 10
0.0
 20
0.0
 30
0.0
  0
VERTEX
  5
108
330
107
100
AcDbEntity
  8
Make2D$可见线$普通线
100
AcDbVertex
100
AcDb2dVertex
 10
628.2383313015937
 20
1050.115897533885
 30
0.0
  0
VERTEX
  5
109
330
107
100
AcDbEntity
  8
Make2D$可见线$普通线
100
AcDbVertex
100
AcDb2dVertex
 10
628.2383282273771
 20
1050.115697995443
 30
0.0
  0
VERTEX
  5
10A
330
107
100
AcDbEntity
  8
Make2D$可见线$普通线
100
AcDbVertex
100
AcDb2dVertex
 10
628.2383190049557
 20
1050.115498458315
 30
0.0
  0
VERTEX
  5
10B
330
107
100
AcDbEntity
  8
Make2D$可见线$普通线
100
AcDbVertex
100
AcDb2dVertex
 10
628.2383036346714
 20
1050.115298922485
 30
0.0
  0
VERTEX
  5
10C
330
107
100
AcDbEntity
  8
Make2D$可见线$普通线
100
AcDbVertex
100
AcDb2dVertex
 10
628.2382821168665
 20
1050.11509938794
 30
0.0
  0
VERTEX
  5
10D
330
107
100
AcDbEntity
  8
Make2D$可见线$普通线
100
AcDbVertex
100
AcDb2dVertex
 10
628.2382544518829
 20
1050.114899854663
 30
0.0
  0
VERTEX
  5
10E
330
107
100
AcDbEntity
  8
Make2D$可见线$普通线
100
AcDbVertex
100
AcDb2dVertex
 10
628.2382206400631
 20
1050.114700322641
 30
0.0
  0
VERTEX
  5
10F
330
107
100
AcDbEntity
  8
Make2D$可见线$普通线
100
AcDbVertex
100
AcDb2dVertex
 10
628.2381806817491
 20
1050.114500791858
 30
0.0
  0
VERTEX
  5
110
330
107
100
AcDbEntity
  8
Make2D$可见线$普通线
100
AcDbVertex
100
AcDb2dVertex
 10
628.2381345772831
 20
1050.1143012623
 30
0.0
  0
VERTEX
  5
111
330
107
100
AcDbEntity
  8
Make2D$可见线$普通线
100
AcDbVertex
100
AcDb2dVertex
 10
628.2380823270071
 20
1050.114101733951
 30
0.0
  0
VERTEX
  5
112
330
107
100
AcDbEntity
  8
Make2D$可见线$普通线
100
AcDbVertex
100
AcDb2dVertex
 10
628.2380239312635
 20
1050.113902206797
 30
0.0
  0
VERTEX
  5
113
330
107
100
AcDbEntity
  8
Make2D$可见线$普通线
100
AcDbVertex
100
AcDb2dVertex
 10
628.2379593903943
 20
1050.113702680822
 30
0.0
  0
VERTEX
  5
114
330
107
100
AcDbEntity
  8
Make2D$可见线$普通线
100
AcDbVertex
100
AcDb2dVertex
 10
628.2378887047416
 20
1050.113503156013
 30
0.0
  0
VERTEX
  5
115
330
107
100
AcDbEntity
  8
Make2D$可见线$普通线
100
AcDbVertex
100
AcDb2dVertex
 10
628.2378118746478
 20
1050.113303632354
 30
0.0
  0
VERTEX
  5
116
330
107
100
AcDbEntity
  8
Make2D$可见线$普通线
100
AcDbVertex
100
AcDb2dVertex
 10
628.2377289004548
 20
1050.11310410983
 30
0.0
  0
VERTEX
  5
117
330
107
100
AcDbEntity
  8
Make2D$可见线$普通线
100
AcDbVertex
100
AcDb2dVertex
 10
628.237639782505
 20
1050.112904588426
 30
0.0
  0
VERTEX
  5
118
330
107
100
AcDbEntity
  8
Make2D$可见线$普通线
100
AcDbVertex
100
AcDb2dVertex
 10
628.2375445211403
 20
1050.112705068127
 30
0.0
  0
VERTEX
  5
119
330
107
100
AcDbEntity
  8
Make2D$可见线$普通线
100
AcDbVertex
100
AcDb2dVertex
 10
628.237443116703
 20
1050.112505548919
 30
0.0
  0
VERTEX
  5
11A
330
107
100
AcDbEntity
  8
Make2D$可见线$普通线
100
AcDbVertex
100
AcDb2dVertex
 10
628.2373355695353
 20
1050.112306030786
 30
0.0
  0
VERTEX
  5
11B
330
107
100
AcDbEntity
  8
Make2D$可见线$普通线
100
AcDbVertex
100
AcDb2dVertex
 10
628.2372218799792
 20
1050.112106513714
 30
0.0
  0
VERTEX
  5
11C
330
107
100
AcDbEntity
  8
Make2D$可见线$普通线
100
AcDbVertex
100
AcDb2dVertex
 10
628.2371020483771
 20
1050.111906997689
 30
0.0
  0
VERTEX
  5
11D
330
107
100
AcDbEntity
  8
Make2D$可见线$普通线
100
AcDbVertex
100
AcDb2dVertex
 10
628.236976075071
 20
1050.111707482694
 30
0.0
  0
VERTEX
  5
11E
330
107
100
AcDbEntity
  8
Make2D$可见线$普通线
100
AcDbVertex
100
AcDb2dVertex
 10
628.2368439604029
 20
1050.111507968715
 30
0.0
  0
VERTEX
  5
11F
330
107
100
AcDbEntity
  8
Make2D$可见线$普通线
100
AcDbVertex
100
AcDb2dVertex
 10
628.2367057047151
 20
1050.111308455737
 30
0.0
  0
VERTEX
  5
120
330
107
100
AcDbEntity
  8
Make2D$可见线$普通线
100
AcDbVertex
100
AcDb2dVertex
 10
628.2365613083498
 20
1050.111108943745
 30
0.0
  0
VERTEX
  5
121
330
107
100
AcDbEntity
  8
Make2D$可见线$普通线
100
AcDbVertex
100
AcDb2dVertex
 10
628.2364107716492
 20
1050.110909432725
 30
0.0
  0
VERTEX
  5
122
330
107
100
AcDbEntity
  8
Make2D$可见线$普通线
100
AcDbVertex
100
AcDb2dVertex
 10
628.2362540949554
 20
1050.110709922661
 30
0.0
  0
VERTEX
  5
123
330
107
100
AcDbEntity
  8
Make2D$可见线$普通线
100
AcDbVertex
100
AcDb2dVertex
 10
628.2360912786105
 20
1050.110510413539
 30
0.0
  0
VERTEX
  5
124
330
107
100
AcDbEntity
  8
Make2D$可见线$普通线
100
AcDbVertex
100
AcDb2dVertex
 10
628.2359223229566
 20
1050.110310905344
 30
0.0
  0
VERTEX
  5
125
330
107
100
AcDbEntity
  8
Make2D$可见线$普通线
100
AcDbVertex
100
AcDb2dVertex
 10
628.2355659950911
 20
1050.109911891675
 30
0.0
  0
VERTEX
  5
126
330
107
100
AcDbEntity
  8
Make2D$可见线$普通线
100
AcDbVertex
100
AcDb2dVertex
 10
628.2351851140957
 20
1050.109512881533
 30
0.0
  0
VERTEX
  5
127
330
107
100
AcDbEntity
  8
Make2D$可见线$普通线
100
AcDbVertex
100
AcDb2dVertex
 10
628.2347796827078
 20
1050.109113874801
 30
0.0
  0
VERTEX
  5
128
330
107
100
AcDbEntity
  8
Make2D$可见线$普通线
100
AcDbVertex
100
AcDb2dVertex
 10
628.2343497036647
 20
1050.108714871359
 30
0.0
  0
VERTEX
  5
129
330
107
100
AcDbEntity
  8
Make2D$可见线$普通线
100
AcDbVertex
100
AcDb2dVertex
 10
628.2338951797036
 20
1050.108315871088
 30
0.0
  0
VERTEX
  5
12A
330
107
100
AcDbEntity
  8
Make2D$可见线$普通线
100
AcDbVertex
100
AcDb2dVertex
 10
628.2334161135618
 20
1050.107916873869
 30
0.0
  0
VERTEX
  5
12B
330
107
100
AcDbEntity
  8
Make2D$可见线$普通线
100
AcDbVertex
100
AcDb2dVertex
 10
628.2329125079766
 20
1050.107517879583
 30
0.0
  0
VERTEX
  5
12C
330
107
100
AcDbEntity
  8
Make2D$可见线$普通线
100
AcDbVertex
100
AcDb2dVertex
 10
628.232384365685
 20
1050.107118888111
 30
0.0
  0
VERTEX
  5
12D
330
107
100
AcDbEntity
  8
Make2D$可见线$普通线
100
AcDbVertex
100
AcDb2dVertex
 10
628.2318316894246
 20
1050.106719899333
 30
0.0
  0
VERTEX
  5
12E
330
107
100
AcDbEntity
  8
Make2D$可见线$普通线
100
AcDbVertex
100
AcDb2dVertex
 10
628.2312544819323
 20
1050.106320913132
 30
0.0
  0
VERTEX
  5
12F
330
107
100
AcDbEntity
  8
Make2D$可见线$普通线
100
AcDbVertex
100
AcDb2dVertex
 10
628.2306527459457
 20
1050.105921929387
 30
0.0
  0
VERTEX
  5
130
330
107
100
AcDbEntity
  8
Make2D$可见线$普通线
100
AcDbVertex
100
AcDb2dVertex
 10
628.2300264842017
 20
1050.105522947979
 30
0.0
  0
VERTEX
  5
131
330
107
100
AcDbEntity
  8
Make2D$可见线$普通线
100
AcDbVertex
100
AcDb2dVertex
 10
628.2287003943914
 20
1050.1047249917
 30
0.0
  0
VERTEX
  5
132
330
107
100
AcDbEntity
  8
Make2D$可见线$普通线
100
AcDbVertex
100
AcDb2dVertex
 10
628.2272762343991
 20
1050.103927043341
 30
0.0
  0
VERTEX
  5
133
330
107
100
AcDbEntity
  8
Make2D$可见线$普通线
100
AcDbVertex
100
AcDb2dVertex
 10
628.225754026123
 20
1050.103129101951
 30
0.0
  0
VERTEX
  5
134
330
107
100
AcDbEntity
  8
Make2D$可见线$普通线
100
AcDbVertex
100
AcDb2dVertex
 10
628.2241337914611
 20
1050.102331166577
 30
0.0
  0
VERTEX
  5
135
330
107
100
AcDbEntity
  8
Make2D$可见线$普通线
100
AcDbVertex
100
AcDb2dVertex
 10
628.2224155523114
 20
1050.101533236265
 30
0.0
  0
VERTEX
  5
136
330
107
100
AcDbEntity
  8
Make2D$可见线$普通线
100
AcDbVertex
100
AcDb2dVertex
 10
628.220599330572
 20
1050.100735310063
 30
0.0
  0
VERTEX
  5
137
330
107
100
AcDbEntity
  8
Make2D$可见线$普通线
100
AcDbVertex
100
AcDb2dVertex
 10
628.2186851481407
 20
1050.099937387019
 30
0.0
  0
VERTEX
  5
138
330
107
100
AcDbEntity
  8
Make2D$可见线$普通线
100
AcDbVertex
100
AcDb2dVertex
 10
628.2145629887948
 20
1050.098341546592
 30
0.0
  0
VERTEX
  5
139
330
107
100
AcDbEntity
  8
Make2D$可见线$普通线
100
AcDbVertex
100
AcDb2dVertex
 10
628.210049249458
 20
1050.096745707363
 30
0.0
  0
VERTEX
  5
13A
330
107
100
AcDbEntity
  8
Make2D$可见线$普通线
100
AcDbVertex
100
AcDb2dVertex
 10
628.2051441053145
 20
1050.095149861709
 30
0.0
  0
VERTEX
  5
13B
330
107
100
AcDbEntity
  8
Make2D$可见线$普通线
100
AcDbVertex
100
AcDb2dVertex
 10
628.1998477315481
 20
1050.09355400201
 30
0.0
  0
VERTEX
  5
13C
330
107
100
AcDbEntity
  8
Make2D$可见线$普通线
100
AcDbVertex
100
AcDb2dVertex
 10
628.1880819958834
 20
1050.090362209991
 30
0.0
  0
VERTEX
  5
13D
330
107
100
AcDbEntity
  8
Make2D$可见线$普通线
100
AcDbVertex
100
AcDb2dVertex
 10
628.1747534439369
 20
1050.087170270332
 30
0.0
  0
VERTEX
  5
13E
330
107
100
AcDbEntity
  8
Make2D$可见线$普通线
100
AcDbVertex
100
AcDb2dVertex
 10
628.1598634771811
 20
1050.083978122061
 30
0.0
  0
VERTEX
  5
13F
330
107
100
AcDbEntity
  8
Make2D$可见线$普通线
100
AcDbVertex
100
AcDb2dVertex
 10
628.1254049051336
 20
1050.077592955794
 30
0.0
  0
VERTEX
  5
140
330
107
100
AcDbEntity
  8
Make2D$可见线$普通线
100
AcDbVertex
100
AcDb2dVertex
 10
628.0847174915232
 20
1050.071206223416
 30
0.0
  0
VERTEX
  5
141
330
107
100
AcDbEntity
  8
Make2D$可见线$普通线
100
AcDbVertex
100
AcDb2dVertex
 10
628.0378124481322
 20
1050.064817437149
 30
0.0
  0
VERTEX
  5
142
330
107
100
AcDbEntity
  8
Make2D$可见线$普通线
100
AcDbVertex
100
AcDb2dVertex
 10
627.6343711245889
 20
1050.026545158165
 30
0.0
  0
VERTEX
  5
143
330
107
100
AcDbEntity
  8
Make2D$可见线$普通线
100
AcDbVertex
100
AcDb2dVertex
 10
627.2299493781793
 20
1050.000608313484
 30
0.0
  0
VERTEX
  5
144
330
107
100
AcDbEntity
  8
Make2D$可见线$普通线
100
AcDbVertex
100
AcDb2dVertex
 10
625.146073720606
 20
1049.910415723715
 30
0.0
  0
VERTEX
  5
145
330
107
100
AcDbEntity
  8
Make2D$可见线$普通线
100
AcDbVertex
100
AcDb2dVertex
 10
621.7325549166071
 20
1049.807962181766
 30
0.0
  0
VERTEX
  5
146
330
107
100
AcDbEntity
  8
Make2D$可见线$普通线
100
AcDbVertex
100
AcDb2dVertex
 10
611.8256288212365
 20
1049.551079144346
 30
0.0
  0
VERTEX
  5
147
330
107
100
AcDbEntity
  8
Make2D$可见线$普通线
100
AcDbVertex
100
AcDb2dVertex
 10
609.866524858689
 20
1049.486860528686
 30
0.0
  0
VERTEX
  5
148
330
107
100
AcDbEntity
  8
Make2D$可见线$普通线
100
AcDbVertex
100
AcDb2dVertex
 10
608.3754575269563
 20
1049.422627356654
 30
0.0
  0
VERTEX
  5
149
330
107
100
AcDbEntity
  8
Make2D$可见线$普通线
100
AcDbVertex
100
AcDb2dVertex
 10
607.9086289313872
 20
1049.395719297605
 30
0.0
  0
VERTEX
  5
14A
330
107
100
AcDbEntity
  8
Make2D$可见线$普通线
100
AcDbVertex
100
AcDb2dVertex
 10
607.4425159581099
 20
1049.358414104598
 30
0.0
  0
VERTEX
  5
14B
330
107
100
AcDbEntity
  8
Make2D$可见线$普通线
100
AcDbVertex
100
AcDb2dVertex
 10
607.3036732507353
 20
1049.342349327967
 30
0.0
  0
VERTEX
  5
14C
330
107
100
AcDbEntity
  8
Make2D$可见线$普通线
100
AcDbVertex
100
AcDb2dVertex
 10
607.2489272434279
 20
1049.334318758787
 30
0.0
  0
VERTEX
  5
14D
330
107
100
AcDbEntity
  8
Make2D$可见线$普通线
100
AcDbVertex
100
AcDb2dVertex
 10
607.2252354216714
 20
1049.330302336223
 30
0.0
  0
VERTEX
  5
14E
330
107
100
AcDbEntity
  8
Make2D$可见线$普通线
100
AcDbVertex
100
AcDb2dVertex
 10
607.2040024241519
 20
1049.326284548245
 30
0.0
  0
VERTEX
  5
14F
330
107
100
AcDbEntity
  8
Make2D$可见线$普通线
100
AcDbVertex
100
AcDb2dVertex
 10
607.1852317780983
 20
1049.322264939779
 30
0.0
  0
VERTEX
  5
150
330
107
100
AcDbEntity
  8
Make2D$可见线$普通线
100
AcDbVertex
100
AcDb2dVertex
 10
607.1767709391305
 20
1049.320254310652
 30
0.0
  0
VERTEX
  5
151
330
107
100
AcDbEntity
  8
Make2D$可见线$普通线
100
AcDbVertex
100
AcDb2dVertex
 10
607.1689270107402
 20
1049.318243055751
 30
0.0
  0
VERTEX
  5
152
330
107
100
AcDbEntity
  8
Make2D$可见线$普通线
100
AcDbVertex
100
AcDb2dVertex
 10
607.1617004338309
 20
1049.316231118192
 30
0.0
  0
VERTEX
  5
153
330
107
100
AcDbEntity
  8
Make2D$可见线$普通线
100
AcDbVertex
100
AcDb2dVertex
 10
607.1550916493064
 20
1049.314218441089
 30
0.0
  0
VERTEX
  5
154
330
107
100
AcDbEntity
  8
Make2D$可见线$普通线
100
AcDbVertex
100
AcDb2dVertex
 10
607.1491010980703
 20
1049.312204967559
 30
0.0
  0
VERTEX
  5
155
330
107
100
AcDbEntity
  8
Make2D$可见线$普通线
100
AcDbVertex
100
AcDb2dVertex
 10
607.1463377977178
 20
1049.311197914358
 30
0.0
  0
VERTEX
  5
156
330
107
100
AcDbEntity
  8
Make2D$可见线$普通线
100
AcDbVertex
100
AcDb2dVertex
 10
607.1437292210262
 20
1049.310190640718
 30
0.0
  0
VERTEX
  5
157
330
107
100
AcDbEntity
  8
Make2D$可见线$普通线
100
AcDbVertex
100
AcDb2dVertex
 10
607.1412754231085
 20
1049.30918313953
 30
0.0
  0
VERTEX
  5
158
330
107
100
AcDbEntity
  8
Make2D$可见线$普通线
100
AcDbVertex
100
AcDb2dVertex
 10
607.1389764590779
 20
1049.308175403682
 30
0.0
  0
VERTEX
  5
159
330
107
100
AcDbEntity
  8
Make2D$可见线$普通线
100
AcDbVertex
100
AcDb2dVertex
 10
607.136832384047
 20
1049.307167426064
 30
0.0
  0
VERTEX
  5
15A
330
107
100
AcDbEntity
  8
Make2D$可见线$普通线
100
AcDbVertex
100
AcDb2dVertex
 10
607.1348432531289
 20
1049.306159199565
 30
0.0
  0
VERTEX
  5
15B
330
107
100
AcDbEntity
  8
Make2D$可见线$普通线
100
AcDbVertex
100
AcDb2dVertex
 10
607.133906808935
 20
1049.305654990764
 30
0.0
  0
VERTEX
  5
15C
330
107
100
AcDbEntity
  8
Make2D$可见线$普通线
100
AcDbVertex
100
AcDb2dVertex
 10
607.1330091214365
 20
1049.305150717076
 30
0.0
  0
VERTEX
  5
15D
330
107
100
AcDbEntity
  8
Make2D$可见线$普通线
100
AcDbVertex
100
AcDb2dVertex
 10
607.1321501975228
 20
1049.304646377612
 30
0.0
  0
VERTEX
  5
15E
330
107
100
AcDbEntity
  8
Make2D$可见线$普通线
100
AcDbVertex
100
AcDb2dVertex
 10
607.1313300440829
 20
1049.304141971485
 30
0.0
  0
VERTEX
  5
15F
330
107
100
AcDbEntity
  8
Make2D$可见线$普通线
100
AcDbVertex
100
AcDb2dVertex
 10
607.1305486680059
 20
1049.303637497804
 30
0.0
  0
VERTEX
  5
160
330
107
100
AcDbEntity
  8
Make2D$可见线$普通线
100
AcDbVertex
100
AcDb2dVertex
 10
607.129806076181
 20
1049.303132955681
 30
0.0
  0
VERTEX
  5
161
330
107
100
AcDbEntity
  8
Make2D$可见线$普通线
100
AcDbVertex
100
AcDb2dVertex
 10
607.1291022754972
 20
1049.302628344228
 30
0.0
  0
VERTEX
  5
162
330
107
100
AcDbEntity
  8
Make2D$可见线$普通线
100
AcDbVertex
100
AcDb2dVertex
 10
607.1284372728436
 20
1049.302123662556
 30
0.0
  0
VERTEX
  5
163
330
107
100
AcDbEntity
  8
Make2D$可见线$普通线
100
AcDbVertex
100
AcDb2dVertex
 10
607.1278110751094
 20
1049.301618909775
 30
0.0
  0
VERTEX
  5
164
330
107
100
AcDbEntity
  8
Make2D$可见线$普通线
100
AcDbVertex
100
AcDb2dVertex
 10
607.1272236891838
 20
1049.301114084997
 30
0.0
  0
VERTEX
  5
165
330
107
100
AcDbEntity
  8
Make2D$可见线$普通线
100
AcDbVertex
100
AcDb2dVertex
 10
607.126944552802
 20
1049.300861645332
 30
0.0
  0
VERTEX
  5
166
330
107
100
AcDbEntity
  8
Make2D$可见线$普通线
100
AcDbVertex
100
AcDb2dVertex
 10
607.1266751219557
 20
1049.300609187334
 30
0.0
  0
VERTEX
  5
167
330
107
100
AcDbEntity
  8
Make2D$可见线$普通线
100
AcDbVertex
100
AcDb2dVertex
 10
607.1264153975062
 20
1049.300356710892
 30
0.0
  0
VERTEX
  5
168
330
107
100
AcDbEntity
  8
Make2D$可见线$普通线
100
AcDbVertex
100
AcDb2dVertex
 10
607.1261653803145
 20
1049.300104215895
 30
0.0
  0
VERTEX
  5
169
330
107
100
AcDbEntity
  8
Make2D$可见线$普通线
100
AcDbVertex
100
AcDb2dVertex
 10
607.1259250712418
 20
1049.299851702232
 30
0.0
  0
VERTEX
  5
16A
330
107
100
AcDbEntity
  8
Make2D$可见线$普通线
100
AcDbVertex
100
AcDb2dVertex
 10
607.1256944711492
 20
1049.299599169793
 30
0.0
  0
VERTEX
  5
16B
330
107
100
AcDbEntity
  8
Make2D$可见线$普通线
100
AcDbVertex
100
AcDb2dVertex
 10
607.1254735808978
 20
1049.299346618465
 30
0.0
  0
VERTEX
  5
16C
330
107
100
AcDbEntity
  8
Make2D$可见线$普通线
100
AcDbVertex
100
AcDb2dVertex
 10
607.1252624013489
 20
1049.299094048138
 30
0.0
  0
VERTEX
  5
16D
330
107
100
AcDbEntity
  8
Make2D$可见线$普通线
100
AcDbVertex
100
AcDb2dVertex
 10
607.1250609333634
 20
1049.298841458701
 30
0.0
  0
VERTEX
  5
16E
330
107
100
AcDbEntity
  8
Make2D$可见线$普通线
100
AcDbVertex
100
AcDb2dVertex
 10
607.1248691778026
 20
1049.298588850043
 30
0.0
  0
VERTEX
  5
16F
330
107
100
AcDbEntity
  8
Make2D$可见线$普通线
100
AcDbVertex
100
AcDb2dVertex
 10
607.1246871355274
 20
1049.298336222052
 30
0.0
  0
VERTEX
  5
170
330
107
100
AcDbEntity
  8
Make2D$可见线$普通线
100
AcDbVertex
100
AcDb2dVertex
 10
607.1245148073995
 20
1049.298083574617
 30
0.0
  0
VERTEX
  5
171
330
107
100
AcDbEntity
  8
Make2D$可见线$普通线
100
AcDbVertex
100
AcDb2dVertex
 10
607.1243521942795
 20
1049.297830907628
 30
0.0
  0
VERTEX
  5
172
330
107
100
AcDbEntity
  8
Make2D$可见线$普通线
100
AcDbVertex
100
AcDb2dVertex
 10
607.1241992970288
 20
1049.297578220973
 30
0.0
  0
VERTEX
  5
173
330
107
100
AcDbEntity
  8
Make2D$可见线$普通线
100
AcDbVertex
100
AcDb2dVertex
 10
607.1240561165084
 20
1049.297325514541
 30
0.0
  0
VERTEX
  5
174
330
107
100
AcDbEntity
  8
Make2D$可见线$普通线
100
AcDbVertex
100
AcDb2dVertex
 10
607.1239226535795
 20
1049.297072788221
 30
0.0
  0
VERTEX
  5
175
330
107
100
AcDbEntity
  8
Make2D$可见线$普通线
100
AcDbVertex
100
AcDb2dVertex
 10
607.1237989091032
 20
1049.296820041902
 30
0.0
  0
VERTEX
  5
176
330
107
100
AcDbEntity
  8
Make2D$可见线$普通线
100
AcDbVertex
100
AcDb2dVertex
 10
607.1236848839409
 20
1049.296567275472
 30
0.0
  0
VERTEX
  5
177
330
107
100
AcDbEntity
  8
Make2D$可见线$普通线
100
AcDbVertex
100
AcDb2dVertex
 10
607.1235805789535
 20
1049.296314488822
 30
0.0
  0
VERTEX
  5
178
330
107
100
AcDbEntity
  8
Make2D$可见线$普通线
100
AcDbVertex
100
AcDb2dVertex
 10
607.1234859950019
 20
1049.296061681839
 30
0.0
  0
VERTEX
  5
179
330
107
100
AcDbEntity
  8
Make2D$可见线$普通线
100
AcDbVertex
100
AcDb2dVertex
 10
607.1234011329477
 20
1049.295808854412
 30
0.0
  0
VERTEX
  5
17A
330
107
100
AcDbEntity
  8
Make2D$可见线$普通线
100
AcDbVertex
100
AcDb2dVertex
 10
607.1233259936519
 20
1049.295556006431
 30
0.0
  0
VERTEX
  5
17B
330
107
100
AcDbEntity
  8
Make2D$可见线$普通线
100
AcDbVertex
100
AcDb2dVertex
 10
607.1232605779754
 20
1049.295303137784
 30
0.0
  0
VERTEX
  5
17C
330
107
100
AcDbEntity
  8
Make2D$可见线$普通线
100
AcDbVertex
100
AcDb2dVertex
 10
607.1232048867796
 20
1049.29505024836
 30
0.0
  0
VERTEX
  5
17D
330
107
100
AcDbEntity
  8
Make2D$可见线$普通线
100
AcDbVertex
100
AcDb2dVertex
 10
607.1231589209256
 20
1049.294797338049
 30
0.0
  0
VERTEX
  5
17E
330
107
100
AcDbEntity
  8
Make2D$可见线$普通线
100
AcDbVertex
100
AcDb2dVertex
 10
607.1231226812745
 20
1049.294544406738
 30
0.0
  0
VERTEX
  5
17F
330
107
100
AcDbEntity
  8
Make2D$可见线$普通线
100
AcDbVertex
100
AcDb2dVertex
 10
607.1230961686875
 20
1049.294291454317
 30
0.0
  0
VERTEX
  5
180
330
107
100
AcDbEntity
  8
Make2D$可见线$普通线
100
AcDbVertex
100
AcDb2dVertex
 10
607.1230793840256
 20
1049.294038480675
 30
0.0
  0
VERTEX
  5
181
330
107
100
AcDbEntity
  8
Make2D$可见线$普通线
100
AcDbVertex
100
AcDb2dVertex
 10
607.1230757588748
 20
1048.653061942746
 30
0.0
  0
SEQEND
  5
182
330
107
100
AcDbEntity
  8
Make2D$可见线$普通线
  0
POLYLINE
  5
183
330
1F
100
AcDbEntity
  8
Make2D$可见线$普通线
100
AcDb2dPolyline
 66
     1
 10
0.0
 20
0.0
 30
0.0
  0
VERTEX
  5
184
330
183
100
AcDbEntity
  8
Make2D$可见线$普通线
100
AcDbVertex
100
AcDb2dVertex
 10
607.4156318027394
 20
1053.513782379099
 30
0.0
 42
-0.0603655033593188
  0
VERTEX
  5
185
330
183
100
AcDbEntity
  8
Make2D$可见线$普通线
100
AcDbVertex
100
AcDb2dVertex
 10
607.1363928014955
 20
1053.562378571185
 30
0.0
  0
VERTEX
  5
186
330
183
100
AcDbEntity
  8
Make2D$可见线$普通线
100
AcDbVertex
100
AcDb2dVertex
 10
607.134780421912
 20
1053.563200105893
 30
0.0
  0
VERTEX
  5
187
330
183
100
AcDbEntity
  8
Make2D$可见线$普通线
100
AcDbVertex
100
AcDb2dVertex
 10
607.1332720221653
 20
1053.564021567746
 30
0.0
  0
VERTEX
  5
188
330
183
100
AcDbEntity
  8
Make2D$可见线$普通线
100
AcDbVertex
100
AcDb2dVertex
 10
607.1318676084169
 20
1053.564842962414
 30
0.0
  0
VERTEX
  5
189
330
183
100
AcDbEntity
  8
Make2D$可见线$普通线
100
AcDbVertex
100
AcDb2dVertex
 10
607.1312043982173
 20
1053.565253636327
 30
0.0
  0
VERTEX
  5
18A
330
183
100
AcDbEntity
  8
Make2D$可见线$普通线
100
AcDbVertex
100
AcDb2dVertex
 10
607.1305671868276
 20
1053.56566429557
 30
0.0
  0
VERTEX
  5
18B
330
183
100
AcDbEntity
  8
Make2D$可见线$普通线
100
AcDbVertex
100
AcDb2dVertex
 10
607.1299559750181
 20
1053.566074940853
 30
0.0
  0
VERTEX
  5
18C
330
183
100
AcDbEntity
  8
Make2D$可见线$普通线
100
AcDbVertex
100
AcDb2dVertex
 10
607.1293707635589
 20
1053.566485572883
 30
0.0
  0
VERTEX
  5
18D
330
183
100
AcDbEntity
  8
Make2D$可见线$普通线
100
AcDbVertex
100
AcDb2dVertex
 10
607.1288115532202
 20
1053.566896192371
 30
0.0
  0
VERTEX
  5
18E
330
183
100
AcDbEntity
  8
Make2D$可见线$普通线
100
AcDbVertex
100
AcDb2dVertex
 10
607.1282783447722
 20
1053.567306800025
 30
0.0
  0
VERTEX
  5
18F
330
183
100
AcDbEntity
  8
Make2D$可见线$普通线
100
AcDbVertex
100
AcDb2dVertex
 10
607.1277711389849
 20
1053.567717396554
 30
0.0
  0
VERTEX
  5
190
330
183
100
AcDbEntity
  8
Make2D$可见线$普通线
100
AcDbVertex
100
AcDb2dVertex
 10
607.1272899366285
 20
1053.568127982667
 30
0.0
  0
VERTEX
  5
191
330
183
100
AcDbEntity
  8
Make2D$可见线$普通线
100
AcDbVertex
100
AcDb2dVertex
 10
607.126834738473
 20
1053.568538559073
 30
0.0
  0
VERTEX
  5
192
330
183
100
AcDbEntity
  8
Make2D$可见线$普通线
100
AcDbVertex
100
AcDb2dVertex
 10
607.1264055452889
 20
1053.568949126479
 30
0.0
  0
VERTEX
  5
193
330
183
100
AcDbEntity
  8
Make2D$可见线$普通线
100
AcDbVertex
100
AcDb2dVertex
 10
607.1260023578461
 20
1053.569359685597
 30
0.0
  0
VERTEX
  5
194
330
183
100
AcDbEntity
  8
Make2D$可见线$普通线
100
AcDbVertex
100
AcDb2dVertex
 10
607.1256251769148
 20
1053.569770237133
 30
0.0
  0
VERTEX
  5
195
330
183
100
AcDbEntity
  8
Make2D$可见线$普通线
100
AcDbVertex
100
AcDb2dVertex
 10
607.1254463391317
 20
1053.56997551028
 30
0.0
  0
VERTEX
  5
196
330
183
100
AcDbEntity
  8
Make2D$可见线$普通线
100
AcDbVertex
100
AcDb2dVertex
 10
607.1252740032652
 20
1053.570180781798
 30
0.0
  0
VERTEX
  5
197
330
183
100
AcDbEntity
  8
Make2D$可见线$普通线
100
AcDbVertex
100
AcDb2dVertex
 10
607.1251081694118
 20
1053.570386051775
 30
0.0
  0
VERTEX
  5
198
330
183
100
AcDbEntity
  8
Make2D$可见线$普通线
100
AcDbVertex
100
AcDb2dVertex
 10
607.1249488376675
 20
1053.570591320299
 30
0.0
  0
VERTEX
  5
199
330
183
100
AcDbEntity
  8
Make2D$可见线$普通线
100
AcDbVertex
100
AcDb2dVertex
 10
607.1247960081288
 20
1053.57079658746
 30
0.0
  0
VERTEX
  5
19A
330
183
100
AcDbEntity
  8
Make2D$可见线$普通线
100
AcDbVertex
100
AcDb2dVertex
 10
607.1246496808918
 20
1053.571001853347
 30
0.0
  0
VERTEX
  5
19B
330
183
100
AcDbEntity
  8
Make2D$可见线$普通线
100
AcDbVertex
100
AcDb2dVertex
 10
607.1245098560529
 20
1053.571207118046
 30
0.0
  0
VERTEX
  5
19C
330
183
100
AcDbEntity
  8
Make2D$可见线$普通线
100
AcDbVertex
100
AcDb2dVertex
 10
607.1243765337083
 20
1053.571412381649
 30
0.0
  0
VERTEX
  5
19D
330
183
100
AcDbEntity
  8
Make2D$可见线$普通线
100
AcDbVertex
100
AcDb2dVertex
 10
607.1242497139542
 20
1053.571617644242
 30
0.0
  0
VERTEX
  5
19E
330
183
100
AcDbEntity
  8
Make2D$可见线$普通线
100
AcDbVertex
100
AcDb2dVertex
 10
607.1241293968869
 20
1053.571822905914
 30
0.0
  0
VERTEX
  5
19F
330
183
100
AcDbEntity
  8
Make2D$可见线$普通线
100
AcDbVertex
100
AcDb2dVertex
 10
607.1240155826029
 20
1053.572028166755
 30
0.0
  0
VERTEX
  5
1A0
330
183
100
AcDbEntity
  8
Make2D$可见线$普通线
100
AcDbVertex
100
AcDb2dVertex
 10
607.1239082711982
 20
1053.572233426853
 30
0.0
  0
VERTEX
  5
1A1
330
183
100
AcDbEntity
  8
Make2D$可见线$普通线
100
AcDbVertex
100
AcDb2dVertex
 10
607.123807462769
 20
1053.572438686295
 30
0.0
  0
VERTEX
  5
1A2
330
183
100
AcDbEntity
  8
Make2D$可见线$普通线
100
AcDbVertex
100
AcDb2dVertex
 10
607.1237131574119
 20
1053.572643945172
 30
0.0
  0
VERTEX
  5
1A3
330
183
100
AcDbEntity
  8
Make2D$可见线$普通线
100
AcDbVertex
100
AcDb2dVertex
 10
607.123625355223
 20
1053.572849203571
 30
0.0
  0
VERTEX
  5
1A4
330
183
100
AcDbEntity
  8
Make2D$可见线$普通线
100
AcDbVertex
100
AcDb2dVertex
 10
607.1235440562986
 20
1053.573054461582
 30
0.0
  0
VERTEX
  5
1A5
330
183
100
AcDbEntity
  8
Make2D$可见线$普通线
100
AcDbVertex
100
AcDb2dVertex
 10
607.1234692607349
 20
1053.573259719292
 30
0.0
  0
VERTEX
  5
1A6
330
183
100
AcDbEntity
  8
Make2D$可见线$普通线
100
AcDbVertex
100
AcDb2dVertex
 10
607.1234009686282
 20
1053.573464976791
 30
0.0
  0
VERTEX
  5
1A7
330
183
100
AcDbEntity
  8
Make2D$可见线$普通线
100
AcDbVertex
100
AcDb2dVertex
 10
607.1233391800747
 20
1053.573670234166
 30
0.0
  0
VERTEX
  5
1A8
330
183
100
AcDbEntity
  8
Make2D$可见线$普通线
100
AcDbVertex
100
AcDb2dVertex
 10
607.1232838951707
 20
1053.573875491507
 30
0.0
  0
VERTEX
  5
1A9
330
183
100
AcDbEntity
  8
Make2D$可见线$普通线
100
AcDbVertex
100
AcDb2dVertex
 10
607.1232351140126
 20
1053.574080748902
 30
0.0
  0
VERTEX
  5
1AA
330
183
100
AcDbEntity
  8
Make2D$可见线$普通线
100
AcDbVertex
100
AcDb2dVertex
 10
607.1231928366965
 20
1053.57428600644
 30
0.0
  0
VERTEX
  5
1AB
330
183
100
AcDbEntity
  8
Make2D$可见线$普通线
100
AcDbVertex
100
AcDb2dVertex
 10
607.1231570633188
 20
1053.57449126421
 30
0.0
  0
VERTEX
  5
1AC
330
183
100
AcDbEntity
  8
Make2D$可见线$普通线
100
AcDbVertex
100
AcDb2dVertex
 10
607.1231277939758
 20
1053.574696522299
 30
0.0
  0
VERTEX
  5
1AD
330
183
100
AcDbEntity
  8
Make2D$可见线$普通线
100
AcDbVertex
100
AcDb2dVertex
 10
607.1231050287636
 20
1053.574901780798
 30
0.0
  0
VERTEX
  5
1AE
330
183
100
AcDbEntity
  8
Make2D$可见线$普通线
100
AcDbVertex
100
AcDb2dVertex
 10
607.1230887677784
 20
1053.575107039793
 30
0.0
  0
VERTEX
  5
1AF
330
183
100
AcDbEntity
  8
Make2D$可见线$普通线
100
AcDbVertex
100
AcDb2dVertex
 10
607.1230790111167
 20
1053.575312299374
 30
0.0
  0
VERTEX
  5
1B0
330
183
100
AcDbEntity
  8
Make2D$可见线$普通线
100
AcDbVertex
100
AcDb2dVertex
 10
607.1230757588748
 20
1053.57551755963
 30
0.0
  0
VERTEX
  5
1B1
330
183
100
AcDbEntity
  8
Make2D$可见线$普通线
100
AcDbVertex
100
AcDb2dVertex
 10
607.1230788326044
 20
1053.575717108494
 30
0.0
  0
VERTEX
  5
1B2
330
183
100
AcDbEntity
  8
Make2D$可见线$普通线
100
AcDbVertex
100
AcDb2dVertex
 10
607.1230880535651
 20
1053.575916655558
 30
0.0
  0
VERTEX
  5
1B3
330
183
100
AcDbEntity
  8
Make2D$可见线$普通线
100
AcDbVertex
100
AcDb2dVertex
 10
607.123103421415
 20
1053.576116200838
 30
0.0
  0
VERTEX
  5
1B4
330
183
100
AcDbEntity
  8
Make2D$可见线$普通线
100
AcDbVertex
100
AcDb2dVertex
 10
607.1231249358118
 20
1053.576315744351
 30
0.0
  0
VERTEX
  5
1B5
330
183
100
AcDbEntity
  8
Make2D$可见线$普通线
100
AcDbVertex
100
AcDb2dVertex
 10
607.1231525964135
 20
1053.576515286116
 30
0.0
  0
VERTEX
  5
1B6
330
183
100
AcDbEntity
  8
Make2D$可见线$普通线
100
AcDbVertex
100
AcDb2dVertex
 10
607.1231864028784
 20
1053.576714826149
 30
0.0
  0
VERTEX
  5
1B7
330
183
100
AcDbEntity
  8
Make2D$可见线$普通线
100
AcDbVertex
100
AcDb2dVertex
 10
607.1232263548641
 20
1053.576914364468
 30
0.0
  0
VERTEX
  5
1B8
330
183
100
AcDbEntity
  8
Make2D$可见线$普通线
100
AcDbVertex
100
AcDb2dVertex
 10
607.1232724520288
 20
1053.57711390109
 30
0.0
  0
VERTEX
  5
1B9
330
183
100
AcDbEntity
  8
Make2D$可见线$普通线
100
AcDbVertex
100
AcDb2dVertex
 10
607.1233246940303
 20
1053.577313436033
 30
0.0
  0
VERTEX
  5
1BA
330
183
100
AcDbEntity
  8
Make2D$可见线$普通线
100
AcDbVertex
100
AcDb2dVertex
 10
607.1233830805267
 20
1053.577512969314
 30
0.0
  0
VERTEX
  5
1BB
330
183
100
AcDbEntity
  8
Make2D$可见线$普通线
100
AcDbVertex
100
AcDb2dVertex
 10
607.1234476111757
 20
1053.577712500951
 30
0.0
  0
VERTEX
  5
1BC
330
183
100
AcDbEntity
  8
Make2D$可见线$普通线
100
AcDbVertex
100
AcDb2dVertex
 10
607.1235182856356
 20
1053.577912030961
 30
0.0
  0
VERTEX
  5
1BD
330
183
100
AcDbEntity
  8
Make2D$可见线$普通线
100
AcDbVertex
100
AcDb2dVertex
 10
607.123595103564
 20
1053.57811155936
 30
0.0
  0
VERTEX
  5
1BE
330
183
100
AcDbEntity
  8
Make2D$可见线$普通线
100
AcDbVertex
100
AcDb2dVertex
 10
607.1236780646192
 20
1053.578311086168
 30
0.0
  0
VERTEX
  5
1BF
330
183
100
AcDbEntity
  8
Make2D$可见线$普通线
100
AcDbVertex
100
AcDb2dVertex
 10
607.1237671684589
 20
1053.578510611401
 30
0.0
  0
VERTEX
  5
1C0
330
183
100
AcDbEntity
  8
Make2D$可见线$普通线
100
AcDbVertex
100
AcDb2dVertex
 10
607.1238624147413
 20
1053.578710135076
 30
0.0
  0
VERTEX
  5
1C1
330
183
100
AcDbEntity
  8
Make2D$可见线$普通线
100
AcDbVertex
100
AcDb2dVertex
 10
607.1239638031242
 20
1053.578909657212
 30
0.0
  0
VERTEX
  5
1C2
330
183
100
AcDbEntity
  8
Make2D$可见线$普通线
100
AcDbVertex
100
AcDb2dVertex
 10
607.1240713332656
 20
1053.579109177824
 30
0.0
  0
VERTEX
  5
1C3
330
183
100
AcDbEntity
  8
Make2D$可见线$普通线
100
AcDbVertex
100
AcDb2dVertex
 10
607.1241850048236
 20
1053.579308696932
 30
0.0
  0
VERTEX
  5
1C4
330
183
100
AcDbEntity
  8
Make2D$可见线$普通线
100
AcDbVertex
100
AcDb2dVertex
 10
607.1243048174558
 20
1053.579508214552
 30
0.0
  0
VERTEX
  5
1C5
330
183
100
AcDbEntity
  8
Make2D$可见线$普通线
100
AcDbVertex
100
AcDb2dVertex
 10
607.1244307708205
 20
1053.579707730701
 30
0.0
  0
VERTEX
  5
1C6
330
183
100
AcDbEntity
  8
Make2D$可见线$普通线
100
AcDbVertex
100
AcDb2dVertex
 10
607.1245628645754
 20
1053.579907245397
 30
0.0
  0
VERTEX
  5
1C7
330
183
100
AcDbEntity
  8
Make2D$可见线$普通线
100
AcDbVertex
100
AcDb2dVertex
 10
607.1247010983788
 20
1053.580106758658
 30
0.0
  0
VERTEX
  5
1C8
330
183
100
AcDbEntity
  8
Make2D$可见线$普通线
100
AcDbVertex
100
AcDb2dVertex
 10
607.1248454718883
 20
1053.5803062705
 30
0.0
  0
VERTEX
  5
1C9
330
183
100
AcDbEntity
  8
Make2D$可见线$普通线
100
AcDbVertex
100
AcDb2dVertex
 10
607.1249959847621
 20
1053.580505780942
 30
0.0
  0
VERTEX
  5
1CA
330
183
100
AcDbEntity
  8
Make2D$可见线$普通线
100
AcDbVertex
100
AcDb2dVertex
 10
607.1251526366582
 20
1053.58070529
 30
0.0
  0
VERTEX
  5
1CB
330
183
100
AcDbEntity
  8
Make2D$可见线$普通线
100
AcDbVertex
100
AcDb2dVertex
 10
607.1253154272343
 20
1053.580904797693
 30
0.0
  0
VERTEX
  5
1CC
330
183
100
AcDbEntity
  8
Make2D$可见线$普通线
100
AcDbVertex
100
AcDb2dVertex
 10
607.1254843561485
 20
1053.581104304037
 30
0.0
  0
VERTEX
  5
1CD
330
183
100
AcDbEntity
  8
Make2D$可见线$普通线
100
AcDbVertex
100
AcDb2dVertex
 10
607.1258406276231
 20
1053.581503312749
 30
0.0
  0
VERTEX
  5
1CE
330
183
100
AcDbEntity
  8
Make2D$可见线$普通线
100
AcDbVertex
100
AcDb2dVertex
 10
607.1262214483456
 20
1053.581902316275
 30
0.0
  0
VERTEX
  5
1CF
330
183
100
AcDbEntity
  8
Make2D$可见线$普通线
100
AcDbVertex
100
AcDb2dVertex
 10
607.1266268155798
 20
1053.582301314756
 30
0.0
  0
VERTEX
  5
1D0
330
183
100
AcDbEntity
  8
Make2D$可见线$普通线
100
AcDbVertex
100
AcDb2dVertex
 10
607.1270567265892
 20
1053.582700308329
 30
0.0
  0
VERTEX
  5
1D1
330
183
100
AcDbEntity
  8
Make2D$可见线$普通线
100
AcDbVertex
100
AcDb2dVertex
 10
607.1275111786379
 20
1053.583099297135
 30
0.0
  0
VERTEX
  5
1D2
330
183
100
AcDbEntity
  8
Make2D$可见线$普通线
100
AcDbVertex
100
AcDb2dVertex
 10
607.1279901689891
 20
1053.583498281313
 30
0.0
  0
VERTEX
  5
1D3
330
183
100
AcDbEntity
  8
Make2D$可见线$普通线
100
AcDbVertex
100
AcDb2dVertex
 10
607.1284936949068
 20
1053.583897261002
 30
0.0
  0
VERTEX
  5
1D4
330
183
100
AcDbEntity
  8
Make2D$可见线$普通线
100
AcDbVertex
100
AcDb2dVertex
 10
607.1290217536543
 20
1053.584296236342
 30
0.0
  0
VERTEX
  5
1D5
330
183
100
AcDbEntity
  8
Make2D$可见线$普通线
100
AcDbVertex
100
AcDb2dVertex
 10
607.1295743424957
 20
1053.58469520747
 30
0.0
  0
VERTEX
  5
1D6
330
183
100
AcDbEntity
  8
Make2D$可见线$普通线
100
AcDbVertex
100
AcDb2dVertex
 10
607.1301514586946
 20
1053.585094174528
 30
0.0
  0
VERTEX
  5
1D7
330
183
100
AcDbEntity
  8
Make2D$可见线$普通线
100
AcDbVertex
100
AcDb2dVertex
 10
607.1307530995147
 20
1053.585493137654
 30
0.0
  0
VERTEX
  5
1D8
330
183
100
AcDbEntity
  8
Make2D$可见线$普通线
100
AcDbVertex
100
AcDb2dVertex
 10
607.1313792622195
 20
1053.585892096987
 30
0.0
  0
VERTEX
  5
1D9
330
183
100
AcDbEntity
  8
Make2D$可见线$普通线
100
AcDbVertex
100
AcDb2dVertex
 10
607.1327051423382
 20
1053.586690004832
 30
0.0
  0
VERTEX
  5
1DA
330
183
100
AcDbEntity
  8
Make2D$可见线$普通线
100
AcDbVertex
100
AcDb2dVertex
 10
607.1341290771604
 20
1053.587487899177
 30
0.0
  0
VERTEX
  5
1DB
330
183
100
AcDbEntity
  8
Make2D$可见线$普通线
100
AcDbVertex
100
AcDb2dVertex
 10
607.1356510447954
 20
1053.588285781138
 30
0.0
  0
VERTEX
  5
1DC
330
183
100
AcDbEntity
  8
Make2D$可见线$普通线
100
AcDbVertex
100
AcDb2dVertex
 10
607.1372710233529
 20
1053.589083651826
 30
0.0
  0
VERTEX
  5
1DD
330
183
100
AcDbEntity
  8
Make2D$可见线$普通线
100
AcDbVertex
100
AcDb2dVertex
 10
607.1389889909424
 20
1053.589881512358
 30
0.0
  0
VERTEX
  5
1DE
330
183
100
AcDbEntity
  8
Make2D$可见线$普通线
100
AcDbVertex
100
AcDb2dVertex
 10
607.1408049256731
 20
1053.590679363846
 30
0.0
  0
VERTEX
  5
1DF
330
183
100
AcDbEntity
  8
Make2D$可见线$普通线
100
AcDbVertex
100
AcDb2dVertex
 10
607.142718805655
 20
1053.591477207406
 30
0.0
  0
VERTEX
  5
1E0
330
183
100
AcDbEntity
  8
Make2D$可见线$普通线
100
AcDbVertex
100
AcDb2dVertex
 10
607.146840313809
 20
1053.593072875194
 30
0.0
  0
VERTEX
  5
1E1
330
183
100
AcDbEntity
  8
Make2D$可见线$普通线
100
AcDbVertex
100
AcDb2dVertex
 10
607.1513533402804
 20
1053.594668524634
 30
0.0
  0
VERTEX
  5
1E2
330
183
100
AcDbEntity
  8
Make2D$可见线$普通线
100
AcDbVertex
100
AcDb2dVertex
 10
607.156257709945
 20
1053.596264164641
 30
0.0
  0
VERTEX
  5
1E3
330
183
100
AcDbEntity
  8
Make2D$可见线$普通线
100
AcDbVertex
100
AcDb2dVertex
 10
607.1615532476786
 20
1053.597859804126
 30
0.0
  0
VERTEX
  5
1E4
330
183
100
AcDbEntity
  8
Make2D$可见线$普通线
100
AcDbVertex
100
AcDb2dVertex
 10
607.1733171268568
 20
1053.601051117183
 30
0.0
  0
VERTEX
  5
1E5
330
183
100
AcDbEntity
  8
Make2D$可见线$普通线
100
AcDbVertex
100
AcDb2dVertex
 10
607.1866435768218
 20
1053.604242535106
 30
0.0
  0
VERTEX
  5
1E6
330
183
100
AcDbEntity
  8
Make2D$可见线$普通线
100
AcDbVertex
100
AcDb2dVertex
 10
607.2015311965808
 20
1053.6074341292
 30
0.0
  0
VERTEX
  5
1E7
330
183
100
AcDbEntity
  8
Make2D$可见线$普通线
100
AcDbVertex
100
AcDb2dVertex
 10
607.2359843415086
 20
1053.613818131102
 30
0.0
  0
VERTEX
  5
1E8
330
183
100
AcDbEntity
  8
Make2D$可见线$普通线
100
AcDbVertex
100
AcDb2dVertex
 10
607.2766653536963
 20
1053.620203693308
 30
0.0
  0
VERTEX
  5
1E9
330
183
100
AcDbEntity
  8
Make2D$可见线$普通线
100
AcDbVertex
100
AcDb2dVertex
 10
607.3235630252002
 20
1053.626591386234
 30
0.0
  0
VERTEX
  5
1EA
330
183
100
AcDbEntity
  8
Make2D$可见线$普通线
100
AcDbVertex
100
AcDb2dVertex
 10
607.7269483634744
 20
1053.664861611474
 30
0.0
  0
VERTEX
  5
1EB
330
183
100
AcDbEntity
  8
Make2D$可见线$普通线
100
AcDbVertex
100
AcDb2dVertex
 10
608.1313142102565
 20
1053.690796206722
 30
0.0
  0
VERTEX
  5
1EC
330
183
100
AcDbEntity
  8
Make2D$可见线$普通线
100
AcDbVertex
100
AcDb2dVertex
 10
610.2153333398626
 20
1053.781005462058
 30
0.0
  0
VERTEX
  5
1ED
330
183
100
AcDbEntity
  8
Make2D$可见线$普通线
100
AcDbVertex
100
AcDb2dVertex
 10
613.6292413988665
 20
1053.883461178556
 30
0.0
  0
VERTEX
  5
1EE
330
183
100
AcDbEntity
  8
Make2D$可见线$普通线
100
AcDbVertex
100
AcDb2dVertex
 10
623.5360827393135
 20
1054.140349035228
 30
0.0
  0
VERTEX
  5
1EF
330
183
100
AcDbEntity
  8
Make2D$可见线$普通线
100
AcDbVertex
100
AcDb2dVertex
 10
625.4951470104634
 20
1054.204547826539
 30
0.0
  0
VERTEX
  5
1F0
330
183
100
AcDbEntity
  8
Make2D$可见线$普通线
100
AcDbVertex
100
AcDb2dVertex
 10
626.9857017872789
 20
1054.26879702734
 30
0.0
  0
VERTEX
  5
1F1
330
183
100
AcDbEntity
  8
Make2D$可见线$普通线
100
AcDbVertex
100
AcDb2dVertex
 10
627.4527712732639
 20
1054.295712566365
 30
0.0
  0
VERTEX
  5
1F2
330
183
100
AcDbEntity
  8
Make2D$可见线$普通线
100
AcDbVertex
100
AcDb2dVertex
 10
627.9191273499248
 20
1054.333000107726
 30
0.0
  0
VERTEX
  5
1F3
330
183
100
AcDbEntity
  8
Make2D$可见线$普通线
100
AcDbVertex
100
AcDb2dVertex
 10
628.0578676026386
 20
1054.349026071856
 30
0.0
  0
VERTEX
  5
1F4
330
183
100
AcDbEntity
  8
Make2D$可见线$普通线
100
AcDbVertex
100
AcDb2dVertex
 10
628.1125729549613
 20
1054.357034348146
 30
0.0
  0
VERTEX
  5
1F5
330
183
100
AcDbEntity
  8
Make2D$可见线$普通线
100
AcDbVertex
100
AcDb2dVertex
 10
628.1362470999361
 20
1054.361039414214
 30
0.0
  0
VERTEX
  5
1F6
330
183
100
AcDbEntity
  8
Make2D$可见线$普通线
100
AcDbVertex
100
AcDb2dVertex
 10
628.1574641907187
 20
1054.365045900559
 30
0.0
  0
VERTEX
  5
1F7
330
183
100
AcDbEntity
  8
Make2D$可见线$普通线
100
AcDbVertex
100
AcDb2dVertex
 10
628.1762207022582
 20
1054.36905440843
 30
0.0
  0
VERTEX
  5
1F8
330
183
100
AcDbEntity
  8
Make2D$可见线$普通线
100
AcDbVertex
100
AcDb2dVertex
 10
628.1846751392335
 20
1054.371059608328
 30
0.0
  0
VERTEX
  5
1F9
330
183
100
AcDbEntity
  8
Make2D$可见线$普通线
100
AcDbVertex
100
AcDb2dVertex
 10
628.1925131095039
 20
1054.373065539075
 30
0.0
  0
VERTEX
  5
1FA
330
183
100
AcDbEntity
  8
Make2D$可见线$普通线
100
AcDbVertex
100
AcDb2dVertex
 10
628.1997341724382
 20
1054.375072275828
 30
0.0
  0
VERTEX
  5
1FB
330
183
100
AcDbEntity
  8
Make2D$可见线$普通线
100
AcDbVertex
100
AcDb2dVertex
 10
628.206337887405
 20
1054.377079893741
 30
0.0
  0
VERTEX
  5
1FC
330
183
100
AcDbEntity
  8
Make2D$可见线$普通线
100
AcDbVertex
100
AcDb2dVertex
 10
628.2123238137729
 20
1054.379088467971
 30
0.0
  0
VERTEX
  5
1FD
330
183
100
AcDbEntity
  8
Make2D$可见线$普通线
100
AcDbVertex
100
AcDb2dVertex
 10
628.2150849685347
 20
1054.380093137191
 30
0.0
  0
VERTEX
  5
1FE
330
183
100
AcDbEntity
  8
Make2D$可见线$普通线
100
AcDbVertex
100
AcDb2dVertex
 10
628.2176915109103
 20
1054.381098073674
 30
0.0
  0
VERTEX
  5
1FF
330
183
100
AcDbEntity
  8
Make2D$可见线$普通线
100
AcDbVertex
100
AcDb2dVertex
 10
628.2201433858205
 20
1054.382103286815
 30
0.0
  0
VERTEX
  5
200
330
183
100
AcDbEntity
  8
Make2D$可见线$普通线
100
AcDbVertex
100
AcDb2dVertex
 10
628.2224405381863
 20
1054.383108786007
 30
0.0
  0
VERTEX
  5
201
330
183
100
AcDbEntity
  8
Make2D$可见线$普通线
100
AcDbVertex
100
AcDb2dVertex
 10
628.2245829129289
 20
1054.384114580645
 30
0.0
  0
VERTEX
  5
202
330
183
100
AcDbEntity
  8
Make2D$可见线$普通线
100
AcDbVertex
100
AcDb2dVertex
 10
628.2265704549693
 20
1054.385120680124
 30
0.0
  0
VERTEX
  5
203
330
183
100
AcDbEntity
  8
Make2D$可见线$普通线
100
AcDbVertex
100
AcDb2dVertex
 10
628.2275061465141
 20
1054.385623847114
 30
0.0
  0
VERTEX
  5
204
330
183
100
AcDbEntity
  8
Make2D$可见线$普通线
100
AcDbVertex
100
AcDb2dVertex
 10
628.2284031092286
 20
1054.386127093838
 30
0.0
  0
VERTEX
  5
205
330
183
100
AcDbEntity
  8
Make2D$可见线$普通线
100
AcDbVertex
100
AcDb2dVertex
 10
628.2292613362281
 20
1054.386630421469
 30
0.0
  0
VERTEX
  5
206
330
183
100
AcDbEntity
  8
Make2D$可见线$普通线
100
AcDbVertex
100
AcDb2dVertex
 10
628.2300808206279
 20
1054.387133831182
 30
0.0
  0
VERTEX
  5
207
330
183
100
AcDbEntity
  8
Make2D$可见线$普通线
100
AcDbVertex
100
AcDb2dVertex
 10
628.2308615555429
 20
1054.387637324151
 30
0.0
  0
VERTEX
  5
208
330
183
100
AcDbEntity
  8
Make2D$可见线$普通线
100
AcDbVertex
100
AcDb2dVertex
 10
628.2316035340883
 20
1054.38814090155
 30
0.0
  0
VERTEX
  5
209
330
183
100
AcDbEntity
  8
Make2D$可见线$普通线
100
AcDbVertex
100
AcDb2dVertex
 10
628.2323067493793
 20
1054.388644564553
 30
0.0
  0
VERTEX
  5
20A
330
183
100
AcDbEntity
  8
Make2D$可见线$普通线
100
AcDbVertex
100
AcDb2dVertex
 10
628.2329711945309
 20
1054.389148314336
 30
0.0
  0
VERTEX
  5
20B
330
183
100
AcDbEntity
  8
Make2D$可见线$普通线
100
AcDbVertex
100
AcDb2dVertex
 10
628.2335968626585
 20
1054.389652152072
 30
0.0
  0
VERTEX
  5
20C
330
183
100
AcDbEntity
  8
Make2D$可见线$普通线
100
AcDbVertex
100
AcDb2dVertex
 10
628.2341837468769
 20
1054.390156078936
 30
0.0
  0
VERTEX
  5
20D
330
183
100
AcDbEntity
  8
Make2D$可见线$普通线
100
AcDbVertex
100
AcDb2dVertex
 10
628.2344626428686
 20
1054.390408076158
 30
0.0
  0
VERTEX
  5
20E
330
183
100
AcDbEntity
  8
Make2D$可见线$普通线
100
AcDbVertex
100
AcDb2dVertex
 10
628.2347318403013
 20
1054.390660096102
 30
0.0
  0
VERTEX
  5
20F
330
183
100
AcDbEntity
  8
Make2D$可见线$普通线
100
AcDbVertex
100
AcDb2dVertex
 10
628.2349913383143
 20
1054.390912138914
 30
0.0
  0
VERTEX
  5
210
330
183
100
AcDbEntity
  8
Make2D$可见线$普通线
100
AcDbVertex
100
AcDb2dVertex
 10
628.235241136047
 20
1054.391164204743
 30
0.0
  0
VERTEX
  5
211
330
183
100
AcDbEntity
  8
Make2D$可见线$普通线
100
AcDbVertex
100
AcDb2dVertex
 10
628.2354812326387
 20
1054.391416293735
 30
0.0
  0
VERTEX
  5
212
330
183
100
AcDbEntity
  8
Make2D$可见线$普通线
100
AcDbVertex
100
AcDb2dVertex
 10
628.235711627229
 20
1054.391668406036
 30
0.0
  0
VERTEX
  5
213
330
183
100
AcDbEntity
  8
Make2D$可见线$普通线
100
AcDbVertex
100
AcDb2dVertex
 10
628.2359323189571
 20
1054.391920541793
 30
0.0
  0
VERTEX
  5
214
330
183
100
AcDbEntity
  8
Make2D$可见线$普通线
100
AcDbVertex
100
AcDb2dVertex
 10
628.2361433069625
 20
1054.392172701153
 30
0.0
  0
VERTEX
  5
215
330
183
100
AcDbEntity
  8
Make2D$可见线$普通线
100
AcDbVertex
100
AcDb2dVertex
 10
628.2363445903845
 20
1054.392424884263
 30
0.0
  0
VERTEX
  5
216
330
183
100
AcDbEntity
  8
Make2D$可见线$普通线
100
AcDbVertex
100
AcDb2dVertex
 10
628.2365361683626
 20
1054.392677091269
 30
0.0
  0
VERTEX
  5
217
330
183
100
AcDbEntity
  8
Make2D$可见线$普通线
100
AcDbVertex
100
AcDb2dVertex
 10
628.2367180400361
 20
1054.392929322319
 30
0.0
  0
VERTEX
  5
218
330
183
100
AcDbEntity
  8
Make2D$可见线$普通线
100
AcDbVertex
100
AcDb2dVertex
 10
628.2368902045445
 20
1054.393181577559
 30
0.0
  0
VERTEX
  5
219
330
183
100
AcDbEntity
  8
Make2D$可见线$普通线
100
AcDbVertex
100
AcDb2dVertex
 10
628.2370526610271
 20
1054.393433857136
 30
0.0
  0
VERTEX
  5
21A
330
183
100
AcDbEntity
  8
Make2D$可见线$普通线
100
AcDbVertex
100
AcDb2dVertex
 10
628.2372054086234
 20
1054.393686161197
 30
0.0
  0
VERTEX
  5
21B
330
183
100
AcDbEntity
  8
Make2D$可见线$普通线
100
AcDbVertex
100
AcDb2dVertex
 10
628.2373484464724
 20
1054.393938489888
 30
0.0
  0
VERTEX
  5
21C
330
183
100
AcDbEntity
  8
Make2D$可见线$普通线
100
AcDbVertex
100
AcDb2dVertex
 10
628.2374817737141
 20
1054.394190843357
 30
0.0
  0
VERTEX
  5
21D
330
183
100
AcDbEntity
  8
Make2D$可见线$普通线
100
AcDbVertex
100
AcDb2dVertex
 10
628.2376053894875
 20
1054.394443221749
 30
0.0
  0
VERTEX
  5
21E
330
183
100
AcDbEntity
  8
Make2D$可见线$普通线
100
AcDbVertex
100
AcDb2dVertex
 10
628.237719292932
 20
1054.394695625213
 30
0.0
  0
VERTEX
  5
21F
330
183
100
AcDbEntity
  8
Make2D$可见线$普通线
100
AcDbVertex
100
AcDb2dVertex
 10
628.2378234831871
 20
1054.394948053894
 30
0.0
  0
VERTEX
  5
220
330
183
100
AcDbEntity
  8
Make2D$可见线$普通线
100
AcDbVertex
100
AcDb2dVertex
 10
628.2379179593922
 20
1054.39520050794
 30
0.0
  0
VERTEX
  5
221
330
183
100
AcDbEntity
  8
Make2D$可见线$普通线
100
AcDbVertex
100
AcDb2dVertex
 10
628.2380027206867
 20
1054.395452987496
 30
0.0
  0
VERTEX
  5
222
330
183
100
AcDbEntity
  8
Make2D$可见线$普通线
100
AcDbVertex
100
AcDb2dVertex
 10
628.2380777662099
 20
1054.395705492711
 30
0.0
  0
VERTEX
  5
223
330
183
100
AcDbEntity
  8
Make2D$可见线$普通线
100
AcDbVertex
100
AcDb2dVertex
 10
628.2381430951012
 20
1054.395958023731
 30
0.0
  0
VERTEX
  5
224
330
183
100
AcDbEntity
  8
Make2D$可见线$普通线
100
AcDbVertex
100
AcDb2dVertex
 10
628.2381987065002
 20
1054.396210580703
 30
0.0
  0
VERTEX
  5
225
330
183
100
AcDbEntity
  8
Make2D$可见线$普通线
100
AcDbVertex
100
AcDb2dVertex
 10
628.2382445995461
 20
1054.396463163773
 30
0.0
  0
VERTEX
  5
226
330
183
100
AcDbEntity
  8
Make2D$可见线$普通线
100
AcDbVertex
100
AcDb2dVertex
 10
628.2382807733782
 20
1054.396715773088
 30
0.0
  0
VERTEX
  5
227
330
183
100
AcDbEntity
  8
Make2D$可见线$普通线
100
AcDbVertex
100
AcDb2dVertex
 10
628.2383072271359
 20
1054.396968408795
 30
0.0
  0
VERTEX
  5
228
330
183
100
AcDbEntity
  8
Make2D$可见线$普通线
100
AcDbVertex
100
AcDb2dVertex
 10
628.2383239599588
 20
1054.39722107104
 30
0.0
 42
0.023643399106486
  0
VERTEX
  5
229
330
183
100
AcDbEntity
  8
Make2D$可见线$普通线
100
AcDbVertex
100
AcDb2dVertex
 10
628.2383240516735
 20
1053.404191778724
 30
0.0
  0
SEQEND
  5
22A
330
183
100
AcDbEntity
  8
Make2D$可见线$普通线
  0
POLYLINE
  5
22B
330
1F
100
AcDbEntity
  8
Make2D$可见线$普通线
100
AcDb2dPolyline
 66
     1
 10
0.0
 20
0.0
 30
0.0
  0
VERTEX
  5
22C
330
22B
100
AcDbEntity
  8
Make2D$可见线$普通线
100
AcDbVertex
100
AcDb2dVertex
 10
640.6881533497773
 20
1102.147098800578
 30
0.0
 42
0.035559966343047
  0
VERTEX
  5
22D
330
22B
100
AcDbEntity
  8
Make2D$可见线$普通线
100
AcDbVertex
100
AcDb2dVertex
 10
640.8429157699036
 20
1100.738486362625
 30
0.0
 42
0.3623108971148923
  0
VERTEX
  5
22E
330
22B
100
AcDbEntity
  8
Make2D$可见线$普通线
100
AcDbVertex
100
AcDb2dVertex
 10
650.6807066708899
 20
1092.532577058224
 30
0.0
  0
VERTEX
  5
22F
330
22B
100
AcDbEntity
  8
Make2D$可见线$普通线
100
AcDbVertex
100
AcDb2dVertex
 10
748.680706456217
 20
1092.532631392736
 30
0.0
 42
-0.4142374989788123
  0
VERTEX
  5
230
330
22B
100
AcDbEntity
  8
Make2D$可见线$普通线
100
AcDbVertex
100
AcDb2dVertex
 10
750.6807064562172
 20
1090.532609659223
 30
0.0
  0
VERTEX
  5
231
330
22B
100
AcDbEntity
  8
Make2D$可见线$普通线
100
AcDbVertex
100
AcDb2dVertex
 10
750.6807064562171
 20
1070.532511858362
 30
0.0
 42
-0.4142327249767644
  0
VERTEX
  5
232
330
22B
100
AcDbEntity
  8
Make2D$可见线$普通线
100
AcDbVertex
100
AcDb2dVertex
 10
748.680706456217
 20
1068.532522725131
 30
0.0
  0
VERTEX
  5
233
330
22B
100
AcDbEntity
  8
Make2D$可见线$普通线
100
AcDbVertex
100
AcDb2dVertex
 10
650.6807064561975
 20
1068.532577058934
 30
0.0
  0
VERTEX
  5
234
330
22B
100
AcDbEntity
  8
Make2D$可见线$普通线
100
AcDbVertex
100
AcDb2dVertex
 10
635.9795554988917
 20
1068.532577058934
 30
0.0
  0
SEQEND
  5
235
330
22B
100
AcDbEntity
  8
Make2D$可见线$普通线
  0
POLYLINE
  5
236
330
1F
100
AcDbEntity
  8
Make2D$可见线$普通线
100
AcDb2dPolyline
 66
     1
 10
0.0
 20
0.0
 30
0.0
  0
VERTEX
  5
237
330
236
100
AcDbEntity
  8
Make2D$可见线$普通线
100
AcDbVertex
100
AcDb2dVertex
 10
605.5894343438998
 20
1068.532577058933
 30
0.0
  0
VERTEX
  5
238
330
236
100
AcDbEntity
  8
Make2D$可见线$普通线
100
AcDbVertex
100
AcDb2dVertex
 10
605.5860664770183
 20
1057.758442056151
 30
0.0
 42
0.4156084652395255
  0
VERTEX
  5
239
330
236
100
AcDbEntity
  8
Make2D$可见线$普通线
100
AcDbVertex
100
AcDb2dVertex
 10
606.5863450141037
 20
1056.758442056151
 30
0.0
  0
VERTEX
  5
23A
330
236
100
AcDbEntity
  8
Make2D$可见线$普通线
100
AcDbVertex
100
AcDb2dVertex
 10
628.7721165314172
 20
1056.758442056151
 30
0.0
 42
0.4140759719760232
  0
VERTEX
  5
23B
330
236
100
AcDbEntity
  8
Make2D$可见线$普通线
100
AcDbVertex
100
AcDb2dVertex
 10
629.7720511072386
 20
1057.758442056151
 30
0.0
  0
VERTEX
  5
23C
330
236
100
AcDbEntity
  8
Make2D$可见线$普通线
100
AcDbVertex
100
AcDb2dVertex
 10
629.7719727165686
 20
1068.532577058934
 30
0.0
  0
SEQEND
  5
23D
330
236
100
AcDbEntity
  8
Make2D$可见线$普通线
  0
POLYLINE
  5
23E
330
1F
100
AcDbEntity
  8
Make2D$可见线$普通线
100
AcDb2dPolyline
 66
     1
 10
0.0
 20
0.0
 30
0.0
  0
VERTEX
  5
23F
330
23E
100
AcDbEntity
  8
Make2D$可见线$普通线
100
AcDbVertex
100
AcDb2dVertex
 10
607.4187726681444
 20
1052.643965867897
 30
0.0
 42
0.5284485955123307
  0
VERTEX
  5
240
330
23E
100
AcDbEntity
  8
Make2D$可见线$普通线
100
AcDbVertex
100
AcDb2dVertex
 10
607.5089342479883
 20
1053.452141137695
 30
0.0
  0
VERTEX
  5
241
330
23E
100
AcDbEntity
  8
Make2D$可见线$普通线
100
AcDbVertex
100
AcDb2dVertex
 10
607.3568648720042
 20
1053.542586452159
 30
0.0
  0
SEQEND
  5
242
330
23E
100
AcDbEntity
  8
Make2D$可见线$普通线
  0
POLYLINE
  5
243
330
1F
100
AcDbEntity
  8
Make2D$可见线$普通线
100
AcDb2dPolyline
 66
     1
 10
0.0
 20
0.0
 30
0.0
  0
VERTEX
  5
244
330
243
100
AcDbEntity
  8
Make2D$可见线$普通线
100
AcDbVertex
100
AcDb2dVertex
 10
510.6749898447746
 20
1103.026860447491
 30
0.0
  0
VERTEX
  5
245
330
243
100
AcDbEntity
  8
Make2D$可见线$普通线
100
AcDbVertex
100
AcDb2dVertex
 10
509.680706456217
 20
1102.032577058934
 30
0.0
  0
VERTEX
  5
246
330
243
100
AcDbEntity
  8
Make2D$可见线$普通线
100
AcDbVertex
100
AcDb2dVertex
 10
509.680706456217
 20
1081.032577058934
 30
0.0
  0
VERTEX
  5
247
330
243
100
AcDbEntity
  8
Make2D$可见线$普通线
100
AcDbVertex
100
AcDb2dVertex
 10
510.6749898447746
 20
1080.038293670376
 30
0.0
  0
SEQEND
  5
248
330
243
100
AcDbEntity
  8
Make2D$可见线$普通线
  0
POLYLINE
  5
249
330
1F
100
AcDbEntity
  8
Make2D$可见线$普通线
100
AcDb2dPolyline
 66
     1
 10
0.0
 20
0.0
 30
0.0
  0
VERTEX
  5
24A
330
249
100
AcDbEntity
  8
Make2D$可见线$普通线
100
AcDbVertex
100
AcDb2dVertex
 10
525.5466397952493
 20
1104.861355958792
 30
0.0
 42
-0.3874270088646188
  0
VERTEX
  5
24B
330
249
100
AcDbEntity
  8
Make2D$可见线$普通线
100
AcDbVertex
100
AcDb2dVertex
 10
523.5546974562753
 20
1103.036085136788
 30
0.0
  0
VERTEX
  5
24C
330
249
100
AcDbEntity
  8
Make2D$可见线$普通线
100
AcDbVertex
100
AcDb2dVertex
 10
510.680706456217
 20
1103.032577058934
 30
0.0
  0
VERTEX
  5
24D
330
249
100
AcDbEntity
  8
Make2D$可见线$普通线
100
AcDbVertex
100
AcDb2dVertex
 10
510.680706456217
 20
1080.032577058934
 30
0.0
  0
VERTEX
  5
24E
330
249
100
AcDbEntity
  8
Make2D$可见线$普通线
100
AcDbVertex
100
AcDb2dVertex
 10
523.5546974562753
 20
1080.029068979967
 30
0.0
 42
-0.3874270086350913
  0
VERTEX
  5
24F
330
249
100
AcDbEntity
  8
Make2D$可见线$普通线
100
AcDbVertex
100
AcDb2dVertex
 10
525.5466397952497
 20
1078.203798156498
 30
0.0
  0
SEQEND
  5
250
330
249
100
AcDbEntity
  8
Make2D$可见线$普通线
  0
POLYLINE
  5
251
330
1F
100
AcDbEntity
  8
Make2D$可见线$普通线
100
AcDb2dPolyline
 66
     1
 10
0.0
 20
0.0
 30
0.0
  0
VERTEX
  5
252
330
251
100
AcDbEntity
  8
Make2D$可见线$普通线
100
AcDbVertex
100
AcDb2dVertex
 10
556.5546974562753
 20
1061.032522725131
 30
0.0
  0
VERTEX
  5
253
330
251
100
AcDbEntity
  8
Make2D$可见线$普通线
100
AcDbVertex
100
AcDb2dVertex
 10
527.5546974562753
 20
1061.032522725131
 30
0.0
 42
-0.414237546263609
  0
VERTEX
  5
254
330
251
100
AcDbEntity
  8
Make2D$可见线$普通线
100
AcDbVertex
100
AcDb2dVertex
 10
525.5546974562752
 20
1063.032544458644
 30
0.0
  0
VERTEX
  5
255
330
251
100
AcDbEntity
  8
Make2D$可见线$普通线
100
AcDbVertex
100
AcDb2dVertex
 10
525.5546974562757
 20
1120.032609659223
 30
0.0
 42
-0.4142374918194538
  0
VERTEX
  5
256
330
251
100
AcDbEntity
  8
Make2D$可见线$普通线
100
AcDbVertex
100
AcDb2dVertex
 10
527.5546974562753
 20
1122.032631392736
 30
0.0
  0
VERTEX
  5
257
330
251
100
AcDbEntity
  8
Make2D$可见线$普通线
100
AcDbVertex
100
AcDb2dVertex
 10
556.5546974562753
 20
1122.032631392736
 30
0.0
 42
-0.4142374989792251
  0
VERTEX
  5
258
330
251
100
AcDbEntity
  8
Make2D$可见线$普通线
100
AcDbVertex
100
AcDb2dVertex
 10
558.5546974562751
 20
1120.032609659223
 30
0.0
  0
VERTEX
  5
259
330
251
100
AcDbEntity
  8
Make2D$可见线$普通线
100
AcDbVertex
100
AcDb2dVertex
 10
558.5546974562756
 20
1063.032544458644
 30
0.0
 42
-0.4142374989790314
  0
VERTEX
  5
25A
330
251
100
AcDbEntity
  8
Make2D$可见线$普通线
100
AcDbVertex
100
AcDb2dVertex
 10
556.5546974562753
 20
1061.032522725131
 30
0.0
  0
SEQEND
  5
25B
330
251
100
AcDbEntity
  8
Make2D$可见线$普通线
  0
POLYLINE
  5
25C
330
1F
100
AcDbEntity
  8
Make2D$可见线$普通线
100
AcDb2dPolyline
 66
     1
 10
0.0
 20
0.0
 30
0.0
  0
VERTEX
  5
25D
330
25C
100
AcDbEntity
  8
Make2D$可见线$普通线
100
AcDbVertex
100
AcDb2dVertex
 10
558.5632929412842
 20
1110.396795805622
 30
0.0
 42
0.3957357589765747
  0
VERTEX
  5
25E
330
25C
100
AcDbEntity
  8
Make2D$可见线$普通线
100
AcDbVertex
100
AcDb2dVertex
 10
560.5546974562753
 20
1108.532761793866
 30
0.0
  0
VERTEX
  5
25F
330
25C
100
AcDbEntity
  8
Make2D$可见线$普通线
100
AcDbVertex
100
AcDb2dVertex
 10
567.680706456217
 20
1108.529639692644
 30
0.0
  0
VERTEX
  5
260
330
25C
100
AcDbEntity
  8
Make2D$可见线$普通线
100
AcDbVertex
100
AcDb2dVertex
 10
567.680706456217
 20
1107.032577058934
 30
0.0
  0
VERTEX
  5
261
330
25C
100
AcDbEntity
  8
Make2D$可见线$普通线
100
AcDbVertex
100
AcDb2dVertex
 10
575.7209152669993
 20
1107.032511759409
 30
0.0
 42
-0.4141989783148587
  0
VERTEX
  5
262
330
25C
100
AcDbEntity
  8
Make2D$可见线$普通线
100
AcDbVertex
100
AcDb2dVertex
 10
577.7209152669994
 20
1105.032577058955
 30
0.0
  0
VERTEX
  5
263
330
25C
100
AcDbEntity
  8
Make2D$可见线$普通线
100
AcDbVertex
100
AcDb2dVertex
 10
577.7209152669993
 20
1098.106185622853
 30
0.0
  0
SEQEND
  5
264
330
25C
100
AcDbEntity
  8
Make2D$可见线$普通线
  0
POLYLINE
  5
265
330
1F
100
AcDbEntity
  8
Make2D$可见线$普通线
100
AcDb2dPolyline
 66
     1
 10
0.0
 20
0.0
 30
0.0
  0
VERTEX
  5
266
330
265
100
AcDbEntity
  8
Make2D$可见线$普通线
100
AcDbVertex
100
AcDb2dVertex
 10
594.680706456217
 20
1086.532577058934
 30
0.0
  0
VERTEX
  5
267
330
265
100
AcDbEntity
  8
Make2D$可见线$普通线
100
AcDbVertex
100
AcDb2dVertex
 10
591.680706456217
 20
1086.532522725131
 30
0.0
 42
-0.4142374989780949
  0
VERTEX
  5
268
330
265
100
AcDbEntity
  8
Make2D$可见线$普通线
100
AcDbVertex
100
AcDb2dVertex
 10
589.6807064562169
 20
1088.53254445865
 30
0.0
  0
VERTEX
  5
269
330
265
100
AcDbEntity
  8
Make2D$可见线$普通线
100
AcDbVertex
100
AcDb2dVertex
 10
589.6807064562167
 20
1094.532642259499
 30
0.0
 42
-0.414232720387228
  0
VERTEX
  5
26A
330
265
100
AcDbEntity
  8
Make2D$可见线$普通线
100
AcDbVertex
100
AcDb2dVertex
 10
591.680706456217
 20
1096.532631392735
 30
0.0
  0
VERTEX
  5
26B
330
265
100
AcDbEntity
  8
Make2D$可见线$普通线
100
AcDbVertex
100
AcDb2dVertex
 10
594.680706456217
 20
1096.532577058934
 30
0.0
  0
SEQEND
  5
26C
330
265
100
AcDbEntity
  8
Make2D$可见线$普通线
  0
POLYLINE
  5
26D
330
1F
100
AcDbEntity
  8
Make2D$可见线$普通线
100
AcDb2dPolyline
 66
     1
 10
0.0
 20
0.0
 30
0.0
  0
VERTEX
  5
26E
330
26D
100
AcDbEntity
  8
Make2D$可见线$普通线
100
AcDbVertex
100
AcDb2dVertex
 10
575.7209152669993
 20
1098.514638115446
 30
0.0
  0
VERTEX
  5
26F
330
26D
100
AcDbEntity
  8
Make2D$可见线$普通线
100
AcDbVertex
100
AcDb2dVertex
 10
567.680706456217
 20
1098.514697080818
 30
0.0
  0
VERTEX
  5
270
330
26D
100
AcDbEntity
  8
Make2D$可见线$普通线
100
AcDbVertex
100
AcDb2dVertex
 10
567.680706456217
 20
1084.550457037049
 30
0.0
  0
VERTEX
  5
271
330
26D
100
AcDbEntity
  8
Make2D$可见线$普通线
100
AcDbVertex
100
AcDb2dVertex
 10
575.7209152669993
 20
1084.550516002421
 30
0.0
  0
VERTEX
  5
272
330
26D
100
AcDbEntity
  8
Make2D$可见线$普通线
100
AcDbVertex
100
AcDb2dVertex
 10
576.0797031499648
 20
1084.558979961227
 30
0.0
  0
VERTEX
  5
273
330
26D
100
AcDbEntity
  8
Make2D$可见线$普通线
100
AcDbVertex
100
AcDb2dVertex
 10
576.2590585463686
 20
1084.56758851006
 30
0.0
  0
VERTEX
  5
274
330
26D
100
AcDbEntity
  8
Make2D$可见线$普通线
100
AcDbVertex
100
AcDb2dVertex
 10
576.438144620384
 20
1084.580043133192
 30
0.0
  0
VERTEX
  5
275
330
26D
100
AcDbEntity
  8
Make2D$可见线$普通线
100
AcDbVertex
100
AcDb2dVertex
 10
576.6167786527592
 20
1084.597040101634
 30
0.0
  0
VERTEX
  5
276
330
26D
100
AcDbEntity
  8
Make2D$可见线$普通线
100
AcDbVertex
100
AcDb2dVertex
 10
576.7947779242423
 20
1084.619275686396
 30
0.0
  0
VERTEX
  5
277
330
26D
100
AcDbEntity
  8
Make2D$可见线$普通线
100
AcDbVertex
100
AcDb2dVertex
 10
576.8834824248831
 20
1084.632575544587
 30
0.0
  0
VERTEX
  5
278
330
26D
100
AcDbEntity
  8
Make2D$可见线$普通线
100
AcDbVertex
100
AcDb2dVertex
 10
576.9719597155815
 20
1084.647446158488
 30
0.0
  0
VERTEX
  5
279
330
26D
100
AcDbEntity
  8
Make2D$可见线$普通线
100
AcDbVertex
100
AcDb2dVertex
 10
577.0601869564309
 20
1084.663974561973
 30
0.0
  0
VERTEX
  5
27A
330
26D
100
AcDbEntity
  8
Make2D$可见线$普通线
100
AcDbVertex
100
AcDb2dVertex
 10
577.1481413075247
 20
1084.682247788919
 30
0.0
  0
VERTEX
  5
27B
330
26D
100
AcDbEntity
  8
Make2D$可见线$普通线
100
AcDbVertex
100
AcDb2dVertex
 10
577.2031193096766
 20
1084.694678036753
 30
0.0
  0
VERTEX
  5
27C
330
26D
100
AcDbEntity
  8
Make2D$可见线$普通线
100
AcDbVertex
100
AcDb2dVertex
 10
577.257843098559
 20
1084.708111600623
 30
0.0
  0
VERTEX
  5
27D
330
26D
100
AcDbEntity
  8
Make2D$可见线$普通线
100
AcDbVertex
100
AcDb2dVertex
 10
577.3121747295656
 20
1084.722831586078
 30
0.0
  0
VERTEX
  5
27E
330
26D
100
AcDbEntity
  8
Make2D$可见线$普通线
100
AcDbVertex
100
AcDb2dVertex
 10
577.365976258091
 20
1084.739121098667
 30
0.0
  0
VERTEX
  5
27F
330
26D
100
AcDbEntity
  8
Make2D$可见线$普通线
100
AcDbVertex
100
AcDb2dVertex
 10
577.3926351262338
 20
1084.747942898119
 30
0.0
  0
VERTEX
  5
280
330
26D
100
AcDbEntity
  8
Make2D$可见线$普通线
100
AcDbVertex
100
AcDb2dVertex
 10
577.419109739529
 20
1084.757263243934
 30
0.0
  0
VERTEX
  5
281
330
26D
100
AcDbEntity
  8
Make2D$可见线$普通线
100
AcDbVertex
100
AcDb2dVertex
 10
577.4453828549008
 20
1084.767117524307
 30
0.0
  0
VERTEX
  5
282
330
26D
100
AcDbEntity
  8
Make2D$可见线$普通线
100
AcDbVertex
100
AcDb2dVertex
 10
577.4714372292736
 20
1084.777541127429
 30
0.0
  0
VERTEX
  5
283
330
26D
100
AcDbEntity
  8
Make2D$可见线$普通线
100
AcDbVertex
100
AcDb2dVertex
 10
577.4972556195717
 20
1084.788569441495
 30
0.0
  0
VERTEX
  5
284
330
26D
100
AcDbEntity
  8
Make2D$可见线$普通线
100
AcDbVertex
100
AcDb2dVertex
 10
577.522820782719
 20
1084.800237854698
 30
0.0
  0
VERTEX
  5
285
330
26D
100
AcDbEntity
  8
Make2D$可见线$普通线
100
AcDbVertex
100
AcDb2dVertex
 10
577.5481154756403
 20
1084.812581755232
 30
0.0
  0
VERTEX
  5
286
330
26D
100
AcDbEntity
  8
Make2D$可见线$普通线
100
AcDbVertex
100
AcDb2dVertex
 10
577.5731224552594
 20
1084.82563653129
 30
0.0
  0
VERTEX
  5
287
330
26D
100
AcDbEntity
  8
Make2D$可见线$普通线
100
AcDbVertex
100
AcDb2dVertex
 10
577.5881849639879
 20
1084.833960796527
 30
0.0
  0
VERTEX
  5
288
330
26D
100
AcDbEntity
  8
Make2D$可见线$普通线
100
AcDbVertex
100
AcDb2dVertex
 10
577.6030403082281
 20
1084.842644414382
 30
0.0
  0
VERTEX
  5
289
330
26D
100
AcDbEntity
  8
Make2D$可见线$普通线
100
AcDbVertex
100
AcDb2dVertex
 10
577.6175943748957
 20
1084.851770087543
 30
0.0
  0
VERTEX
  5
28A
330
26D
100
AcDbEntity
  8
Make2D$可见线$普通线
100
AcDbVertex
100
AcDb2dVertex
 10
577.624729018801
 20
1084.856524539453
 30
0.0
  0
VERTEX
  5
28B
330
26D
100
AcDbEntity
  8
Make2D$可见线$普通线
100
AcDbVertex
100
AcDb2dVertex
 10
577.6317530509067
 20
1084.861420518696
 30
0.0
  0
VERTEX
  5
28C
330
26D
100
AcDbEntity
  8
Make2D$可见线$普通线
100
AcDbVertex
100
AcDb2dVertex
 10
577.6386547070772
 20
1084.86646836311
 30
0.0
  0
VERTEX
  5
28D
330
26D
100
AcDbEntity
  8
Make2D$可见线$普通线
100
AcDbVertex
100
AcDb2dVertex
 10
577.6454222231769
 20
1084.871678410528
 30
0.0
  0
VERTEX
  5
28E
330
26D
100
AcDbEntity
  8
Make2D$可见线$普通线
100
AcDbVertex
100
AcDb2dVertex
 10
577.6520438350703
 20
1084.877060998788
 30
0.0
  0
VERTEX
  5
28F
330
26D
100
AcDbEntity
  8
Make2D$可见线$普通线
100
AcDbVertex
100
AcDb2dVertex
 10
577.658507778622
 20
1084.882626465726
 30
0.0
  0
VERTEX
  5
290
330
26D
100
AcDbEntity
  8
Make2D$可见线$普通线
100
AcDbVertex
100
AcDb2dVertex
 10
577.6648022896964
 20
1084.888385149177
 30
0.0
  0
VERTEX
  5
291
330
26D
100
AcDbEntity
  8
Make2D$可见线$普通线
100
AcDbVertex
100
AcDb2dVertex
 10
577.6709156041579
 20
1084.894347386976
 30
0.0
  0
VERTEX
  5
292
330
26D
100
AcDbEntity
  8
Make2D$可见线$普通线
100
AcDbVertex
100
AcDb2dVertex
 10
577.6768359578712
 20
1084.900523516961
 30
0.0
  0
VERTEX
  5
293
330
26D
100
AcDbEntity
  8
Make2D$可见线$普通线
100
AcDbVertex
100
AcDb2dVertex
 10
577.6797200981548
 20
1084.903695022096
 30
0.0
  0
VERTEX
  5
294
330
26D
100
AcDbEntity
  8
Make2D$可见线$普通线
100
AcDbVertex
100
AcDb2dVertex
 10
577.6825515867005
 20
1084.906923876966
 30
0.0
  0
VERTEX
  5
295
330
26D
100
AcDbEntity
  8
Make2D$可见线$普通线
100
AcDbVertex
100
AcDb2dVertex
 10
577.686545106641
 20
1084.91169263706
 30
0.0
  0
VERTEX
  5
296
330
26D
100
AcDbEntity
  8
Make2D$可见线$普通线
100
AcDbVertex
100
AcDb2dVertex
 10
577.690408002911
 20
1084.916581043464
 30
0.0
  0
VERTEX
  5
297
330
26D
100
AcDbEntity
  8
Make2D$可见线$普通线
100
AcDbVertex
100
AcDb2dVertex
 10
577.694122672299
 20
1084.921586283771
 30
0.0
  0
VERTEX
  5
298
330
26D
100
AcDbEntity
  8
Make2D$可见线$普通线
100
AcDbVertex
100
AcDb2dVertex
 10
577.6976715115941
 20
1084.926705545577
 30
0.0
  0
VERTEX
  5
299
330
26D
100
AcDbEntity
  8
Make2D$可见线$普通线
100
AcDbVertex
100
AcDb2dVertex
 10
577.6993782439531
 20
1084.929307055666
 30
0.0
  0
VERTEX
  5
29A
330
26D
100
AcDbEntity
  8
Make2D$可见线$普通线
100
AcDbVertex
100
AcDb2dVertex
 10
577.7010369175847
 20
1084.931936016477
 30
0.0
  0
VERTEX
  5
29B
330
26D
100
AcDbEntity
  8
Make2D$可见线$普通线
100
AcDbVertex
100
AcDb2dVertex
 10
577.7026453320874
 20
1084.934592076461
 30
0.0
  0
VERTEX
  5
29C
330
26D
100
AcDbEntity
  8
Make2D$可见线$普通线
100
AcDbVertex
100
AcDb2dVertex
 10
577.7042012870598
 20
1084.937274884066
 30
0.0
  0
VERTEX
  5
29D
330
26D
100
AcDbEntity
  8
Make2D$可见线$普通线
100
AcDbVertex
100
AcDb2dVertex
 10
577.7057025821007
 20
1084.939984087742
 30
0.0
  0
VERTEX
  5
29E
330
26D
100
AcDbEntity
  8
Make2D$可见线$普通线
100
AcDbVertex
100
AcDb2dVertex
 10
577.7071470168083
 20
1084.942719335939
 30
0.0
  0
VERTEX
  5
29F
330
26D
100
AcDbEntity
  8
Make2D$可见线$普通线
100
AcDbVertex
100
AcDb2dVertex
 10
577.7085323907816
 20
1084.945480277105
 30
0.0
  0
VERTEX
  5
2A0
330
26D
100
AcDbEntity
  8
Make2D$可见线$普通线
100
AcDbVertex
100
AcDb2dVertex
 10
577.709856503619
 20
1084.94826655969
 30
0.0
  0
VERTEX
  5
2A1
330
26D
100
AcDbEntity
  8
Make2D$可见线$普通线
100
AcDbVertex
100
AcDb2dVertex
 10
577.7111171549191
 20
1084.951077832144
 30
0.0
  0
VERTEX
  5
2A2
330
26D
100
AcDbEntity
  8
Make2D$可见线$普通线
100
AcDbVertex
100
AcDb2dVertex
 10
577.7123121442806
 20
1084.953913742916
 30
0.0
  0
VERTEX
  5
2A3
330
26D
100
AcDbEntity
  8
Make2D$可见线$普通线
100
AcDbVertex
100
AcDb2dVertex
 10
577.713439271302
 20
1084.956773940454
 30
0.0
  0
VERTEX
  5
2A4
330
26D
100
AcDbEntity
  8
Make2D$可见线$普通线
100
AcDbVertex
100
AcDb2dVertex
 10
577.714496335582
 20
1084.95965807321
 30
0.0
  0
VERTEX
  5
2A5
330
26D
100
AcDbEntity
  8
Make2D$可见线$普通线
100
AcDbVertex
100
AcDb2dVertex
 10
577.7154811367191
 20
1084.962565789631
 30
0.0
  0
VERTEX
  5
2A6
330
26D
100
AcDbEntity
  8
Make2D$可见线$普通线
100
AcDbVertex
100
AcDb2dVertex
 10
577.7163914743119
 20
1084.965496738167
 30
0.0
  0
VERTEX
  5
2A7
330
26D
100
AcDbEntity
  8
Make2D$可见线$普通线
100
AcDbVertex
100
AcDb2dVertex
 10
577.7172251479592
 20
1084.968450567268
 30
0.0
  0
VERTEX
  5
2A8
330
26D
100
AcDbEntity
  8
Make2D$可见线$普通线
100
AcDbVertex
100
AcDb2dVertex
 10
577.7179799572593
 20
1084.971426925383
 30
0.0
  0
VERTEX
  5
2A9
330
26D
100
AcDbEntity
  8
Make2D$可见线$普通线
100
AcDbVertex
100
AcDb2dVertex
 10
577.718653701811
 20
1084.974425460961
 30
0.0
  0
VERTEX
  5
2AA
330
26D
100
AcDbEntity
  8
Make2D$可见线$普通线
100
AcDbVertex
100
AcDb2dVertex
 10
577.7192441812131
 20
1084.977445822452
 30
0.0
  0
VERTEX
  5
2AB
330
26D
100
AcDbEntity
  8
Make2D$可见线$普通线
100
AcDbVertex
100
AcDb2dVertex
 10
577.7197491950637
 20
1084.980487658306
 30
0.0
  0
VERTEX
  5
2AC
330
26D
100
AcDbEntity
  8
Make2D$可见线$普通线
100
AcDbVertex
100
AcDb2dVertex
 10
577.7201665429617
 20
1084.983550616971
 30
0.0
  0
VERTEX
  5
2AD
330
26D
100
AcDbEntity
  8
Make2D$可见线$普通线
100
AcDbVertex
100
AcDb2dVertex
 10
577.7204940245056
 20
1084.986634346896
 30
0.0
  0
VERTEX
  5
2AE
330
26D
100
AcDbEntity
  8
Make2D$可见线$普通线
100
AcDbVertex
100
AcDb2dVertex
 10
577.7207294392941
 20
1084.989738496532
 30
0.0
  0
VERTEX
  5
2AF
330
26D
100
AcDbEntity
  8
Make2D$可见线$普通线
100
AcDbVertex
100
AcDb2dVertex
 10
577.7208705869259
 20
1084.992862714327
 30
0.0
  0
VERTEX
  5
2B0
330
26D
100
AcDbEntity
  8
Make2D$可见线$普通线
100
AcDbVertex
100
AcDb2dVertex
 10
577.7209152669993
 20
1084.996006648732
 30
0.0
  0
VERTEX
  5
2B1
330
26D
100
AcDbEntity
  8
Make2D$可见线$普通线
100
AcDbVertex
100
AcDb2dVertex
 10
577.7209152669993
 20
1098.069147469136
 30
0.0
  0
VERTEX
  5
2B2
330
26D
100
AcDbEntity
  8
Make2D$可见线$普通线
100
AcDbVertex
100
AcDb2dVertex
 10
577.7208699676157
 20
1098.072277524691
 30
0.0
  0
VERTEX
  5
2B3
330
26D
100
AcDbEntity
  8
Make2D$可见线$普通线
100
AcDbVertex
100
AcDb2dVertex
 10
577.7207282867374
 20
1098.075389805602
 30
0.0
  0
VERTEX
  5
2B4
330
26D
100
AcDbEntity
  8
Make2D$可见线$普通线
100
AcDbVertex
100
AcDb2dVertex
 10
577.7204924209442
 20
1098.078483873308
 30
0.0
  0
VERTEX
  5
2B5
330
26D
100
AcDbEntity
  8
Make2D$可见线$普通线
100
AcDbVertex
100
AcDb2dVertex
 10
577.720164566816
 20
1098.08155928925
 30
0.0
  0
VERTEX
  5
2B6
330
26D
100
AcDbEntity
  8
Make2D$可见线$普通线
100
AcDbVertex
100
AcDb2dVertex
 10
577.7197469209328
 20
1098.084615614866
 30
0.0
  0
VERTEX
  5
2B7
330
26D
100
AcDbEntity
  8
Make2D$可见线$普通线
100
AcDbVertex
100
AcDb2dVertex
 10
577.7192416798746
 20
1098.087652411598
 30
0.0
  0
VERTEX
  5
2B8
330
26D
100
AcDbEntity
  8
Make2D$可见线$普通线
100
AcDbVertex
100
AcDb2dVertex
 10
577.7186510402213
 20
1098.090669240884
 30
0.0
  0
VERTEX
  5
2B9
330
26D
100
AcDbEntity
  8
Make2D$可见线$普通线
100
AcDbVertex
100
AcDb2dVertex
 10
577.7179771985526
 20
1098.093665664165
 30
0.0
  0
VERTEX
  5
2BA
330
26D
100
AcDbEntity
  8
Make2D$可见线$普通线
100
AcDbVertex
100
AcDb2dVertex
 10
577.7172223514486
 20
1098.09664124288
 30
0.0
  0
VERTEX
  5
2BB
330
26D
100
AcDbEntity
  8
Make2D$可见线$普通线
100
AcDbVertex
100
AcDb2dVertex
 10
577.7163886954894
 20
1098.099595538469
 30
0.0
  0
VERTEX
  5
2BC
330
26D
100
AcDbEntity
  8
Make2D$可见线$普通线
100
AcDbVertex
100
AcDb2dVertex
 10
577.7154784272545
 20
1098.102528112372
 30
0.0
  0
VERTEX
  5
2BD
330
26D
100
AcDbEntity
  8
Make2D$可见线$普通线
100
AcDbVertex
100
AcDb2dVertex
 10
577.7144937433244
 20
1098.105438526029
 30
0.0
  0
VERTEX
  5
2BE
330
26D
100
AcDbEntity
  8
Make2D$可见线$普通线
100
AcDbVertex
100
AcDb2dVertex
 10
577.7134368402787
 20
1098.108326340879
 30
0.0
  0
VERTEX
  5
2BF
330
26D
100
AcDbEntity
  8
Make2D$可见线$普通线
100
AcDbVertex
100
AcDb2dVertex
 10
577.7123099146972
 20
1098.111191118363
 30
0.0
  0
VERTEX
  5
2C0
330
26D
100
AcDbEntity
  8
Make2D$可见线$普通线
100
AcDbVertex
100
AcDb2dVertex
 10
577.71111516316
 20
1098.114032419919
 30
0.0
  0
VERTEX
  5
2C1
330
26D
100
AcDbEntity
  8
Make2D$可见线$普通线
100
AcDbVertex
100
AcDb2dVertex
 10
577.709854782247
 20
1098.116849806989
 30
0.0
  0
VERTEX
  5
2C2
330
26D
100
AcDbEntity
  8
Make2D$可见线$普通线
100
AcDbVertex
100
AcDb2dVertex
 10
577.7085309685382
 20
1098.119642841011
 30
0.0
  0
VERTEX
  5
2C3
330
26D
100
AcDbEntity
  8
Make2D$可见线$普通线
100
AcDbVertex
100
AcDb2dVertex
 10
577.7071459186136
 20
1098.122411083426
 30
0.0
  0
VERTEX
  5
2C4
330
26D
100
AcDbEntity
  8
Make2D$可见线$普通线
100
AcDbVertex
100
AcDb2dVertex
 10
577.7057018290529
 20
1098.125154095673
 30
0.0
  0
VERTEX
  5
2C5
330
26D
100
AcDbEntity
  8
Make2D$可见线$普通线
100
AcDbVertex
100
AcDb2dVertex
 10
577.7042008964362
 20
1098.127871439192
 30
0.0
  0
VERTEX
  5
2C6
330
26D
100
AcDbEntity
  8
Make2D$可见线$普通线
100
AcDbVertex
100
AcDb2dVertex
 10
577.7026453173432
 20
1098.130562675424
 30
0.0
  0
VERTEX
  5
2C7
330
26D
100
AcDbEntity
  8
Make2D$可见线$普通线
100
AcDbVertex
100
AcDb2dVertex
 10
577.7010372883543
 20
1098.133227365806
 30
0.0
  0
VERTEX
  5
2C8
330
26D
100
AcDbEntity
  8
Make2D$可见线$普通线
100
AcDbVertex
100
AcDb2dVertex
 10
577.6993790060491
 20
1098.135865071781
 30
0.0
  0
VERTEX
  5
2C9
330
26D
100
AcDbEntity
  8
Make2D$可见线$普通线
100
AcDbVertex
100
AcDb2dVertex
 10
577.6976726670074
 20
1098.138475354786
 30
0.0
  0
VERTEX
  5
2CA
330
26D
100
AcDbEntity
  8
Make2D$可见线$普通线
100
AcDbVertex
100
AcDb2dVertex
 10
577.6941246050349
 20
1098.143611897651
 30
0.0
  0
VERTEX
  5
2CB
330
26D
100
AcDbEntity
  8
Make2D$可见线$普通线
100
AcDbVertex
100
AcDb2dVertex
 10
577.6904106750765
 20
1098.148633485918
 30
0.0
  0
VERTEX
  5
2CC
330
26D
100
AcDbEntity
  8
Make2D$可见线$普通线
100
AcDbVertex
100
AcDb2dVertex
 10
577.6865484497712
 20
1098.153536611107
 30
0.0
  0
VERTEX
  5
2CD
330
26D
100
AcDbEntity
  8
Make2D$可见线$普通线
100
AcDbVertex
100
AcDb2dVertex
 10
577.6825555017588
 20
1098.158317764735
 30
0.0
  0
VERTEX
  5
2CE
330
26D
100
AcDbEntity
  8
Make2D$可见线$普通线
100
AcDbVertex
100
AcDb2dVertex
 10
577.6797243370399
 20
1098.161553517301
 30
0.0
  0
VERTEX
  5
2CF
330
26D
100
AcDbEntity
  8
Make2D$可见线$普通线
100
AcDbVertex
100
AcDb2dVertex
 10
577.6768404609246
 20
1098.164730532252
 30
0.0
  0
VERTEX
  5
2D0
330
26D
100
AcDbEntity
  8
Make2D$可见线$普通线
100
AcDbVertex
100
AcDb2dVertex
 10
577.6709204661995
 20
1098.170913754014
 30
0.0
  0
VERTEX
  5
2D1
330
26D
100
AcDbEntity
  8
Make2D$可见线$普通线
100
AcDbVertex
100
AcDb2dVertex
 10
577.6648073009744
 20
1098.176878239432
 30
0.0
  0
VERTEX
  5
2D2
330
26D
100
AcDbEntity
  8
Make2D$可见线$普通线
100
AcDbVertex
100
AcDb2dVertex
 10
577.6585127486405
 20
1098.182634797915
 30
0.0
  0
VERTEX
  5
2D3
330
26D
100
AcDbEntity
  8
Make2D$可见线$普通线
100
AcDbVertex
100
AcDb2dVertex
 10
577.6520485925887
 20
1098.188194238875
 30
0.0
  0
VERTEX
  5
2D4
330
26D
100
AcDbEntity
  8
Make2D$可见线$普通线
100
AcDbVertex
100
AcDb2dVertex
 10
577.6454266162102
 20
1098.193567371723
 30
0.0
  0
VERTEX
  5
2D5
330
26D
100
AcDbEntity
  8
Make2D$可见线$普通线
100
AcDbVertex
100
AcDb2dVertex
 10
577.6386586028959
 20
1098.198765005868
 30
0.0
  0
VERTEX
  5
2D6
330
26D
100
AcDbEntity
  8
Make2D$可见线$普通线
100
AcDbVertex
100
AcDb2dVertex
 10
577.6317563360368
 20
1098.203797950721
 30
0.0
  0
VERTEX
  5
2D7
330
26D
100
AcDbEntity
  8
Make2D$可见线$普通线
100
AcDbVertex
100
AcDb2dVertex
 10
577.624731599024
 20
1098.208677015692
 30
0.0
  0
VERTEX
  5
2D8
330
26D
100
AcDbEntity
  8
Make2D$可见线$普通线
100
AcDbVertex
100
AcDb2dVertex
 10
577.6175961752485
 20
1098.213413010192
 30
0.0
  0
VERTEX
  5
2D9
330
26D
100
AcDbEntity
  8
Make2D$可见线$普通线
100
AcDbVertex
100
AcDb2dVertex
 10
577.6030404009737
 20
1098.222499025421
 30
0.0
  0
VERTEX
  5
2DA
330
26D
100
AcDbEntity
  8
Make2D$可见线$普通线
100
AcDbVertex
100
AcDb2dVertex
 10
577.5881832803406
 20
1098.23114247169
 30
0.0
  0
VERTEX
  5
2DB
330
26D
100
AcDbEntity
  8
Make2D$可见线$普通线
100
AcDbVertex
100
AcDb2dVertex
 10
577.5731190804773
 20
1098.239429824284
 30
0.0
  0
VERTEX
  5
2DC
330
26D
100
AcDbEntity
  8
Make2D$可见线$普通线
100
AcDbVertex
100
AcDb2dVertex
 10
577.548109793271
 20
1098.252437906884
 30
0.0
  0
VERTEX
  5
2DD
330
26D
100
AcDbEntity
  8
Make2D$可见线$普通线
100
AcDbVertex
100
AcDb2dVertex
 10
577.522813395303
 20
1098.264752321792
 30
0.0
  0
VERTEX
  5
2DE
330
26D
100
AcDbEntity
  8
Make2D$可见线$普通线
100
AcDbVertex
100
AcDb2dVertex
 10
577.4972470866712
 20
1098.276406697443
 30
0.0
  0
VERTEX
  5
2DF
330
26D
100
AcDbEntity
  8
Make2D$可见线$普通线
100
AcDbVertex
100
AcDb2dVertex
 10
577.4714280674733
 20
1098.287434662271
 30
0.0
  0
VERTEX
  5
2E0
330
26D
100
AcDbEntity
  8
Make2D$可见线$普通线
100
AcDbVertex
100
AcDb2dVertex
 10
577.4453735378069
 20
1098.297869844708
 30
0.0
  0
VERTEX
  5
2E1
330
26D
100
AcDbEntity
  8
Make2D$可见线$普通线
100
AcDbVertex
100
AcDb2dVertex
 10
577.4191006977693
 20
1098.30774587319
 30
0.0
  0
VERTEX
  5
2E2
330
26D
100
AcDbEntity
  8
Make2D$可见线$普通线
100
AcDbVertex
100
AcDb2dVertex
 10
577.3926267474585
 20
1098.317096376149
 30
0.0
  0
VERTEX
  5
2E3
330
26D
100
AcDbEntity
  8
Make2D$可见线$普通线
100
AcDbVertex
100
AcDb2dVertex
 10
577.365968886972
 20
1098.325954982021
 30
0.0
  0
VERTEX
  5
2E4
330
26D
100
AcDbEntity
  8
Make2D$可见线$普通线
100
AcDbVertex
100
AcDb2dVertex
 10
577.3121702358632
 20
1098.342331016237
 30
0.0
  0
VERTEX
  5
2E5
330
26D
100
AcDbEntity
  8
Make2D$可见线$普通线
100
AcDbVertex
100
AcDb2dVertex
 10
577.2578423452235
 20
1098.357143003308
 30
0.0
  0
VERTEX
  5
2E6
330
26D
100
AcDbEntity
  8
Make2D$可见线$普通线
100
AcDbVertex
100
AcDb2dVertex
 10
577.2031228158341
 20
1098.370659970707
 30
0.0
  0
VERTEX
  5
2E7
330
26D
100
AcDbEntity
  8
Make2D$可见线$普通线
100
AcDbVertex
100
AcDb2dVertex
 10
577.1481492484768
 20
1098.383150945906
 30
0.0
  0
VERTEX
  5
2E8
330
26D
100
AcDbEntity
  8
Make2D$可见线$普通线
100
AcDbVertex
100
AcDb2dVertex
 10
577.0687711351331
 20
1098.39975310041
 30
0.0
  0
VERTEX
  5
2E9
330
26D
100
AcDbEntity
  8
Make2D$可见线$普通线
100
AcDbVertex
100
AcDb2dVertex
 10
576.989167700065
 20
1098.414866015202
 30
0.0
  0
VERTEX
  5
2EA
330
26D
100
AcDbEntity
  8
Make2D$可见线$普通线
100
AcDbVertex
100
AcDb2dVertex
 10
576.8293488994029
 20
1098.440942776679
 30
0.0
  0
VERTEX
  5
2EB
330
26D
100
AcDbEntity
  8
Make2D$可见线$普通线
100
AcDbVertex
100
AcDb2dVertex
 10
576.6688209157855
 20
1098.4620185324
 30
0.0
  0
VERTEX
  5
2EC
330
26D
100
AcDbEntity
  8
Make2D$可见线$普通线
100
AcDbVertex
100
AcDb2dVertex
 10
576.5077118185077
 20
1098.47873058443
 30
0.0
  0
VERTEX
  5
2ED
330
26D
100
AcDbEntity
  8
Make2D$可见线$普通线
100
AcDbVertex
100
AcDb2dVertex
 10
576.317839250383
 20
1098.493632855065
 30
0.0
  0
VERTEX
  5
2EE
330
26D
100
AcDbEntity
  8
Make2D$可见线$普通线
100
AcDbVertex
100
AcDb2dVertex
 10
576.1276818794597
 20
1098.504292977841
 30
0.0
  0
VERTEX
  5
2EF
330
26D
100
AcDbEntity
  8
Make2D$可见线$普通线
100
AcDbVertex
100
AcDb2dVertex
 10
575.924396258394
 20
1098.511719236497
 30
0.0
  0
VERTEX
  5
2F0
330
26D
100
AcDbEntity
  8
Make2D$可见线$普通线
100
AcDbVertex
100
AcDb2dVertex
 10
575.7209152669993
 20
1098.514638115446
 30
0.0
  0
SEQEND
  5
2F1
330
26D
100
AcDbEntity
  8
Make2D$可见线$普通线
  0
POLYLINE
  5
2F2
330
1F
100
AcDbEntity
  8
Make2D$可见线$普通线
100
AcDb2dPolyline
 66
     1
 10
0.0
 20
0.0
 30
0.0
  0
VERTEX
  5
2F3
330
2F2
100
AcDbEntity
  8
Make2D$可见线$普通线
100
AcDbVertex
100
AcDb2dVertex
 10
577.7209152669993
 20
1084.958968495016
 30
0.0
  0
VERTEX
  5
2F4
330
2F2
100
AcDbEntity
  8
Make2D$可见线$普通线
100
AcDbVertex
100
AcDb2dVertex
 10
577.7209152669994
 20
1078.032577058912
 30
0.0
 42
-0.4142220658199658
  0
VERTEX
  5
2F5
330
2F2
100
AcDbEntity
  8
Make2D$可见线$普通线
100
AcDbVertex
100
AcDb2dVertex
 10
575.7209152669993
 20
1076.032707657983
 30
0.0
  0
VERTEX
  5
2F6
330
2F2
100
AcDbEntity
  8
Make2D$可见线$普通线
100
AcDbVertex
100
AcDb2dVertex
 10
567.680706456217
 20
1076.032577058934
 30
0.0
  0
VERTEX
  5
2F7
330
2F2
100
AcDbEntity
  8
Make2D$可见线$普通线
100
AcDbVertex
100
AcDb2dVertex
 10
567.6807064562171
 20
1074.535514425228
 30
0.0
  0
VERTEX
  5
2F8
330
2F2
100
AcDbEntity
  8
Make2D$可见线$普通线
100
AcDbVertex
100
AcDb2dVertex
 10
560.5546974562753
 20
1074.532392324002
 30
0.0
 42
0.3938903034513819
  0
VERTEX
  5
2F9
330
2F2
100
AcDbEntity
  8
Make2D$可见线$普通线
100
AcDbVertex
100
AcDb2dVertex
 10
558.5641608104966
 20
1072.681038173569
 30
0.0
  0
SEQEND
  5
2FA
330
2F2
100
AcDbEntity
  8
Make2D$可见线$普通线
  0
POLYLINE
  5
2FB
330
1F
100
AcDbEntity
  8
Make2D$可见线$普通线
100
AcDb2dPolyline
 66
     1
 10
0.0
 20
0.0
 30
0.0
  0
VERTEX
  5
2FC
330
2FB
100
AcDbEntity
  8
Make2D$可见线$普通线
100
AcDbVertex
100
AcDb2dVertex
 10
613.6822832729185
 20
1110.032581045572
 30
0.0
  0
VERTEX
  5
2FD
330
2FB
100
AcDbEntity
  8
Make2D$可见线$普通线
100
AcDbVertex
100
AcDb2dVertex
 10
621.6822832729163
 20
1110.032581045572
 30
0.0
  0
VERTEX
  5
2FE
330
2FB
100
AcDbEntity
  8
Make2D$可见线$普通线
100
AcDbVertex
100
AcDb2dVertex
 10
621.6822832729165
 20
1110.532591397861
 30
0.0
  0
VERTEX
  5
2FF
330
2FB
100
AcDbEntity
  8
Make2D$可见线$普通线
100
AcDbVertex
100
AcDb2dVertex
 10
635.6875571792395
 20
1110.532600525416
 30
0.0
 42
-0.4107516099552558
  0
VERTEX
  5
300
330
2FB
100
AcDbEntity
  8
Make2D$可见线$普通线
100
AcDbVertex
100
AcDb2dVertex
 10
636.6807299226994
 20
1109.539427781956
 30
0.0
  0
VERTEX
  5
301
330
2FB
100
AcDbEntity
  8
Make2D$可见线$普通线
100
AcDbVertex
100
AcDb2dVertex
 10
636.6807299226994
 20
1073.525726335911
 30
0.0
 42
-0.4107516099551584
  0
VERTEX
  5
302
330
2FB
100
AcDbEntity
  8
Make2D$可见线$普通线
100
AcDbVertex
100
AcDb2dVertex
 10
635.6875571792395
 20
1072.532553592451
 30
0.0
  0
VERTEX
  5
303
330
2FB
100
AcDbEntity
  8
Make2D$可见线$普通线
100
AcDbVertex
100
AcDb2dVertex
 10
599.680706456217
 20
1072.532577058933
 30
0.0
 42
-0.4142135623731829
  0
VERTEX
  5
304
330
2FB
100
AcDbEntity
  8
Make2D$可见线$普通线
100
AcDbVertex
100
AcDb2dVertex
 10
598.680706456217
 20
1073.532577058932
 30
0.0
  0
VERTEX
  5
305
330
2FB
100
AcDbEntity
  8
Make2D$可见线$普通线
100
AcDbVertex
100
AcDb2dVertex
 10
598.680706456217
 20
1109.532577058934
 30
0.0
 42
-0.4142134636170621
  0
VERTEX
  5
306
330
2FB
100
AcDbEntity
  8
Make2D$可见线$普通线
100
AcDbVertex
100
AcDb2dVertex
 10
599.680706456217
 20
1110.532577058934
 30
0.0
  0
VERTEX
  5
307
330
2FB
100
AcDbEntity
  8
Make2D$可见线$普通线
100
AcDbVertex
100
AcDb2dVertex
 10
613.6822832729187
 20
1110.532586184079
 30
0.0
  0
VERTEX
  5
308
330
2FB
100
AcDbEntity
  8
Make2D$可见线$普通线
100
AcDbVertex
100
AcDb2dVertex
 10
613.6822832729185
 20
1110.032581045572
 30
0.0
  0
VERTEX
  5
309
330
2FB
100
AcDbEntity
  8
Make2D$可见线$普通线
100
AcDbVertex
100
AcDb2dVertex
 10
613.5822832729193
 20
1109.932581045572
 30
0.0
  0
SEQEND
  5
30A
330
2FB
100
AcDbEntity
  8
Make2D$可见线$普通线
  0
POLYLINE
  5
30B
330
1F
100
AcDbEntity
  8
Make2D$可见线$普通线
100
AcDb2dPolyline
 66
     1
 10
0.0
 20
0.0
 30
0.0
  0
VERTEX
  5
30C
330
30B
100
AcDbEntity
  8
Make2D$可见线$普通线
100
AcDbVertex
100
AcDb2dVertex
 10
594.6714048730325
 20
1072.718816195946
 30
0.0
 42
0.38735148527216
  0
VERTEX
  5
30D
330
30B
100
AcDbEntity
  8
Make2D$可见线$普通线
100
AcDbVertex
100
AcDb2dVertex
 10
592.680706456217
 20
1074.532554129414
 30
0.0
  0
VERTEX
  5
30E
330
30B
100
AcDbEntity
  8
Make2D$可见线$普通线
100
AcDbVertex
100
AcDb2dVertex
 10
580.680706456217
 20
1074.532577058934
 30
0.0
 42
-0.4142135623730008
  0
VERTEX
  5
30F
330
30B
100
AcDbEntity
  8
Make2D$可见线$普通线
100
AcDbVertex
100
AcDb2dVertex
 10
578.680706456217
 20
1076.532577058933
 30
0.0
  0
VERTEX
  5
310
330
30B
100
AcDbEntity
  8
Make2D$可见线$普通线
100
AcDbVertex
100
AcDb2dVertex
 10
578.6807064562171
 20
1106.532577058934
 30
0.0
 42
-0.4142135623731125
  0
VERTEX
  5
311
330
30B
100
AcDbEntity
  8
Make2D$可见线$普通线
100
AcDbVertex
100
AcDb2dVertex
 10
580.6807064562169
 20
1108.532577058934
 30
0.0
  0
VERTEX
  5
312
330
30B
100
AcDbEntity
  8
Make2D$可见线$普通线
100
AcDbVertex
100
AcDb2dVertex
 10
592.680706456217
 20
1108.532599988453
 30
0.0
 42
0.4050384847765608
  0
VERTEX
  5
313
330
30B
100
AcDbEntity
  8
Make2D$可见线$普通线
100
AcDbVertex
100
AcDb2dVertex
 10
594.6736225108803
 20
1110.456143193452
 30
0.0
  0
SEQEND
  5
314
330
30B
100
AcDbEntity
  8
Make2D$可见线$普通线
  0
POLYLINE
  5
315
330
1F
100
AcDbEntity
  8
Make2D$可见线$普通线
100
AcDb2dPolyline
 66
     1
 10
0.0
 20
0.0
 30
0.0
  0
VERTEX
  5
316
330
315
100
AcDbEntity
  8
Make2D$可见线$普通线
100
AcDbVertex
100
AcDb2dVertex
 10
607.4014811799018
 20
1050.99293151955
 30
0.0
 42
0.59474443088729
  0
VERTEX
  5
317
330
315
100
AcDbEntity
  8
Make2D$可见线$普通线
100
AcDbVertex
100
AcDb2dVertex
 10
607.4499734973516
 20
1051.850953210696
 30
0.0
  0
VERTEX
  5
318
330
315
100
AcDbEntity
  8
Make2D$可见线$普通线
100
AcDbVertex
100
AcDb2dVertex
 10
607.4188373537136
 20
1051.869438503778
 30
0.0
  0
VERTEX
  5
319
330
315
100
AcDbEntity
  8
Make2D$可见线$普通线
100
AcDbVertex
100
AcDb2dVertex
 10
607.2392105569056
 20
1051.892668213377
 30
0.0
 42
-0.1868687718552413
  0
VERTEX
  5
31A
330
315
100
AcDbEntity
  8
Make2D$可见线$普通线
100
AcDbVertex
100
AcDb2dVertex
 10
607.1230757588748
 20
1051.93149723575
 30
0.0
 42
-0.2382747581555769
  0
VERTEX
  5
31B
330
315
100
AcDbEntity
  8
Make2D$可见线$普通线
100
AcDbVertex
100
AcDb2dVertex
 10
607.1727397290563
 20
1051.956903509283
 30
0.0
 42
-0.0334195083935444
  0
VERTEX
  5
31C
330
315
100
AcDbEntity
  8
Make2D$可见线$普通线
100
AcDbVertex
100
AcDb2dVertex
 10
607.7360547342005
 20
1052.021115214389
 30
0.0
  0
VERTEX
  5
31D
330
315
100
AcDbEntity
  8
Make2D$可见线$普通线
100
AcDbVertex
100
AcDb2dVertex
 10
608.8953070558757
 20
1052.0853296928
 30
0.0
  0
VERTEX
  5
31E
330
315
100
AcDbEntity
  8
Make2D$可见线$普通线
100
AcDbVertex
100
AcDb2dVertex
 10
610.5816027819944
 20
1052.149563852696
 30
0.0
  0
VERTEX
  5
31F
330
315
100
AcDbEntity
  8
Make2D$可见线$普通线
100
AcDbVertex
100
AcDb2dVertex
 10
615.103167644982
 20
1052.277995436257
 30
0.0
  0
VERTEX
  5
320
330
315
100
AcDbEntity
  8
Make2D$可见线$普通线
100
AcDbVertex
100
AcDb2dVertex
 10
617.6683304985257
 20
1052.342221066925
 30
0.0
  0
VERTEX
  5
321
330
315
100
AcDbEntity
  8
Make2D$可见线$普通线
100
AcDbVertex
100
AcDb2dVertex
 10
617.6807035302342
 20
1052.342527711658
 30
0.0
  0
VERTEX
  5
322
330
315
100
AcDbEntity
  8
Make2D$可见线$普通线
100
AcDbVertex
100
AcDb2dVertex
 10
622.6464541838286
 20
1052.470650834853
 30
0.0
  0
VERTEX
  5
323
330
315
100
AcDbEntity
  8
Make2D$可见线$普通线
100
AcDbVertex
100
AcDb2dVertex
 10
625.146073720606
 20
1052.548017559856
 30
0.0
  0
VERTEX
  5
324
330
315
100
AcDbEntity
  8
Make2D$可见线$普通线
100
AcDbVertex
100
AcDb2dVertex
 10
626.4522623562052
 20
1052.599091390438
 30
0.0
  0
VERTEX
  5
325
330
315
100
AcDbEntity
  8
Make2D$可见线$普通线
100
AcDbVertex
100
AcDb2dVertex
 10
627.6169024446735
 20
1052.663296211266
 30
0.0
 42
0.0326607952139799
  0
VERTEX
  5
326
330
315
100
AcDbEntity
  8
Make2D$可见线$普通线
100
AcDbVertex
100
AcDb2dVertex
 10
628.1862437647465
 20
1052.727512629007
 30
0.0
  0
VERTEX
  5
327
330
315
100
AcDbEntity
  8
Make2D$可见线$普通线
100
AcDbVertex
100
AcDb2dVertex
 10
628.2383313015937
 20
1052.753505455895
 30
0.0
  0
VERTEX
  5
328
330
315
100
AcDbEntity
  8
Make2D$可见线$普通线
100
AcDbVertex
100
AcDb2dVertex
 10
628.2383313015937
 20
1053.403887049892
 30
0.0
 42
-0.1427936817406235
  0
VERTEX
  5
329
330
315
100
AcDbEntity
  8
Make2D$可见线$普通线
100
AcDbVertex
100
AcDb2dVertex
 10
628.007207113407
 20
1053.349078604192
 30
0.0
  0
SEQEND
  5
32A
330
315
100
AcDbEntity
  8
Make2D$可见线$普通线
  0
POLYLINE
  5
32B
330
1F
100
AcDbEntity
  8
Make2D$可见线$普通线
100
AcDb2dPolyline
 66
     1
 10
0.0
 20
0.0
 30
0.0
  0
VERTEX
  5
32C
330
32B
100
AcDbEntity
  8
Make2D$可见线$普通线
100
AcDbVertex
100
AcDb2dVertex
 10
607.4365029174753
 20
1050.351441721826
 30
0.0
  0
VERTEX
  5
32D
330
32B
100
AcDbEntity
  8
Make2D$可见线$普通线
100
AcDbVertex
100
AcDb2dVertex
 10
607.8997849875398
 20
1050.388787133764
 30
0.0
  0
VERTEX
  5
32E
330
32B
100
AcDbEntity
  8
Make2D$可见线$普通线
100
AcDbVertex
100
AcDb2dVertex
 10
608.3637928509959
 20
1050.415650843241
 30
0.0
  0
VERTEX
  5
32F
330
32B
100
AcDbEntity
  8
Make2D$可见线$普通线
100
AcDbVertex
100
AcDb2dVertex
 10
610.2153333398626
 20
1050.493017568269
 30
0.0
  0
VERTEX
  5
330
330
32B
100
AcDbEntity
  8
Make2D$可见线$普通线
100
AcDbVertex
100
AcDb2dVertex
 10
614.1120265637278
 20
1050.608296219654
 30
0.0
  0
VERTEX
  5
331
330
32B
100
AcDbEntity
  8
Make2D$可见线$普通线
100
AcDbVertex
100
AcDb2dVertex
 10
621.7096942659109
 20
1050.800961133142
 30
0.0
  0
VERTEX
  5
332
330
32B
100
AcDbEntity
  8
Make2D$可见线$普通线
100
AcDbVertex
100
AcDb2dVertex
 10
625.146073720606
 20
1050.903997239944
 30
0.0
  0
VERTEX
  5
333
330
32B
100
AcDbEntity
  8
Make2D$可见线$普通线
100
AcDbVertex
100
AcDb2dVertex
 10
627.2193695002104
 20
1050.993615218583
 30
0.0
  0
VERTEX
  5
334
330
32B
100
AcDbEntity
  8
Make2D$可见线$普通线
100
AcDbVertex
100
AcDb2dVertex
 10
627.6266596251644
 20
1051.019605308978
 30
0.0
  0
VERTEX
  5
335
330
32B
100
AcDbEntity
  8
Make2D$可见线$普通线
100
AcDbVertex
100
AcDb2dVertex
 10
628.032984159059
 20
1051.057829696994
 30
0.0
  0
VERTEX
  5
336
330
32B
100
AcDbEntity
  8
Make2D$可见线$普通线
100
AcDbVertex
100
AcDb2dVertex
 10
628.0810163765792
 20
1051.064293722784
 30
0.0
  0
VERTEX
  5
337
330
32B
100
AcDbEntity
  8
Make2D$可见线$普通线
100
AcDbVertex
100
AcDb2dVertex
 10
628.1226824447583
 20
1051.07075383806
 30
0.0
  0
VERTEX
  5
338
330
32B
100
AcDbEntity
  8
Make2D$可见线$普通线
100
AcDbVertex
100
AcDb2dVertex
 10
628.1579706061666
 20
1051.07721153315
 30
0.0
  0
VERTEX
  5
339
330
32B
100
AcDbEntity
  8
Make2D$可见线$普通线
100
AcDbVertex
100
AcDb2dVertex
 10
628.1732192976347
 20
1051.080439938852
 30
0.0
  0
VERTEX
  5
33A
330
32B
100
AcDbEntity
  8
Make2D$可见线$普通线
100
AcDbVertex
100
AcDb2dVertex
 10
628.1868691033737
 20
1051.083668298382
 30
0.0
  0
VERTEX
  5
33B
330
32B
100
AcDbEntity
  8
Make2D$可见线$普通线
100
AcDbVertex
100
AcDb2dVertex
 10
628.1989185537052
 20
1051.086896798029
 30
0.0
  0
VERTEX
  5
33C
330
32B
100
AcDbEntity
  8
Make2D$可见线$普通线
100
AcDbVertex
100
AcDb2dVertex
 10
628.2043426863183
 20
1051.088511158613
 30
0.0
  0
VERTEX
  5
33D
330
32B
100
AcDbEntity
  8
Make2D$可见线$普通线
100
AcDbVertex
100
AcDb2dVertex
 10
628.2093661789501
 20
1051.090125624085
 30
0.0
  0
VERTEX
  5
33E
330
32B
100
AcDbEntity
  8
Make2D$可见线$普通线
100
AcDbVertex
100
AcDb2dVertex
 10
628.2139888478904
 20
1051.091740217732
 30
0.0
  0
VERTEX
  5
33F
330
32B
100
AcDbEntity
  8
Make2D$可见线$普通线
100
AcDbVertex
100
AcDb2dVertex
 10
628.2182105094298
 20
1051.093354962841
 30
0.0
  0
VERTEX
  5
340
330
32B
100
AcDbEntity
  8
Make2D$可见线$普通线
100
AcDbVertex
100
AcDb2dVertex
 10
628.2201709050147
 20
1051.09416239947
 30
0.0
  0
VERTEX
  5
341
330
32B
100
AcDbEntity
  8
Make2D$可见线$普通线
100
AcDbVertex
100
AcDb2dVertex
 10
628.2220309798581
 20
1051.094969882698
 30
0.0
  0
VERTEX
  5
342
330
32B
100
AcDbEntity
  8
Make2D$可见线$普通线
100
AcDbVertex
100
AcDb2dVertex
 10
628.2237907109962
 20
1051.095777415433
 30
0.0
  0
VERTEX
  5
343
330
32B
100
AcDbEntity
  8
Make2D$可见线$普通线
100
AcDbVertex
100
AcDb2dVertex
 10
628.2254500754655
 20
1051.096585000588
 30
0.0
  0
VERTEX
  5
344
330
32B
100
AcDbEntity
  8
Make2D$可见线$普通线
100
AcDbVertex
100
AcDb2dVertex
 10
628.227009050302
 20
1051.097392641073
 30
0.0
  0
VERTEX
  5
345
330
32B
100
AcDbEntity
  8
Make2D$可见线$普通线
100
AcDbVertex
100
AcDb2dVertex
 10
628.2284676125422
 20
1051.098200339799
 30
0.0
  0
VERTEX
  5
346
330
32B
100
AcDbEntity
  8
Make2D$可见线$普通线
100
AcDbVertex
100
AcDb2dVertex
 10
628.2298257392222
 20
1051.099008099677
 30
0.0
  0
VERTEX
  5
347
330
32B
100
AcDbEntity
  8
Make2D$可见线$普通线
100
AcDbVertex
100
AcDb2dVertex
 10
628.2304671320512
 20
1051.099412003457
 30
0.0
  0
VERTEX
  5
348
330
32B
100
AcDbEntity
  8
Make2D$可见线$普通线
100
AcDbVertex
100
AcDb2dVertex
 10
628.2310834073785
 20
1051.099815923617
 30
0.0
  0
VERTEX
  5
349
330
32B
100
AcDbEntity
  8
Make2D$可见线$普通线
100
AcDbVertex
100
AcDb2dVertex
 10
628.2316745623341
 20
1051.100219860521
 30
0.0
  0
VERTEX
  5
34A
330
32B
100
AcDbEntity
  8
Make2D$可见线$普通线
100
AcDbVertex
100
AcDb2dVertex
 10
628.2322405940471
 20
1051.100623814531
 30
0.0
  0
VERTEX
  5
34B
330
32B
100
AcDbEntity
  8
Make2D$可见线$普通线
100
AcDbVertex
100
AcDb2dVertex
 10
628.2327814996473
 20
1051.101027786013
 30
0.0
  0
VERTEX
  5
34C
330
32B
100
AcDbEntity
  8
Make2D$可见线$普通线
100
AcDbVertex
100
AcDb2dVertex
 10
628.2332972762644
 20
1051.101431775329
 30
0.0
  0
VERTEX
  5
34D
330
32B
100
AcDbEntity
  8
Make2D$可见线$普通线
100
AcDbVertex
100
AcDb2dVertex
 10
628.2337879210276
 20
1051.101835782844
 30
0.0
  0
VERTEX
  5
34E
330
32B
100
AcDbEntity
  8
Make2D$可见线$普通线
100
AcDbVertex
100
AcDb2dVertex
 10
628.2342534310666
 20
1051.102239808921
 30
0.0
  0
VERTEX
  5
34F
330
32B
100
AcDbEntity
  8
Make2D$可见线$普通线
100
AcDbVertex
100
AcDb2dVertex
 10
628.2346938035108
 20
1051.102643853926
 30
0.0
  0
VERTEX
  5
350
330
32B
100
AcDbEntity
  8
Make2D$可见线$普通线
100
AcDbVertex
100
AcDb2dVertex
 10
628.23510903549
 20
1051.10304791822
 30
0.0
  0
VERTEX
  5
351
330
32B
100
AcDbEntity
  8
Make2D$可见线$普通线
100
AcDbVertex
100
AcDb2dVertex
 10
628.2354991241335
 20
1051.103452002169
 30
0.0
  0
VERTEX
  5
352
330
32B
100
AcDbEntity
  8
Make2D$可见线$普通线
100
AcDbVertex
100
AcDb2dVertex
 10
628.2358640665709
 20
1051.103856106135
 30
0.0
  0
VERTEX
  5
353
330
32B
100
AcDbEntity
  8
Make2D$可见线$普通线
100
AcDbVertex
100
AcDb2dVertex
 10
628.2360371070654
 20
1051.104058165739
 30
0.0
  0
VERTEX
  5
354
330
32B
100
AcDbEntity
  8
Make2D$可见线$普通线
100
AcDbVertex
100
AcDb2dVertex
 10
628.2362038599318
 20
1051.104260230483
 30
0.0
  0
VERTEX
  5
355
330
32B
100
AcDbEntity
  8
Make2D$可见线$普通线
100
AcDbVertex
100
AcDb2dVertex
 10
628.2363643248116
 20
1051.104462300414
 30
0.0
  0
VERTEX
  5
356
330
32B
100
AcDbEntity
  8
Make2D$可见线$普通线
100
AcDbVertex
100
AcDb2dVertex
 10
628.2365185013456
 20
1051.104664375577
 30
0.0
  0
VERTEX
  5
357
330
32B
100
AcDbEntity
  8
Make2D$可见线$普通线
100
AcDbVertex
100
AcDb2dVertex
 10
628.2366663891753
 20
1051.104866456018
 30
0.0
  0
VERTEX
  5
358
330
32B
100
AcDbEntity
  8
Make2D$可见线$普通线
100
AcDbVertex
100
AcDb2dVertex
 10
628.2368079879419
 20
1051.105068541781
 30
0.0
  0
VERTEX
  5
359
330
32B
100
AcDbEntity
  8
Make2D$可见线$普通线
100
AcDbVertex
100
AcDb2dVertex
 10
628.2369432972865
 20
1051.105270632912
 30
0.0
  0
VERTEX
  5
35A
330
32B
100
AcDbEntity
  8
Make2D$可见线$普通线
100
AcDbVertex
100
AcDb2dVertex
 10
628.2370723168502
 20
1051.105472729458
 30
0.0
  0
VERTEX
  5
35B
330
32B
100
AcDbEntity
  8
Make2D$可见线$普通线
100
AcDbVertex
100
AcDb2dVertex
 10
628.2371950462743
 20
1051.105674831462
 30
0.0
  0
VERTEX
  5
35C
330
32B
100
AcDbEntity
  8
Make2D$可见线$普通线
100
AcDbVertex
100
AcDb2dVertex
 10
628.2373114852002
 20
1051.105876938972
 30
0.0
  0
VERTEX
  5
35D
330
32B
100
AcDbEntity
  8
Make2D$可见线$普通线
100
AcDbVertex
100
AcDb2dVertex
 10
628.2374216332687
 20
1051.106079052031
 30
0.0
  0
VERTEX
  5
35E
330
32B
100
AcDbEntity
  8
Make2D$可见线$普通线
100
AcDbVertex
100
AcDb2dVertex
 10
628.2375254901212
 20
1051.106281170687
 30
0.0
  0
VERTEX
  5
35F
330
32B
100
AcDbEntity
  8
Make2D$可见线$普通线
100
AcDbVertex
100
AcDb2dVertex
 10
628.2376230553989
 20
1051.106483294983
 30
0.0
  0
VERTEX
  5
360
330
32B
100
AcDbEntity
  8
Make2D$可见线$普通线
100
AcDbVertex
100
AcDb2dVertex
 10
628.2377143287429
 20
1051.106685424967
 30
0.0
  0
VERTEX
  5
361
330
32B
100
AcDbEntity
  8
Make2D$可见线$普通线
100
AcDbVertex
100
AcDb2dVertex
 10
628.2377993097946
 20
1051.106887560682
 30
0.0
  0
VERTEX
  5
362
330
32B
100
AcDbEntity
  8
Make2D$可见线$普通线
100
AcDbVertex
100
AcDb2dVertex
 10
628.2378779981948
 20
1051.107089702175
 30
0.0
  0
VERTEX
  5
363
330
32B
100
AcDbEntity
  8
Make2D$可见线$普通线
100
AcDbVertex
100
AcDb2dVertex
 10
628.2379503935852
 20
1051.107291849492
 30
0.0
  0
VERTEX
  5
364
330
32B
100
AcDbEntity
  8
Make2D$可见线$普通线
100
AcDbVertex
100
AcDb2dVertex
 10
628.2380164956064
 20
1051.107494002677
 30
0.0
  0
VERTEX
  5
365
330
32B
100
AcDbEntity
  8
Make2D$可见线$普通线
100
AcDbVertex
100
AcDb2dVertex
 10
628.2380763039002
 20
1051.107696161776
 30
0.0
  0
VERTEX
  5
366
330
32B
100
AcDbEntity
  8
Make2D$可见线$普通线
100
AcDbVertex
100
AcDb2dVertex
 10
628.2381298181073
 20
1051.107898326835
 30
0.0
  0
VERTEX
  5
367
330
32B
100
AcDbEntity
  8
Make2D$可见线$普通线
100
AcDbVertex
100
AcDb2dVertex
 10
628.2381770378691
 20
1051.108100497899
 30
0.0
  0
VERTEX
  5
368
330
32B
100
AcDbEntity
  8
Make2D$可见线$普通线
100
AcDbVertex
100
AcDb2dVertex
 10
628.2382179628269
 20
1051.108302675013
 30
0.0
  0
VERTEX
  5
369
330
32B
100
AcDbEntity
  8
Make2D$可见线$普通线
100
AcDbVertex
100
AcDb2dVertex
 10
628.2382525926217
 20
1051.108504858224
 30
0.0
  0
VERTEX
  5
36A
330
32B
100
AcDbEntity
  8
Make2D$可见线$普通线
100
AcDbVertex
100
AcDb2dVertex
 10
628.2382809268947
 20
1051.108707047576
 30
0.0
  0
VERTEX
  5
36B
330
32B
100
AcDbEntity
  8
Make2D$可见线$普通线
100
AcDbVertex
100
AcDb2dVertex
 10
628.2383029652874
 20
1051.108909243115
 30
0.0
  0
VERTEX
  5
36C
330
32B
100
AcDbEntity
  8
Make2D$可见线$普通线
100
AcDbVertex
100
AcDb2dVertex
 10
628.2383187074406
 20
1051.109111444887
 30
0.0
  0
VERTEX
  5
36D
330
32B
100
AcDbEntity
  8
Make2D$可见线$普通线
100
AcDbVertex
100
AcDb2dVertex
 10
628.2383281529957
 20
1051.109313652936
 30
0.0
  0
VERTEX
  5
36E
330
32B
100
AcDbEntity
  8
Make2D$可见线$普通线
100
AcDbVertex
100
AcDb2dVertex
 10
628.2383313015937
 20
1051.109515867309
 30
0.0
  0
VERTEX
  5
36F
330
32B
100
AcDbEntity
  8
Make2D$可见线$普通线
100
AcDbVertex
100
AcDb2dVertex
 10
628.2383313015937
 20
1051.759906958031
 30
0.0
 42
-0.2382632824781787
  0
VERTEX
  5
370
330
32B
100
AcDbEntity
  8
Make2D$可见线$普通线
100
AcDbVertex
100
AcDb2dVertex
 10
628.1886698591488
 20
1051.734509999165
 30
0.0
 42
-0.0334036303490911
  0
VERTEX
  5
371
330
32B
100
AcDbEntity
  8
Make2D$可见线$普通线
100
AcDbVertex
100
AcDb2dVertex
 10
627.6252393663262
 20
1051.6702893157
 30
0.0
  0
VERTEX
  5
372
330
32B
100
AcDbEntity
  8
Make2D$可见线$普通线
100
AcDbVertex
100
AcDb2dVertex
 10
626.4660096894204
 20
1051.606079135957
 30
0.0
  0
VERTEX
  5
373
330
32B
100
AcDbEntity
  8
Make2D$可见线$普通线
100
AcDbVertex
100
AcDb2dVertex
 10
624.7801482865336
 20
1051.541860520298
 30
0.0
  0
VERTEX
  5
374
330
32B
100
AcDbEntity
  8
Make2D$可见线$普通线
100
AcDbVertex
100
AcDb2dVertex
 10
620.2581090855508
 20
1051.41341409621
 30
0.0
  0
VERTEX
  5
375
330
32B
100
AcDbEntity
  8
Make2D$可见线$普通线
100
AcDbVertex
100
AcDb2dVertex
 10
617.6930765619428
 20
1051.349191795178
 30
0.0
  0
VERTEX
  5
376
330
32B
100
AcDbEntity
  8
Make2D$可见线$普通线
100
AcDbVertex
100
AcDb2dVertex
 10
617.6807035302343
 20
1051.3488851494
 30
0.0
  0
VERTEX
  5
377
330
32B
100
AcDbEntity
  8
Make2D$可见线$普通线
100
AcDbVertex
100
AcDb2dVertex
 10
612.7148778840269
 20
1051.220759919939
 30
0.0
  0
VERTEX
  5
378
330
32B
100
AcDbEntity
  8
Make2D$可见线$普通线
100
AcDbVertex
100
AcDb2dVertex
 10
610.2153333398626
 20
1051.143397529691
 30
0.0
  0
VERTEX
  5
379
330
32B
100
AcDbEntity
  8
Make2D$可见线$普通线
100
AcDbVertex
100
AcDb2dVertex
 10
608.9090540718776
 20
1051.092317432955
 30
0.0
  0
VERTEX
  5
37A
330
32B
100
AcDbEntity
  8
Make2D$可见线$普通线
100
AcDbVertex
100
AcDb2dVertex
 10
607.7443909136873
 20
1051.02810830929
 30
0.0
 42
0.0326455546299934
  0
VERTEX
  5
37B
330
32B
100
AcDbEntity
  8
Make2D$可见线$普通线
100
AcDbVertex
100
AcDb2dVertex
 10
607.1751658843132
 20
1050.963900879978
 30
0.0
  0
VERTEX
  5
37C
330
32B
100
AcDbEntity
  8
Make2D$可见线$普通线
100
AcDbVertex
100
AcDb2dVertex
 10
607.1230757588748
 20
1050.937915719521
 30
0.0
  0
VERTEX
  5
37D
330
32B
100
AcDbEntity
  8
Make2D$可见线$普通线
100
AcDbVertex
100
AcDb2dVertex
 10
607.1230757588748
 20
1050.287527720046
 30
0.0
  0
SEQEND
  5
37E
330
32B
100
AcDbEntity
  8
Make2D$可见线$普通线
  0
POLYLINE
  5
37F
330
1F
100
AcDbEntity
  8
Make2D$可见线$普通线
100
AcDb2dPolyline
 66
     1
 10
0.0
 20
0.0
 30
0.0
  0
VERTEX
  5
380
330
37F
100
AcDbEntity
  8
Make2D$可见线$普通线
100
AcDbVertex
100
AcDb2dVertex
 10
627.9457803337393
 20
1050.177628069441
 30
0.0
 42
-0.0603129505372793
  0
VERTEX
  5
381
330
37F
100
AcDbEntity
  8
Make2D$可见线$普通线
100
AcDbVertex
100
AcDb2dVertex
 10
628.2249909120185
 20
1050.129045817356
 30
0.0
  0
VERTEX
  5
382
330
37F
100
AcDbEntity
  8
Make2D$可见线$普通线
100
AcDbVertex
100
AcDb2dVertex
 10
628.2383313015937
 20
1050.115897533885
 30
0.0
  0
VERTEX
  5
383
330
37F
100
AcDbEntity
  8
Make2D$可见线$普通线
100
AcDbVertex
100
AcDb2dVertex
 10
628.2383313015937
 20
1049.465517572464
 30
0.0
  0
VERTEX
  5
384
330
37F
100
AcDbEntity
  8
Make2D$可见线$普通线
100
AcDbVertex
100
AcDb2dVertex
 10
628.2250142590124
 20
1049.452378587936
 30
0.0
 42
-0.0564179540712439
  0
VERTEX
  5
385
330
37F
100
AcDbEntity
  8
Make2D$可见线$普通线
100
AcDbVertex
100
AcDb2dVertex
 10
627.7800702120712
 20
1049.388150847435
 30
0.0
  0
VERTEX
  5
386
330
37F
100
AcDbEntity
  8
Make2D$可见线$普通线
100
AcDbVertex
100
AcDb2dVertex
 10
626.7299745931725
 20
1049.32394172602
 30
0.0
  0
VERTEX
  5
387
330
37F
100
AcDbEntity
  8
Make2D$可见线$普通线
100
AcDbVertex
100
AcDb2dVertex
 10
625.1373195392439
 20
1049.259721079511
 30
0.0
  0
VERTEX
  5
388
330
37F
100
AcDbEntity
  8
Make2D$可见线$普通线
100
AcDbVertex
100
AcDb2dVertex
 10
620.7336768679597
 20
1049.13128342155
 30
0.0
  0
VERTEX
  5
389
330
37F
100
AcDbEntity
  8
Make2D$可见线$普通线
100
AcDbVertex
100
AcDb2dVertex
 10
613.155512299822
 20
1048.938615226971
 30
0.0
  0
VERTEX
  5
38A
330
37F
100
AcDbEntity
  8
Make2D$可见线$普通线
100
AcDbVertex
100
AcDb2dVertex
 10
610.2153333398626
 20
1048.848997248332
 30
0.0
  0
VERTEX
  5
38B
330
37F
100
AcDbEntity
  8
Make2D$可见线$普通线
100
AcDbVertex
100
AcDb2dVertex
 10
609.1932047361986
 20
1048.81016822596
 30
0.0
  0
VERTEX
  5
38C
330
37F
100
AcDbEntity
  8
Make2D$可见线$普通线
100
AcDbVertex
100
AcDb2dVertex
 10
607.7499732005111
 20
1048.73550531474
 30
0.0
  0
VERTEX
  5
38D
330
37F
100
AcDbEntity
  8
Make2D$可见线$普通线
100
AcDbVertex
100
AcDb2dVertex
 10
607.5780939130386
 20
1048.721308444857
 30
0.0
  0
VERTEX
  5
38E
330
37F
100
AcDbEntity
  8
Make2D$可见线$普通线
100
AcDbVertex
100
AcDb2dVertex
 10
607.4065637840379
 20
1048.703379266921
 30
0.0
  0
VERTEX
  5
38F
330
37F
100
AcDbEntity
  8
Make2D$可见线$普通线
100
AcDbVertex
100
AcDb2dVertex
 10
607.2355042012523
 20
1048.681731803885
 30
0.0
 42
0.1889798313092428
  0
VERTEX
  5
390
330
37F
100
AcDbEntity
  8
Make2D$可见线$普通线
100
AcDbVertex
100
AcDb2dVertex
 10
607.1230757588748
 20
1048.643505466217
 30
0.0
 42
0.2356274959242216
  0
VERTEX
  5
391
330
37F
100
AcDbEntity
  8
Make2D$可见线$普通线
100
AcDbVertex
100
AcDb2dVertex
 10
607.1751632957221
 20
1048.617512645784
 30
0.0
  0
VERTEX
  5
392
330
37F
100
AcDbEntity
  8
Make2D$可见线$普通线
100
AcDbVertex
100
AcDb2dVertex
 10
607.4203834225746
 20
1048.581272192512
 30
0.0
  0
SEQEND
  5
393
330
37F
100
AcDbEntity
  8
Make2D$可见线$普通线
  0
POLYLINE
  5
394
330
1F
100
AcDbEntity
  8
Make2D$可见线$普通线
100
AcDb2dPolyline
 66
     1
 10
0.0
 20
0.0
 30
0.0
  0
VERTEX
  5
395
330
394
100
AcDbEntity
  8
Make2D$可见线$普通线
100
AcDbVertex
100
AcDb2dVertex
 10
627.9453178880831
 20
1048.533682255195
 30
0.0
 42
-0.1297587472653049
  0
VERTEX
  5
396
330
394
100
AcDbEntity
  8
Make2D$可见线$普通线
100
AcDbVertex
100
AcDb2dVertex
 10
628.2383313015937
 20
1048.471894997238
 30
0.0
  0
VERTEX
  5
397
330
394
100
AcDbEntity
  8
Make2D$可见线$普通线
100
AcDbVertex
100
AcDb2dVertex
 10
628.2383313015937
 20
1047.821497252529
 30
0.0
 42
-0.1868687718613659
  0
VERTEX
  5
398
330
394
100
AcDbEntity
  8
Make2D$可见线$普通线
100
AcDbVertex
100
AcDb2dVertex
 10
628.1221965035629
 20
1047.782668230154
 30
0.0
 42
-0.0167642341831302
  0
VERTEX
  5
399
330
394
100
AcDbEntity
  8
Make2D$可见线$普通线
100
AcDbVertex
100
AcDb2dVertex
 10
626.4580996326536
 20
1047.667337913553
 30
0.0
  0
VERTEX
  5
39A
330
394
100
AcDbEntity
  8
Make2D$可见线$普通线
100
AcDbVertex
100
AcDb2dVertex
 10
607.146498877835
 20
1047.667337913553
 30
0.0
  0
VERTEX
  5
39B
330
394
100
AcDbEntity
  8
Make2D$可见线$普通线
100
AcDbVertex
100
AcDb2dVertex
 10
607.1423758413503
 20
1047.648037831078
 30
0.0
  0
VERTEX
  5
39C
330
394
100
AcDbEntity
  8
Make2D$可见线$普通线
100
AcDbVertex
100
AcDb2dVertex
 10
608.114464926389
 20
1046.680706456217
 30
0.0
  0
VERTEX
  5
39D
330
394
100
AcDbEntity
  8
Make2D$可见线$普通线
100
AcDbVertex
100
AcDb2dVertex
 10
627.2516998442572
 20
1046.680706456217
 30
0.0
  0
VERTEX
  5
39E
330
394
100
AcDbEntity
  8
Make2D$可见线$普通线
100
AcDbVertex
100
AcDb2dVertex
 10
627.7144376845251
 20
1047.143444296485
 30
0.0
  0
VERTEX
  5
39F
330
394
100
AcDbEntity
  8
Make2D$可见线$普通线
100
AcDbVertex
100
AcDb2dVertex
 10
627.7143936753073
 20
1047.143401940516
 30
0.0
  0
VERTEX
  5
3A0
330
394
100
AcDbEntity
  8
Make2D$可见线$普通线
100
AcDbVertex
100
AcDb2dVertex
 10
627.7143463924111
 20
1047.143359617281
 30
0.0
  0
VERTEX
  5
3A1
330
394
100
AcDbEntity
  8
Make2D$可见线$普通线
100
AcDbVertex
100
AcDb2dVertex
 10
627.7142958359017
 20
1047.14331732671
 30
0.0
  0
VERTEX
  5
3A2
330
394
100
AcDbEntity
  8
Make2D$可见线$普通线
100
AcDbVertex
100
AcDb2dVertex
 10
627.7142420058441
 20
1047.143275068736
 30
0.0
  0
VERTEX
  5
3A3
330
394
100
AcDbEntity
  8
Make2D$可见线$普通线
100
AcDbVertex
100
AcDb2dVertex
 10
627.7141849023034
 20
1047.143232843292
 30
0.0
  0
VERTEX
  5
3A4
330
394
100
AcDbEntity
  8
Make2D$可见线$普通线
100
AcDbVertex
100
AcDb2dVertex
 10
627.7141245253448
 20
1047.14319065031
 30
0.0
  0
VERTEX
  5
3A5
330
394
100
AcDbEntity
  8
Make2D$可见线$普通线
100
AcDbVertex
100
AcDb2dVertex
 10
627.7140608750333
 20
1047.143148489723
 30
0.0
  0
VERTEX
  5
3A6
330
394
100
AcDbEntity
  8
Make2D$可见线$普通线
100
AcDbVertex
100
AcDb2dVertex
 10
627.7139939514341
 20
1047.143106361461
 30
0.0
  0
VERTEX
  5
3A7
330
394
100
AcDbEntity
  8
Make2D$可见线$普通线
100
AcDbVertex
100
AcDb2dVertex
 10
627.7139237546121
 20
1047.143064265459
 30
0.0
  0
VERTEX
  5
3A8
330
394
100
AcDbEntity
  8
Make2D$可见线$普通线
100
AcDbVertex
100
AcDb2dVertex
 10
627.7138502846326
 20
1047.143022201648
 30
0.0
  0
VERTEX
  5
3A9
330
394
100
AcDbEntity
  8
Make2D$可见线$普通线
100
AcDbVertex
100
AcDb2dVertex
 10
627.7137735415606
 20
1047.142980169961
 30
0.0
  0
VERTEX
  5
3AA
330
394
100
AcDbEntity
  8
Make2D$可见线$普通线
100
AcDbVertex
100
AcDb2dVertex
 10
627.7136935254613
 20
1047.14293817033
 30
0.0
  0
VERTEX
  5
3AB
330
394
100
AcDbEntity
  8
Make2D$可见线$普通线
100
AcDbVertex
100
AcDb2dVertex
 10
627.7135236744407
 20
1047.142854266965
 30
0.0
  0
VERTEX
  5
3AC
330
394
100
AcDbEntity
  8
Make2D$可见线$普通线
100
AcDbVertex
100
AcDb2dVertex
 10
627.7133407320919
 20
1047.142770491012
 30
0.0
  0
VERTEX
  5
3AD
330
394
100
AcDbEntity
  8
Make2D$可见线$普通线
100
AcDbVertex
100
AcDb2dVertex
 10
627.7131446989354
 20
1047.14268684193
 30
0.0
  0
VERTEX
  5
3AE
330
394
100
AcDbEntity
  8
Make2D$可见线$普通线
100
AcDbVertex
100
AcDb2dVertex
 10
627.7129355754921
 20
1047.142603319177
 30
0.0
  0
VERTEX
  5
3AF
330
394
100
AcDbEntity
  8
Make2D$可见线$普通线
100
AcDbVertex
100
AcDb2dVertex
 10
627.7127133622828
 20
1047.142519922214
 30
0.0
  0
VERTEX
  5
3B0
330
394
100
AcDbEntity
  8
Make2D$可见线$普通线
100
AcDbVertex
100
AcDb2dVertex
 10
627.7124780598282
 20
1047.142436650497
 30
0.0
  0
VERTEX
  5
3B1
330
394
100
AcDbEntity
  8
Make2D$可见线$普通线
100
AcDbVertex
100
AcDb2dVertex
 10
627.7119681892661
 20
1047.142270480642
 30
0.0
  0
VERTEX
  5
3B2
330
394
100
AcDbEntity
  8
Make2D$可见线$普通线
100
AcDbVertex
100
AcDb2dVertex
 10
627.711405967972
 20
1047.142104805281
 30
0.0
  0
VERTEX
  5
3B3
330
394
100
AcDbEntity
  8
Make2D$可见线$普通线
100
AcDbVertex
100
AcDb2dVertex
 10
627.7107914001124
 20
1047.141939620086
 30
0.0
  0
VERTEX
  5
3B4
330
394
100
AcDbEntity
  8
Make2D$可见线$普通线
100
AcDbVertex
100
AcDb2dVertex
 10
627.7101244898532
 20
1047.141774920725
 30
0.0
  0
VERTEX
  5
3B5
330
394
100
AcDbEntity
  8
Make2D$可见线$普通线
100
AcDbVertex
100
AcDb2dVertex
 10
627.708633658801
 20
1047.141446962192
 30
0.0
  0
VERTEX
  5
3B6
330
394
100
AcDbEntity
  8
Make2D$可见线$普通线
100
AcDbVertex
100
AcDb2dVertex
 10
627.7069335081446
 20
1047.141120895044
 30
0.0
  0
VERTEX
  5
3B7
330
394
100
AcDbEntity
  8
Make2D$可见线$普通线
100
AcDbVertex
100
AcDb2dVertex
 10
627.7050240712138
 20
1047.140796684644
 30
0.0
  0
VERTEX
  5
3B8
330
394
100
AcDbEntity
  8
Make2D$可见线$普通线
100
AcDbVertex
100
AcDb2dVertex
 10
627.7005774718459
 20
1047.140153695535
 30
0.0
  0
VERTEX
  5
3B9
330
394
100
AcDbEntity
  8
Make2D$可见线$普通线
100
AcDbVertex
100
AcDb2dVertex
 10
627.6952941273327
 20
1047.139517717764
 30
0.0
  0
VERTEX
  5
3BA
330
394
100
AcDbEntity
  8
Make2D$可见线$普通线
100
AcDbVertex
100
AcDb2dVertex
 10
627.6822182694112
 20
1047.138265687834
 30
0.0
  0
VERTEX
  5
3BB
330
394
100
AcDbEntity
  8
Make2D$可见线$普通线
100
AcDbVertex
100
AcDb2dVertex
 10
627.6460373437776
 20
1047.135833571587
 30
0.0
  0
VERTEX
  5
3BC
330
394
100
AcDbEntity
  8
Make2D$可见线$普通线
100
AcDbVertex
100
AcDb2dVertex
 10
627.5964983589731
 20
1047.133482601434
 30
0.0
  0
VERTEX
  5
3BD
330
394
100
AcDbEntity
  8
Make2D$可见线$普通线
100
AcDbVertex
100
AcDb2dVertex
 10
626.3125570403661
 20
1047.114573758622
 30
0.0
  0
VERTEX
  5
3BE
330
394
100
AcDbEntity
  8
Make2D$可见线$普通线
100
AcDbVertex
100
AcDb2dVertex
 10
624.0242368695006
 20
1047.109862894582
 30
0.0
  0
VERTEX
  5
3BF
330
394
100
AcDbEntity
  8
Make2D$可见线$普通线
100
AcDbVertex
100
AcDb2dVertex
 10
620.798195876192
 20
1047.126799237353
 30
0.0
  0
VERTEX
  5
3C0
330
394
100
AcDbEntity
  8
Make2D$可见线$普通线
100
AcDbVertex
100
AcDb2dVertex
 10
618.643371787884
 20
1047.162221260076
 30
0.0
  0
VERTEX
  5
3C1
330
394
100
AcDbEntity
  8
Make2D$可见线$普通线
100
AcDbVertex
100
AcDb2dVertex
 10
617.6807035302343
 20
1047.198811144589
 30
0.0
  0
VERTEX
  5
3C2
330
394
100
AcDbEntity
  8
Make2D$可见线$普通线
100
AcDbVertex
100
AcDb2dVertex
 10
617.4339504364077
 20
1047.217041516058
 30
0.0
  0
VERTEX
  5
3C3
330
394
100
AcDbEntity
  8
Make2D$可见线$普通线
100
AcDbVertex
100
AcDb2dVertex
 10
617.3519690442868
 20
1047.226385854259
 30
0.0
  0
VERTEX
  5
3C4
330
394
100
AcDbEntity
  8
Make2D$可见线$普通线
100
AcDbVertex
100
AcDb2dVertex
 10
617.3314570695
 20
1047.229205229877
 30
0.0
  0
VERTEX
  5
3C5
330
394
100
AcDbEntity
  8
Make2D$可见线$普通线
100
AcDbVertex
100
AcDb2dVertex
 10
617.3110272427257
 20
1047.232431538154
 30
0.0
  0
VERTEX
  5
3C6
330
394
100
AcDbEntity
  8
Make2D$可见线$普通线
100
AcDbVertex
100
AcDb2dVertex
 10
617.3008642108043
 20
1047.234264919519
 30
0.0
  0
VERTEX
  5
3C7
330
394
100
AcDbEntity
  8
Make2D$可见线$普通线
100
AcDbVertex
100
AcDb2dVertex
 10
617.2907470070395
 20
1047.236281187023
 30
0.0
  0
VERTEX
  5
3C8
330
394
100
AcDbEntity
  8
Make2D$可见线$普通线
100
AcDbVertex
100
AcDb2dVertex
 10
617.2806840618152
 20
1047.238507391658
 30
0.0
  0
VERTEX
  5
3C9
330
394
100
AcDbEntity
  8
Make2D$可见线$普通线
100
AcDbVertex
100
AcDb2dVertex
 10
617.2706838055165
 20
1047.240970584417
 30
0.0
  0
VERTEX
  5
3CA
330
394
100
AcDbEntity
  8
Make2D$可见线$普通线
100
AcDbVertex
100
AcDb2dVertex
 10
617.2656874820775
 20
1047.242335626465
 30
0.0
  0
VERTEX
  5
3CB
330
394
100
AcDbEntity
  8
Make2D$可见线$普通线
100
AcDbVertex
100
AcDb2dVertex
 10
617.2632036826185
 20
1047.243098462656
 30
0.0
  0
VERTEX
  5
3CC
330
394
100
AcDbEntity
  8
Make2D$可见线$普通线
100
AcDbVertex
100
AcDb2dVertex
 10
617.2619667076888
 20
1047.243509636917
 30
0.0
  0
VERTEX
  5
3CD
330
394
100
AcDbEntity
  8
Make2D$可见线$普通线
100
AcDbVertex
100
AcDb2dVertex
 10
617.2607335242387
 20
1047.243944335243
 30
0.0
  0
VERTEX
  5
3CE
330
394
100
AcDbEntity
  8
Make2D$可见线$普通线
100
AcDbVertex
100
AcDb2dVertex
 10
617.2595045134783
 20
1047.244405322596
 30
0.0
  0
VERTEX
  5
3CF
330
394
100
AcDbEntity
  8
Make2D$可见线$普通线
100
AcDbVertex
100
AcDb2dVertex
 10
617.2582800566174
 20
1047.244895363941
 30
0.0
  0
VERTEX
  5
3D0
330
394
100
AcDbEntity
  8
Make2D$可见线$普通线
100
AcDbVertex
100
AcDb2dVertex
 10
617.2570605348658
 20
1047.245417224243
 30
0.0
  0
VERTEX
  5
3D1
330
394
100
AcDbEntity
  8
Make2D$可见线$普通线
100
AcDbVertex
100
AcDb2dVertex
 10
617.2558463294336
 20
1047.245973668466
 30
0.0
  0
VERTEX
  5
3D2
330
394
100
AcDbEntity
  8
Make2D$可见线$普通线
100
AcDbVertex
100
AcDb2dVertex
 10
617.2546378215304
 20
1047.246567461573
 30
0.0
  0
VERTEX
  5
3D3
330
394
100
AcDbEntity
  8
Make2D$可见线$普通线
100
AcDbVertex
100
AcDb2dVertex
 10
617.2534353923663
 20
1047.247201368531
 30
0.0
  0
VERTEX
  5
3D4
330
394
100
AcDbEntity
  8
Make2D$可见线$普通线
100
AcDbVertex
100
AcDb2dVertex
 10
617.2522394231512
 20
1047.247878154302
 30
0.0
  0
VERTEX
  5
3D5
330
394
100
AcDbEntity
  8
Make2D$可见线$普通线
100
AcDbVertex
100
AcDb2dVertex
 10
617.251050295095
 20
1047.24860058385
 30
0.0
  0
VERTEX
  5
3D6
330
394
100
AcDbEntity
  8
Make2D$可见线$普通线
100
AcDbVertex
100
AcDb2dVertex
 10
617.2504173634236
 20
1047.24900687307
 30
0.0
  0
VERTEX
  5
3D7
330
394
100
AcDbEntity
  8
Make2D$可见线$普通线
100
AcDbVertex
100
AcDb2dVertex
 10
617.2497911073233
 20
1047.249426236391
 30
0.0
  0
VERTEX
  5
3D8
330
394
100
AcDbEntity
  8
Make2D$可见线$普通线
100
AcDbVertex
100
AcDb2dVertex
 10
617.249176132216
 20
1047.249857872511
 30
0.0
  0
VERTEX
  5
3D9
330
394
100
AcDbEntity
  8
Make2D$可见线$普通线
100
AcDbVertex
100
AcDb2dVertex
 10
617.2485770435239
 20
1047.250300980123
 30
0.0
  0
VERTEX
  5
3DA
330
394
100
AcDbEntity
  8
Make2D$可见线$普通线
100
AcDbVertex
100
AcDb2dVertex
 10
617.247998446669
 20
1047.250754757924
 30
0.0
  0
VERTEX
  5
3DB
330
394
100
AcDbEntity
  8
Make2D$可见线$普通线
100
AcDbVertex
100
AcDb2dVertex
 10
617.2474449470733
 20
1047.251218404608
 30
0.0
  0
VERTEX
  5
3DC
330
394
100
AcDbEntity
  8
Make2D$可见线$普通线
100
AcDbVertex
100
AcDb2dVertex
 10
617.247179047942
 20
1047.251453678374
 30
0.0
  0
VERTEX
  5
3DD
330
394
100
AcDbEntity
  8
Make2D$可见线$普通线
100
AcDbVertex
100
AcDb2dVertex
 10
617.246921150159
 20
1047.251691118872
 30
0.0
  0
VERTEX
  5
3DE
330
394
100
AcDbEntity
  8
Make2D$可见线$普通线
100
AcDbVertex
100
AcDb2dVertex
 10
617.2466718294017
 20
1047.251930625938
 30
0.0
  0
VERTEX
  5
3DF
330
394
100
AcDbEntity
  8
Make2D$可见线$普通线
100
AcDbVertex
100
AcDb2dVertex
 10
617.246431661348
 20
1047.25217209941
 30
0.0
  0
VERTEX
  5
3E0
330
394
100
AcDbEntity
  8
Make2D$可见线$普通线
100
AcDbVertex
100
AcDb2dVertex
 10
617.2462012216756
 20
1047.252415439124
 30
0.0
  0
VERTEX
  5
3E1
330
394
100
AcDbEntity
  8
Make2D$可见线$普通线
100
AcDbVertex
100
AcDb2dVertex
 10
617.2459810860626
 20
1047.252660544918
 30
0.0
  0
VERTEX
  5
3E2
330
394
100
AcDbEntity
  8
Make2D$可见线$普通线
100
AcDbVertex
100
AcDb2dVertex
 10
617.2457718301862
 20
1047.252907316628
 30
0.0
  0
VERTEX
  5
3E3
330
394
100
AcDbEntity
  8
Make2D$可见线$普通线
100
AcDbVertex
100
AcDb2dVertex
 10
617.2455740297246
 20
1047.253155654091
 30
0.0
  0
VERTEX
  5
3E4
330
394
100
AcDbEntity
  8
Make2D$可见线$普通线
100
AcDbVertex
100
AcDb2dVertex
 10
617.2453882603553
 20
1047.253405457145
 30
0.0
  0
VERTEX
  5
3E5
330
394
100
AcDbEntity
  8
Make2D$可见线$普通线
100
AcDbVertex
100
AcDb2dVertex
 10
617.2453000672297
 20
1047.253530876967
 30
0.0
  0
VERTEX
  5
3E6
330
394
100
AcDbEntity
  8
Make2D$可见线$普通线
100
AcDbVertex
100
AcDb2dVertex
 10
617.2452150977562
 20
1047.253656625625
 30
0.0
  0
VERTEX
  5
3E7
330
394
100
AcDbEntity
  8
Make2D$可见线$普通线
100
AcDbVertex
100
AcDb2dVertex
 10
617.2451334238947
 20
1047.2537826906
 30
0.0
  0
VERTEX
  5
3E8
330
394
100
AcDbEntity
  8
Make2D$可见线$普通线
100
AcDbVertex
100
AcDb2dVertex
 10
617.245055117605
 20
1047.25390905937
 30
0.0
  0
VERTEX
  5
3E9
330
394
100
AcDbEntity
  8
Make2D$可见线$普通线
100
AcDbVertex
100
AcDb2dVertex
 10
617.2449802508467
 20
1047.254035719415
 30
0.0
  0
VERTEX
  5
3EA
330
394
100
AcDbEntity
  8
Make2D$可见线$普通线
100
AcDbVertex
100
AcDb2dVertex
 10
617.2449088955796
 20
1047.254162658215
 30
0.0
  0
VERTEX
  5
3EB
330
394
100
AcDbEntity
  8
Make2D$可见线$普通线
100
AcDbVertex
100
AcDb2dVertex
 10
617.2448411237632
 20
1047.254289863249
 30
0.0
  0
VERTEX
  5
3EC
330
394
100
AcDbEntity
  8
Make2D$可见线$普通线
100
AcDbVertex
100
AcDb2dVertex
 10
617.2447770073575
 20
1047.254417321998
 30
0.0
  0
VERTEX
  5
3ED
330
394
100
AcDbEntity
  8
Make2D$可见线$普通线
100
AcDbVertex
100
AcDb2dVertex
 10
617.244716618322
 20
1047.25454502194
 30
0.0
  0
VERTEX
  5
3EE
330
394
100
AcDbEntity
  8
Make2D$可见线$普通线
100
AcDbVertex
100
AcDb2dVertex
 10
617.2446600286166
 20
1047.254672950556
 30
0.0
  0
VERTEX
  5
3EF
330
394
100
AcDbEntity
  8
Make2D$可见线$普通线
100
AcDbVertex
100
AcDb2dVertex
 10
617.2446073102009
 20
1047.254801095324
 30
0.0
  0
VERTEX
  5
3F0
330
394
100
AcDbEntity
  8
Make2D$可见线$普通线
100
AcDbVertex
100
AcDb2dVertex
 10
617.2445585350347
 20
1047.254929443725
 30
0.0
  0
VERTEX
  5
3F1
330
394
100
AcDbEntity
  8
Make2D$可见线$普通线
100
AcDbVertex
100
AcDb2dVertex
 10
617.2445137750776
 20
1047.255057983238
 30
0.0
  0
VERTEX
  5
3F2
330
394
100
AcDbEntity
  8
Make2D$可见线$普通线
100
AcDbVertex
100
AcDb2dVertex
 10
617.2444731022895
 20
1047.255186701343
 30
0.0
  0
VERTEX
  5
3F3
330
394
100
AcDbEntity
  8
Make2D$可见线$普通线
100
AcDbVertex
100
AcDb2dVertex
 10
617.2444365886299
 20
1047.255315585519
 30
0.0
  0
VERTEX
  5
3F4
330
394
100
AcDbEntity
  8
Make2D$可见线$普通线
100
AcDbVertex
100
AcDb2dVertex
 10
617.2444043060586
 20
1047.255444623247
 30
0.0
  0
VERTEX
  5
3F5
330
394
100
AcDbEntity
  8
Make2D$可见线$普通线
100
AcDbVertex
100
AcDb2dVertex
 10
617.2443763265354
 20
1047.255573802004
 30
0.0
  0
VERTEX
  5
3F6
330
394
100
AcDbEntity
  8
Make2D$可见线$普通线
100
AcDbVertex
100
AcDb2dVertex
 10
617.24435272202
 20
1047.255703109273
 30
0.0
  0
VERTEX
  5
3F7
330
394
100
AcDbEntity
  8
Make2D$可见线$普通线
100
AcDbVertex
100
AcDb2dVertex
 10
617.2443335644723
 20
1047.255832532531
 30
0.0
  0
VERTEX
  5
3F8
330
394
100
AcDbEntity
  8
Make2D$可见线$普通线
100
AcDbVertex
100
AcDb2dVertex
 10
617.2443189258515
 20
1047.255962059258
 30
0.0
  0
VERTEX
  5
3F9
330
394
100
AcDbEntity
  8
Make2D$可见线$普通线
100
AcDbVertex
100
AcDb2dVertex
 10
617.2443133236263
 20
1047.25602685751
 30
0.0
  0
VERTEX
  5
3FA
330
394
100
AcDbEntity
  8
Make2D$可见线$普通线
100
AcDbVertex
100
AcDb2dVertex
 10
617.2443088781179
 20
1047.256091676934
 30
0.0
  0
VERTEX
  5
3FB
330
394
100
AcDbEntity
  8
Make2D$可见线$普通线
100
AcDbVertex
100
AcDb2dVertex
 10
617.244305598321
 20
1047.256156515966
 30
0.0
  0
VERTEX
  5
3FC
330
394
100
AcDbEntity
  8
Make2D$可见线$普通线
100
AcDbVertex
100
AcDb2dVertex
 10
617.2443034932307
 20
1047.256221373039
 30
0.0
  0
VERTEX
  5
3FD
330
394
100
AcDbEntity
  8
Make2D$可见线$普通线
100
AcDbVertex
100
AcDb2dVertex
 10
617.2443025520968
 20
1047.256289848817
 30
0.0
  0
VERTEX
  5
3FE
330
394
100
AcDbEntity
  8
Make2D$可见线$普通线
100
AcDbVertex
100
AcDb2dVertex
 10
617.2443029196011
 20
1047.256358341197
 30
0.0
  0
VERTEX
  5
3FF
330
394
100
AcDbEntity
  8
Make2D$可见线$普通线
100
AcDbVertex
100
AcDb2dVertex
 10
617.2443045855946
 20
1047.256426848424
 30
0.0
  0
VERTEX
  5
400
330
394
100
AcDbEntity
  8
Make2D$可见线$普通线
100
AcDbVertex
100
AcDb2dVertex
 10
617.244307539928
 20
1047.256495368742
 30
0.0
  0
VERTEX
  5
401
330
394
100
AcDbEntity
  8
Make2D$可见线$普通线
100
AcDbVertex
100
AcDb2dVertex
 10
617.2443117724517
 20
1047.256563900397
 30
0.0
  0
VERTEX
  5
402
330
394
100
AcDbEntity
  8
Make2D$可见线$普通线
100
AcDbVertex
100
AcDb2dVertex
 10
617.2443172730163
 20
1047.256632441633
 30
0.0
  0
VERTEX
  5
403
330
394
100
AcDbEntity
  8
Make2D$可见线$普通线
100
AcDbVertex
100
AcDb2dVertex
 10
617.2443240314728
 20
1047.256700990694
 30
0.0
  0
VERTEX
  5
404
330
394
100
AcDbEntity
  8
Make2D$可见线$普通线
100
AcDbVertex
100
AcDb2dVertex
 10
617.2443320376717
 20
1047.256769545826
 30
0.0
  0
VERTEX
  5
405
330
394
100
AcDbEntity
  8
Make2D$可见线$普通线
100
AcDbVertex
100
AcDb2dVertex
 10
617.2443412814636
 20
1047.256838105273
 30
0.0
  0
VERTEX
  5
406
330
394
100
AcDbEntity
  8
Make2D$可见线$普通线
100
AcDbVertex
100
AcDb2dVertex
 10
617.244351752699
 20
1047.25690666728
 30
0.0
  0
VERTEX
  5
407
330
394
100
AcDbEntity
  8
Make2D$可见线$普通线
100
AcDbVertex
100
AcDb2dVertex
 10
617.2443763369031
 20
1047.257043791952
 30
0.0
  0
VERTEX
  5
408
330
394
100
AcDbEntity
  8
Make2D$可见线$普通线
100
AcDbVertex
100
AcDb2dVertex
 10
617.2444057090895
 20
1047.2571809058
 30
0.0
  0
VERTEX
  5
409
330
394
100
AcDbEntity
  8
Make2D$可见线$普通线
100
AcDbVertex
100
AcDb2dVertex
 10
617.2444397880633
 20
1047.257317994781
 30
0.0
  0
VERTEX
  5
40A
330
394
100
AcDbEntity
  8
Make2D$可见线$普通线
100
AcDbVertex
100
AcDb2dVertex
 10
617.2444784926295
 20
1047.257455044853
 30
0.0
  0
VERTEX
  5
40B
330
394
100
AcDbEntity
  8
Make2D$可见线$普通线
100
AcDbVertex
100
AcDb2dVertex
 10
617.2445217415931
 20
1047.257592041974
 30
0.0
  0
VERTEX
  5
40C
330
394
100
AcDbEntity
  8
Make2D$可见线$普通线
100
AcDbVertex
100
AcDb2dVertex
 10
617.2445694537596
 20
1047.257728972101
 30
0.0
  0
VERTEX
  5
40D
330
394
100
AcDbEntity
  8
Make2D$可见线$普通线
100
AcDbVertex
100
AcDb2dVertex
 10
617.2446215479337
 20
1047.257865821192
 30
0.0
  0
VERTEX
  5
40E
330
394
100
AcDbEntity
  8
Make2D$可见线$普通线
100
AcDbVertex
100
AcDb2dVertex
 10
617.2446779429208
 20
1047.258002575205
 30
0.0
  0
VERTEX
  5
40F
330
394
100
AcDbEntity
  8
Make2D$可见线$普通线
100
AcDbVertex
100
AcDb2dVertex
 10
617.2447385575258
 20
1047.258139220096
 30
0.0
  0
VERTEX
  5
410
330
394
100
AcDbEntity
  8
Make2D$可见线$普通线
100
AcDbVertex
100
AcDb2dVertex
 10
617.2448033105541
 20
1047.258275741825
 30
0.0
  0
VERTEX
  5
411
330
394
100
AcDbEntity
  8
Make2D$可见线$普通线
100
AcDbVertex
100
AcDb2dVertex
 10
617.2448721208108
 20
1047.258412126349
 30
0.0
  0
VERTEX
  5
412
330
394
100
AcDbEntity
  8
Make2D$可见线$普通线
100
AcDbVertex
100
AcDb2dVertex
 10
617.244944907101
 20
1047.258548359624
 30
0.0
  0
VERTEX
  5
413
330
394
100
AcDbEntity
  8
Make2D$可见线$普通线
100
AcDbVertex
100
AcDb2dVertex
 10
617.2450215882294
 20
1047.25868442761
 30
0.0
  0
VERTEX
  5
414
330
394
100
AcDbEntity
  8
Make2D$可见线$普通线
100
AcDbVertex
100
AcDb2dVertex
 10
617.2451020830017
 20
1047.258820316262
 30
0.0
  0
VERTEX
  5
415
330
394
100
AcDbEntity
  8
Make2D$可见线$普通线
100
AcDbVertex
100
AcDb2dVertex
 10
617.2451863102226
 20
1047.25895601154
 30
0.0
  0
VERTEX
  5
416
330
394
100
AcDbEntity
  8
Make2D$可见线$普通线
100
AcDbVertex
100
AcDb2dVertex
 10
617.2452741886975
 20
1047.259091499401
 30
0.0
  0
VERTEX
  5
417
330
394
100
AcDbEntity
  8
Make2D$可见线$普通线
100
AcDbVertex
100
AcDb2dVertex
 10
617.2453656372315
 20
1047.259226765803
 30
0.0
  0
VERTEX
  5
418
330
394
100
AcDbEntity
  8
Make2D$可见线$普通线
100
AcDbVertex
100
AcDb2dVertex
 10
617.2454605746298
 20
1047.259361796702
 30
0.0
  0
VERTEX
  5
419
330
394
100
AcDbEntity
  8
Make2D$可见线$普通线
100
AcDbVertex
100
AcDb2dVertex
 10
617.2455589196974
 20
1047.259496578057
 30
0.0
  0
VERTEX
  5
41A
330
394
100
AcDbEntity
  8
Make2D$可见线$普通线
100
AcDbVertex
100
AcDb2dVertex
 10
617.2457655080609
 20
1047.259765335965
 30
0.0
  0
VERTEX
  5
41B
330
394
100
AcDbEntity
  8
Make2D$可见线$普通线
100
AcDbVertex
100
AcDb2dVertex
 10
617.245984752763
 20
1047.260032927187
 30
0.0
  0
VERTEX
  5
41C
330
394
100
AcDbEntity
  8
Make2D$可见线$普通线
100
AcDbVertex
100
AcDb2dVertex
 10
617.2462160042448
 20
1047.260299239386
 30
0.0
  0
VERTEX
  5
41D
330
394
100
AcDbEntity
  8
Make2D$可见线$普通线
100
AcDbVertex
100
AcDb2dVertex
 10
617.2464586129475
 20
1047.260564160221
 30
0.0
  0
VERTEX
  5
41E
330
394
100
AcDbEntity
  8
Make2D$可见线$普通线
100
AcDbVertex
100
AcDb2dVertex
 10
617.246711929312
 20
1047.260827577354
 30
0.0
  0
VERTEX
  5
41F
330
394
100
AcDbEntity
  8
Make2D$可见线$普通线
100
AcDbVertex
100
AcDb2dVertex
 10
617.2469753037792
 20
1047.261089378447
 30
0.0
  0
VERTEX
  5
420
330
394
100
AcDbEntity
  8
Make2D$可见线$普通线
100
AcDbVertex
100
AcDb2dVertex
 10
617.2472480867901
 20
1047.26134945116
 30
0.0
  0
VERTEX
  5
421
330
394
100
AcDbEntity
  8
Make2D$可见线$普通线
100
AcDbVertex
100
AcDb2dVertex
 10
617.2475296287859
 20
1047.261607683154
 30
0.0
  0
VERTEX
  5
422
330
394
100
AcDbEntity
  8
Make2D$可见线$普通线
100
AcDbVertex
100
AcDb2dVertex
 10
617.2481163914957
 20
1047.262118175633
 30
0.0
  0
VERTEX
  5
423
330
394
100
AcDbEntity
  8
Make2D$可见线$普通线
100
AcDbVertex
100
AcDb2dVertex
 10
617.2487303954367
 20
1047.262619957172
 30
0.0
  0
VERTEX
  5
424
330
394
100
AcDbEntity
  8
Make2D$可见线$普通线
100
AcDbVertex
100
AcDb2dVertex
 10
617.249366444137
 20
1047.263112129061
 30
0.0
  0
VERTEX
  5
425
330
394
100
AcDbEntity
  8
Make2D$可见线$普通线
100
AcDbVertex
100
AcDb2dVertex
 10
617.2500193411247
 20
1047.263593792589
 30
0.0
  0
VERTEX
  5
426
330
394
100
AcDbEntity
  8
Make2D$可见线$普通线
100
AcDbVertex
100
AcDb2dVertex
 10
617.2513548940741
 20
1047.26452199972
 30
0.0
  0
VERTEX
  5
427
330
394
100
AcDbEntity
  8
Make2D$可见线$普通线
100
AcDbVertex
100
AcDb2dVertex
 10
617.2522178924921
 20
1047.265089965278
 30
0.0
  0
VERTEX
  5
428
330
394
100
AcDbEntity
  8
Make2D$可见线$普通线
100
AcDbVertex
100
AcDb2dVertex
 10
617.2530829126806
 20
1047.265636881219
 30
0.0
  0
VERTEX
  5
429
330
394
100
AcDbEntity
  8
Make2D$可见线$普通线
100
AcDbVertex
100
AcDb2dVertex
 10
617.2539499082525
 20
1047.266163391143
 30
0.0
  0
VERTEX
  5
42A
330
394
100
AcDbEntity
  8
Make2D$可见线$普通线
100
AcDbVertex
100
AcDb2dVertex
 10
617.2548188328204
 20
1047.266670138651
 30
0.0
  0
VERTEX
  5
42B
330
394
100
AcDbEntity
  8
Make2D$可见线$普通线
100
AcDbVertex
100
AcDb2dVertex
 10
617.256562283396
 20
1047.267626920821
 30
0.0
  0
VERTEX
  5
42C
330
394
100
AcDbEntity
  8
Make2D$可见线$普通线
100
AcDbVertex
100
AcDb2dVertex
 10
617.2583128933098
 20
1047.268512376535
 30
0.0
  0
VERTEX
  5
42D
330
394
100
AcDbEntity
  8
Make2D$可见线$普通线
100
AcDbVertex
100
AcDb2dVertex
 10
617.2600702914647
 20
1047.269331654598
 30
0.0
  0
VERTEX
  5
42E
330
394
100
AcDbEntity
  8
Make2D$可见线$普通线
100
AcDbVertex
100
AcDb2dVertex
 10
617.261834106763
 20
1047.270089903815
 30
0.0
  0
VERTEX
  5
42F
330
394
100
AcDbEntity
  8
Make2D$可见线$普通线
100
AcDbVertex
100
AcDb2dVertex
 10
617.2636039681074
 20
1047.27079227299
 30
0.0
  0
VERTEX
  5
430
330
394
100
AcDbEntity
  8
Make2D$可见线$普通线
100
AcDbVertex
100
AcDb2dVertex
 10
617.2653795044005
 20
1047.27144391093
 30
0.0
  0
VERTEX
  5
431
330
394
100
AcDbEntity
  8
Make2D$可见线$普通线
100
AcDbVertex
100
AcDb2dVertex
 10
617.2671603445447
 20
1047.272049966439
 30
0.0
  0
VERTEX
  5
432
330
394
100
AcDbEntity
  8
Make2D$可见线$普通线
100
AcDbVertex
100
AcDb2dVertex
 10
617.2689461174426
 20
1047.272615588322
 30
0.0
  0
VERTEX
  5
433
330
394
100
AcDbEntity
  8
Make2D$可见线$普通线
100
AcDbVertex
100
AcDb2dVertex
 10
617.2725309771099
 20
1047.273646126432
 30
0.0
  0
VERTEX
  5
434
330
394
100
AcDbEntity
  8
Make2D$可见线$普通线
100
AcDbVertex
100
AcDb2dVertex
 10
617.2797435612015
 20
1047.27544854657
 30
0.0
  0
VERTEX
  5
435
330
394
100
AcDbEntity
  8
Make2D$可见线$普通线
100
AcDbVertex
100
AcDb2dVertex
 10
617.2997543977582
 20
1047.279901602215
 30
0.0
  0
VERTEX
  5
436
330
394
100
AcDbEntity
  8
Make2D$可见线$普通线
100
AcDbVertex
100
AcDb2dVertex
 10
617.3199812710816
 20
1047.283902946595
 30
0.0
  0
VERTEX
  5
437
330
394
100
AcDbEntity
  8
Make2D$可见线$普通线
100
AcDbVertex
100
AcDb2dVertex
 10
617.3608189244061
 20
1047.290865948842
 30
0.0
  0
VERTEX
  5
438
330
394
100
AcDbEntity
  8
Make2D$可见线$普通线
100
AcDbVertex
100
AcDb2dVertex
 10
617.4405490217637
 20
1047.301887369272
 30
0.0
  0
VERTEX
  5
439
330
394
100
AcDbEntity
  8
Make2D$可见线$普通线
100
AcDbVertex
100
AcDb2dVertex
 10
617.6807035302343
 20
1047.324741252264
 30
0.0
 42
-0.007839643834966
  0
VERTEX
  5
43A
330
394
100
AcDbEntity
  8
Make2D$可见线$普通线
100
AcDbVertex
100
AcDb2dVertex
 10
622.8272577812961
 20
1047.544578016504
 30
0.0
  0
VERTEX
  5
43B
330
394
100
AcDbEntity
  8
Make2D$可见线$普通线
100
AcDbVertex
100
AcDb2dVertex
 10
624.4995690477383
 20
1047.598916666016
 30
0.0
  0
VERTEX
  5
43C
330
394
100
AcDbEntity
  8
Make2D$可见线$普通线
100
AcDbVertex
100
AcDb2dVertex
 10
624.7253265613309
 20
1047.606389300435
 30
0.0
  0
VERTEX
  5
43D
330
394
100
AcDbEntity
  8
Make2D$可见线$普通线
100
AcDbVertex
100
AcDb2dVertex
 10
626.1436037236776
 20
1047.655468183889
 30
0.0
  0
SEQEND
  5
43E
330
394
100
AcDbEntity
  8
Make2D$可见线$普通线
  0
POLYLINE
  5
43F
330
1F
100
AcDbEntity
  8
Make2D$可见线$普通线
100
AcDb2dPolyline
 66
     1
 10
0.0
 20
0.0
 30
0.0
  0
VERTEX
  5
440
330
43F
100
AcDbEntity
  8
Make2D$可见线$普通线
100
AcDbVertex
100
AcDb2dVertex
 10
598.1807064562171
 20
1073.532577058933
 30
0.0
  0
VERTEX
  5
441
330
43F
100
AcDbEntity
  8
Make2D$可见线$普通线
100
AcDbVertex
100
AcDb2dVertex
 10
598.180706456217
 20
1109.532577058934
 30
0.0
 42
-0.4142135623731161
  0
VERTEX
  5
442
330
43F
100
AcDbEntity
  8
Make2D$可见线$普通线
100
AcDbVertex
100
AcDb2dVertex
 10
599.6807062932869
 20
1111.032577058934
 30
0.0
  0
VERTEX
  5
443
330
43F
100
AcDbEntity
  8
Make2D$可见线$普通线
100
AcDbVertex
100
AcDb2dVertex
 10
635.68589456361
 20
1111.032594997857
 30
0.0
 42
-0.4125929572571579
  0
VERTEX
  5
444
330
43F
100
AcDbEntity
  8
Make2D$可见线$普通线
100
AcDbVertex
100
AcDb2dVertex
 10
637.1807243951403
 20
1109.537765329257
 30
0.0
  0
VERTEX
  5
445
330
43F
100
AcDbEntity
  8
Make2D$可见线$普通线
100
AcDbVertex
100
AcDb2dVertex
 10
637.1807243951404
 20
1073.52738878861
 30
0.0
 42
-0.412592957257239
  0
VERTEX
  5
446
330
43F
100
AcDbEntity
  8
Make2D$可见线$普通线
100
AcDbVertex
100
AcDb2dVertex
 10
635.68589456361
 20
1072.03255912001
 30
0.0
  0
VERTEX
  5
447
330
43F
100
AcDbEntity
  8
Make2D$可见线$普通线
100
AcDbVertex
100
AcDb2dVertex
 10
599.6807062932862
 20
1072.032577058934
 30
0.0
 42
-0.4142134636170763
  0
VERTEX
  5
448
330
43F
100
AcDbEntity
  8
Make2D$可见线$普通线
100
AcDbVertex
100
AcDb2dVertex
 10
598.1807064562173
 20
1073.532577058933
 30
0.0
  0
SEQEND
  5
449
330
43F
100
AcDbEntity
  8
Make2D$可见线$普通线
  0
POLYLINE
  5
44B
330
1F
100
AcDbEntity
  8
E9127
100
AcDb2dPolyline
 66
     1
 10
0.0
 20
0.0
 30
0.0
  0
VERTEX
  5
44C
330
44B
100
AcDbEntity
  8
E9127
100
AcDbVertex
100
AcDb2dVertex
 10
640.680706456217
 20
1073.532577058933
 30
0.0
  0
VERTEX
  5
44D
330
44B
100
AcDbEntity
  8
E9127
100
AcDbVertex
100
AcDb2dVertex
 10
640.675823643717
 20
1073.224959871433
 30
0.0
  0
VERTEX
  5
44E
330
44B
100
AcDbEntity
  8
E9127
100
AcDbVertex
100
AcDb2dVertex
 10
640.661175206217
 20
1072.927108308933
 30
0.0
  0
VERTEX
  5
44F
330
44B
100
AcDbEntity
  8
E9127
100
AcDbVertex
100
AcDb2dVertex
 10
640.650188878092
 20
1072.781844637058
 30
0.0
  0
VERTEX
  5
450
330
44B
100
AcDbEntity
  8
E9127
100
AcDbVertex
100
AcDb2dVertex
 10
640.636761143717
 20
1072.639022371433
 30
0.0
  0
VERTEX
  5
451
330
44B
100
AcDbEntity
  8
E9127
100
AcDbVertex
100
AcDb2dVertex
 10
640.620892003092
 20
1072.498641512058
 30
0.0
  0
VERTEX
  5
452
330
44B
100
AcDbEntity
  8
E9127
100
AcDbVertex
100
AcDb2dVertex
 10
640.602581456217
 20
1072.360702058933
 30
0.0
  0
VERTEX
  5
453
330
44B
100
AcDbEntity
  8
E9127
100
AcDbVertex
100
AcDb2dVertex
 10
640.581829503092
 20
1072.225204012058
 30
0.0
  0
VERTEX
  5
454
330
44B
100
AcDbEntity
  8
E9127
100
AcDbVertex
100
AcDb2dVertex
 10
640.558636143717
 20
1072.092147371433
 30
0.0
  0
VERTEX
  5
455
330
44B
100
AcDbEntity
  8
E9127
100
AcDbVertex
100
AcDb2dVertex
 10
640.533001378092
 20
1071.961532137058
 30
0.0
  0
VERTEX
  5
456
330
44B
100
AcDbEntity
  8
E9127
100
AcDbVertex
100
AcDb2dVertex
 10
640.504925206217
 20
1071.833358308933
 30
0.0
  0
VERTEX
  5
457
330
44B
100
AcDbEntity
  8
E9127
100
AcDbVertex
100
AcDb2dVertex
 10
640.474407628092
 20
1071.707625887058
 30
0.0
  0
VERTEX
  5
458
330
44B
100
AcDbEntity
  8
E9127
100
AcDbVertex
100
AcDb2dVertex
 10
640.441448643717
 20
1071.584334871433
 30
0.0
  0
VERTEX
  5
459
330
44B
100
AcDbEntity
  8
E9127
100
AcDbVertex
100
AcDb2dVertex
 10
640.406048253092
 20
1071.463485262058
 30
0.0
  0
VERTEX
  5
45A
330
44B
100
AcDbEntity
  8
E9127
100
AcDbVertex
100
AcDb2dVertex
 10
640.368206456217
 20
1071.345077058933
 30
0.0
  0
VERTEX
  5
45B
330
44B
100
AcDbEntity
  8
E9127
100
AcDbVertex
100
AcDb2dVertex
 10
640.327923253092
 20
1071.229110262058
 30
0.0
  0
VERTEX
  5
45C
330
44B
100
AcDbEntity
  8
E9127
100
AcDbVertex
100
AcDb2dVertex
 10
640.285198643717
 20
1071.115584871433
 30
0.0
  0
VERTEX
  5
45D
330
44B
100
AcDbEntity
  8
E9127
100
AcDbVertex
100
AcDb2dVertex
 10
640.240032628092
 20
1071.004500887058
 30
0.0
  0
VERTEX
  5
45E
330
44B
100
AcDbEntity
  8
E9127
100
AcDbVertex
100
AcDb2dVertex
 10
640.192425206217
 20
1070.895858308933
 30
0.0
  0
VERTEX
  5
45F
330
44B
100
AcDbEntity
  8
E9127
100
AcDbVertex
100
AcDb2dVertex
 10
640.142376378092
 20
1070.789657137058
 30
0.0
  0
VERTEX
  5
460
330
44B
100
AcDbEntity
  8
E9127
100
AcDbVertex
100
AcDb2dVertex
 10
640.089886143717
 20
1070.685897371433
 30
0.0
  0
VERTEX
  5
461
330
44B
100
AcDbEntity
  8
E9127
100
AcDbVertex
100
AcDb2dVertex
 10
640.034954503092
 20
1070.584579012058
 30
0.0
  0
VERTEX
  5
462
330
44B
100
AcDbEntity
  8
E9127
100
AcDbVertex
100
AcDb2dVertex
 10
639.977581456217
 20
1070.485702058933
 30
0.0
  0
VERTEX
  5
463
330
44B
100
AcDbEntity
  8
E9127
100
AcDbVertex
100
AcDb2dVertex
 10
639.917767003092
 20
1070.389266512058
 30
0.0
  0
VERTEX
  5
464
330
44B
100
AcDbEntity
  8
E9127
100
AcDbVertex
100
AcDb2dVertex
 10
639.855511143717
 20
1070.295272371433
 30
0.0
  0
VERTEX
  5
465
330
44B
100
AcDbEntity
  8
E9127
100
AcDbVertex
100
AcDb2dVertex
 10
639.790813878092
 20
1070.203719637058
 30
0.0
  0
VERTEX
  5
466
330
44B
100
AcDbEntity
  8
E9127
100
AcDbVertex
100
AcDb2dVertex
 10
639.723675206217
 20
1070.114608308933
 30
0.0
  0
VERTEX
  5
467
330
44B
100
AcDbEntity
  8
E9127
100
AcDbVertex
100
AcDb2dVertex
 10
639.654095128092
 20
1070.027938387058
 30
0.0
  0
VERTEX
  5
468
330
44B
100
AcDbEntity
  8
E9127
100
AcDbVertex
100
AcDb2dVertex
 10
639.582073643717
 20
1069.943709871433
 30
0.0
  0
VERTEX
  5
469
330
44B
100
AcDbEntity
  8
E9127
100
AcDbVertex
100
AcDb2dVertex
 10
639.507610753092
 20
1069.861922762058
 30
0.0
  0
VERTEX
  5
46A
330
44B
100
AcDbEntity
  8
E9127
100
AcDbVertex
100
AcDb2dVertex
 10
639.430706456217
 20
1069.782577058933
 30
0.0
  0
VERTEX
  5
46B
330
44B
100
AcDbEntity
  8
E9127
100
AcDbVertex
100
AcDb2dVertex
 10
639.351360753092
 20
1069.705672762058
 30
0.0
  0
VERTEX
  5
46C
330
44B
100
AcDbEntity
  8
E9127
100
AcDbVertex
100
AcDb2dVertex
 10
639.269573643717
 20
1069.631209871433
 30
0.0
  0
VERTEX
  5
46D
330
44B
100
AcDbEntity
  8
E9127
100
AcDbVertex
100
AcDb2dVertex
 10
639.185345128092
 20
1069.559188387058
 30
0.0
  0
VERTEX
  5
46E
330
44B
100
AcDbEntity
  8
E9127
100
AcDbVertex
100
AcDb2dVertex
 10
639.098675206217
 20
1069.489608308933
 30
0.0
  0
VERTEX
  5
46F
330
44B
100
AcDbEntity
  8
E9127
100
AcDbVertex
100
AcDb2dVertex
 10
639.009563878092
 20
1069.422469637058
 30
0.0
  0
VERTEX
  5
470
330
44B
100
AcDbEntity
  8
E9127
100
AcDbVertex
100
AcDb2dVertex
 10
638.918011143717
 20
1069.357772371433
 30
0.0
  0
VERTEX
  5
471
330
44B
100
AcDbEntity
  8
E9127
100
AcDbVertex
100
AcDb2dVertex
 10
638.824017003092
 20
1069.295516512058
 30
0.0
  0
VERTEX
  5
472
330
44B
100
AcDbEntity
  8
E9127
100
AcDbVertex
100
AcDb2dVertex
 10
638.727581456217
 20
1069.235702058933
 30
0.0
  0
VERTEX
  5
473
330
44B
100
AcDbEntity
  8
E9127
100
AcDbVertex
100
AcDb2dVertex
 10
638.628704503092
 20
1069.178329012058
 30
0.0
  0
VERTEX
  5
474
330
44B
100
AcDbEntity
  8
E9127
100
AcDbVertex
100
AcDb2dVertex
 10
638.527386143717
 20
1069.123397371433
 30
0.0
  0
VERTEX
  5
475
330
44B
100
AcDbEntity
  8
E9127
100
AcDbVertex
100
AcDb2dVertex
 10
638.423626378092
 20
1069.070907137058
 30
0.0
  0
VERTEX
  5
476
330
44B
100
AcDbEntity
  8
E9127
100
AcDbVertex
100
AcDb2dVertex
 10
638.317425206217
 20
1069.020858308933
 30
0.0
  0
VERTEX
  5
477
330
44B
100
AcDbEntity
  8
E9127
100
AcDbVertex
100
AcDb2dVertex
 10
638.208782628092
 20
1068.973250887058
 30
0.0
  0
VERTEX
  5
478
330
44B
100
AcDbEntity
  8
E9127
100
AcDbVertex
100
AcDb2dVertex
 10
638.097698643717
 20
1068.928084871433
 30
0.0
  0
VERTEX
  5
479
330
44B
100
AcDbEntity
  8
E9127
100
AcDbVertex
100
AcDb2dVertex
 10
637.984173253092
 20
1068.885360262058
 30
0.0
  0
VERTEX
  5
47A
330
44B
100
AcDbEntity
  8
E9127
100
AcDbVertex
100
AcDb2dVertex
 10
637.868206456217
 20
1068.845077058933
 30
0.0
  0
VERTEX
  5
47B
330
44B
100
AcDbEntity
  8
E9127
100
AcDbVertex
100
AcDb2dVertex
 10
637.749798253092
 20
1068.807235262058
 30
0.0
  0
VERTEX
  5
47C
330
44B
100
AcDbEntity
  8
E9127
100
AcDbVertex
100
AcDb2dVertex
 10
637.628948643717
 20
1068.771834871433
 30
0.0
  0
VERTEX
  5
47D
330
44B
100
AcDbEntity
  8
E9127
100
AcDbVertex
100
AcDb2dVertex
 10
637.505657628092
 20
1068.738875887058
 30
0.0
  0
VERTEX
  5
47E
330
44B
100
AcDbEntity
  8
E9127
100
AcDbVertex
100
AcDb2dVertex
 10
637.379925206217
 20
1068.708358308933
 30
0.0
  0
VERTEX
  5
47F
330
44B
100
AcDbEntity
  8
E9127
100
AcDbVertex
100
AcDb2dVertex
 10
637.251751378092
 20
1068.680282137058
 30
0.0
  0
VERTEX
  5
480
330
44B
100
AcDbEntity
  8
E9127
100
AcDbVertex
100
AcDb2dVertex
 10
637.121136143717
 20
1068.654647371433
 30
0.0
  0
VERTEX
  5
481
330
44B
100
AcDbEntity
  8
E9127
100
AcDbVertex
100
AcDb2dVertex
 10
636.988079503092
 20
1068.631454012058
 30
0.0
  0
VERTEX
  5
482
330
44B
100
AcDbEntity
  8
E9127
100
AcDbVertex
100
AcDb2dVertex
 10
636.852581456217
 20
1068.610702058933
 30
0.0
  0
VERTEX
  5
483
330
44B
100
AcDbEntity
  8
E9127
100
AcDbVertex
100
AcDb2dVertex
 10
636.714642003092
 20
1068.592391512058
 30
0.0
  0
VERTEX
  5
484
330
44B
100
AcDbEntity
  8
E9127
100
AcDbVertex
100
AcDb2dVertex
 10
636.574261143717
 20
1068.576522371433
 30
0.0
  0
VERTEX
  5
485
330
44B
100
AcDbEntity
  8
E9127
100
AcDbVertex
100
AcDb2dVertex
 10
636.431438878092
 20
1068.563094637058
 30
0.0
  0
VERTEX
  5
486
330
44B
100
AcDbEntity
  8
E9127
100
AcDbVertex
100
AcDb2dVertex
 10
636.286175206217
 20
1068.552108308933
 30
0.0
  0
VERTEX
  5
487
330
44B
100
AcDbEntity
  8
E9127
100
AcDbVertex
100
AcDb2dVertex
 10
635.988323643717
 20
1068.537459871433
 30
0.0
  0
VERTEX
  5
488
330
44B
100
AcDbEntity
  8
E9127
100
AcDbVertex
100
AcDb2dVertex
 10
635.680706456217
 20
1068.532577058933
 30
0.0
  0
VERTEX
  5
489
330
44B
100
AcDbEntity
  8
E9127
100
AcDbVertex
100
AcDb2dVertex
 10
596.680706456217
 20
1068.532577058934
 30
0.0
 42
-0.4142135623730114
  0
VERTEX
  5
48A
330
44B
100
AcDbEntity
  8
E9127
100
AcDbVertex
100
AcDb2dVertex
 10
594.680706456217
 20
1070.532577058932
 30
0.0
  0
VERTEX
  5
48B
330
44B
100
AcDbEntity
  8
E9127
100
AcDbVertex
100
AcDb2dVertex
 10
594.6807064562169
 20
1112.532577058933
 30
0.0
 42
-0.4142135623730638
  0
VERTEX
  5
48C
330
44B
100
AcDbEntity
  8
E9127
100
AcDbVertex
100
AcDb2dVertex
 10
596.6807064562175
 20
1114.532577058934
 30
0.0
  0
VERTEX
  5
48D
330
44B
100
AcDbEntity
  8
E9127
100
AcDbVertex
100
AcDb2dVertex
 10
635.680706456217
 20
1114.532577058934
 30
0.0
  0
VERTEX
  5
48E
330
44B
100
AcDbEntity
  8
E9127
100
AcDbVertex
100
AcDb2dVertex
 10
635.988323643717
 20
1114.527694246434
 30
0.0
  0
VERTEX
  5
48F
330
44B
100
AcDbEntity
  8
E9127
100
AcDbVertex
100
AcDb2dVertex
 10
636.286175206217
 20
1114.513045808934
 30
0.0
  0
VERTEX
  5
490
330
44B
100
AcDbEntity
  8
E9127
100
AcDbVertex
100
AcDb2dVertex
 10
636.431438878092
 20
1114.502059480809
 30
0.0
  0
VERTEX
  5
491
330
44B
100
AcDbEntity
  8
E9127
100
AcDbVertex
100
AcDb2dVertex
 10
636.574261143717
 20
1114.488631746434
 30
0.0
  0
VERTEX
  5
492
330
44B
100
AcDbEntity
  8
E9127
100
AcDbVertex
100
AcDb2dVertex
 10
636.714642003092
 20
1114.472762605809
 30
0.0
  0
VERTEX
  5
493
330
44B
100
AcDbEntity
  8
E9127
100
AcDbVertex
100
AcDb2dVertex
 10
636.852581456217
 20
1114.454452058934
 30
0.0
  0
VERTEX
  5
494
330
44B
100
AcDbEntity
  8
E9127
100
AcDbVertex
100
AcDb2dVertex
 10
636.988079503092
 20
1114.433700105809
 30
0.0
  0
VERTEX
  5
495
330
44B
100
AcDbEntity
  8
E9127
100
AcDbVertex
100
AcDb2dVertex
 10
637.121136143717
 20
1114.410506746434
 30
0.0
  0
VERTEX
  5
496
330
44B
100
AcDbEntity
  8
E9127
100
AcDbVertex
100
AcDb2dVertex
 10
637.251751378092
 20
1114.384871980809
 30
0.0
  0
VERTEX
  5
497
330
44B
100
AcDbEntity
  8
E9127
100
AcDbVertex
100
AcDb2dVertex
 10
637.379925206217
 20
1114.356795808934
 30
0.0
  0
VERTEX
  5
498
330
44B
100
AcDbEntity
  8
E9127
100
AcDbVertex
100
AcDb2dVertex
 10
637.505657628092
 20
1114.326278230809
 30
0.0
  0
VERTEX
  5
499
330
44B
100
AcDbEntity
  8
E9127
100
AcDbVertex
100
AcDb2dVertex
 10
637.628948643717
 20
1114.293319246434
 30
0.0
  0
VERTEX
  5
49A
330
44B
100
AcDbEntity
  8
E9127
100
AcDbVertex
100
AcDb2dVertex
 10
637.749798253092
 20
1114.257918855809
 30
0.0
  0
VERTEX
  5
49B
330
44B
100
AcDbEntity
  8
E9127
100
AcDbVertex
100
AcDb2dVertex
 10
637.868206456217
 20
1114.220077058934
 30
0.0
  0
VERTEX
  5
49C
330
44B
100
AcDbEntity
  8
E9127
100
AcDbVertex
100
AcDb2dVertex
 10
637.984173253092
 20
1114.179793855809
 30
0.0
  0
VERTEX
  5
49D
330
44B
100
AcDbEntity
  8
E9127
100
AcDbVertex
100
AcDb2dVertex
 10
638.097698643717
 20
1114.137069246434
 30
0.0
  0
VERTEX
  5
49E
330
44B
100
AcDbEntity
  8
E9127
100
AcDbVertex
100
AcDb2dVertex
 10
638.208782628092
 20
1114.091903230809
 30
0.0
  0
VERTEX
  5
49F
330
44B
100
AcDbEntity
  8
E9127
100
AcDbVertex
100
AcDb2dVertex
 10
638.317425206217
 20
1114.044295808934
 30
0.0
  0
VERTEX
  5
4A0
330
44B
100
AcDbEntity
  8
E9127
100
AcDbVertex
100
AcDb2dVertex
 10
638.423626378092
 20
1113.994246980809
 30
0.0
  0
VERTEX
  5
4A1
330
44B
100
AcDbEntity
  8
E9127
100
AcDbVertex
100
AcDb2dVertex
 10
638.527386143717
 20
1113.941756746434
 30
0.0
  0
VERTEX
  5
4A2
330
44B
100
AcDbEntity
  8
E9127
100
AcDbVertex
100
AcDb2dVertex
 10
638.628704503092
 20
1113.886825105809
 30
0.0
  0
VERTEX
  5
4A3
330
44B
100
AcDbEntity
  8
E9127
100
AcDbVertex
100
AcDb2dVertex
 10
638.727581456217
 20
1113.829452058934
 30
0.0
  0
VERTEX
  5
4A4
330
44B
100
AcDbEntity
  8
E9127
100
AcDbVertex
100
AcDb2dVertex
 10
638.824017003092
 20
1113.769637605809
 30
0.0
  0
VERTEX
  5
4A5
330
44B
100
AcDbEntity
  8
E9127
100
AcDbVertex
100
AcDb2dVertex
 10
638.918011143717
 20
1113.707381746434
 30
0.0
  0
VERTEX
  5
4A6
330
44B
100
AcDbEntity
  8
E9127
100
AcDbVertex
100
AcDb2dVertex
 10
639.009563878092
 20
1113.642684480809
 30
0.0
  0
VERTEX
  5
4A7
330
44B
100
AcDbEntity
  8
E9127
100
AcDbVertex
100
AcDb2dVertex
 10
639.098675206217
 20
1113.575545808934
 30
0.0
  0
VERTEX
  5
4A8
330
44B
100
AcDbEntity
  8
E9127
100
AcDbVertex
100
AcDb2dVertex
 10
639.185345128092
 20
1113.505965730809
 30
0.0
  0
VERTEX
  5
4A9
330
44B
100
AcDbEntity
  8
E9127
100
AcDbVertex
100
AcDb2dVertex
 10
639.269573643717
 20
1113.433944246434
 30
0.0
  0
VERTEX
  5
4AA
330
44B
100
AcDbEntity
  8
E9127
100
AcDbVertex
100
AcDb2dVertex
 10
639.351360753092
 20
1113.359481355809
 30
0.0
  0
VERTEX
  5
4AB
330
44B
100
AcDbEntity
  8
E9127
100
AcDbVertex
100
AcDb2dVertex
 10
639.430706456217
 20
1113.282577058934
 30
0.0
  0
VERTEX
  5
4AC
330
44B
100
AcDbEntity
  8
E9127
100
AcDbVertex
100
AcDb2dVertex
 10
639.507610753092
 20
1113.203231355809
 30
0.0
  0
VERTEX
  5
4AD
330
44B
100
AcDbEntity
  8
E9127
100
AcDbVertex
100
AcDb2dVertex
 10
639.582073643717
 20
1113.121444246434
 30
0.0
  0
VERTEX
  5
4AE
330
44B
100
AcDbEntity
  8
E9127
100
AcDbVertex
100
AcDb2dVertex
 10
639.654095128092
 20
1113.037215730809
 30
0.0
  0
VERTEX
  5
4AF
330
44B
100
AcDbEntity
  8
E9127
100
AcDbVertex
100
AcDb2dVertex
 10
639.723675206217
 20
1112.950545808934
 30
0.0
  0
VERTEX
  5
4B0
330
44B
100
AcDbEntity
  8
E9127
100
AcDbVertex
100
AcDb2dVertex
 10
639.790813878092
 20
1112.861434480809
 30
0.0
  0
VERTEX
  5
4B1
330
44B
100
AcDbEntity
  8
E9127
100
AcDbVertex
100
AcDb2dVertex
 10
639.855511143717
 20
1112.769881746434
 30
0.0
  0
VERTEX
  5
4B2
330
44B
100
AcDbEntity
  8
E9127
100
AcDbVertex
100
AcDb2dVertex
 10
639.917767003092
 20
1112.675887605809
 30
0.0
  0
VERTEX
  5
4B3
330
44B
100
AcDbEntity
  8
E9127
100
AcDbVertex
100
AcDb2dVertex
 10
639.977581456217
 20
1112.579452058934
 30
0.0
  0
VERTEX
  5
4B4
330
44B
100
AcDbEntity
  8
E9127
100
AcDbVertex
100
AcDb2dVertex
 10
640.034954503092
 20
1112.480575105809
 30
0.0
  0
VERTEX
  5
4B5
330
44B
100
AcDbEntity
  8
E9127
100
AcDbVertex
100
AcDb2dVertex
 10
640.089886143717
 20
1112.379256746434
 30
0.0
  0
VERTEX
  5
4B6
330
44B
100
AcDbEntity
  8
E9127
100
AcDbVertex
100
AcDb2dVertex
 10
640.142376378092
 20
1112.275496980809
 30
0.0
  0
VERTEX
  5
4B7
330
44B
100
AcDbEntity
  8
E9127
100
AcDbVertex
100
AcDb2dVertex
 10
640.192425206217
 20
1112.169295808934
 30
0.0
  0
VERTEX
  5
4B8
330
44B
100
AcDbEntity
  8
E9127
100
AcDbVertex
100
AcDb2dVertex
 10
640.240032628092
 20
1112.060653230809
 30
0.0
  0
VERTEX
  5
4B9
330
44B
100
AcDbEntity
  8
E9127
100
AcDbVertex
100
AcDb2dVertex
 10
640.285198643717
 20
1111.949569246434
 30
0.0
  0
VERTEX
  5
4BA
330
44B
100
AcDbEntity
  8
E9127
100
AcDbVertex
100
AcDb2dVertex
 10
640.327923253092
 20
1111.836043855809
 30
0.0
  0
VERTEX
  5
4BB
330
44B
100
AcDbEntity
  8
E9127
100
AcDbVertex
100
AcDb2dVertex
 10
640.368206456217
 20
1111.720077058934
 30
0.0
  0
VERTEX
  5
4BC
330
44B
100
AcDbEntity
  8
E9127
100
AcDbVertex
100
AcDb2dVertex
 10
640.406048253092
 20
1111.601668855808
 30
0.0
  0
VERTEX
  5
4BD
330
44B
100
AcDbEntity
  8
E9127
100
AcDbVertex
100
AcDb2dVertex
 10
640.441448643717
 20
1111.480819246433
 30
0.0
  0
VERTEX
  5
4BE
330
44B
100
AcDbEntity
  8
E9127
100
AcDbVertex
100
AcDb2dVertex
 10
640.474407628092
 20
1111.357528230808
 30
0.0
  0
VERTEX
  5
4BF
330
44B
100
AcDbEntity
  8
E9127
100
AcDbVertex
100
AcDb2dVertex
 10
640.504925206217
 20
1111.231795808933
 30
0.0
  0
VERTEX
  5
4C0
330
44B
100
AcDbEntity
  8
E9127
100
AcDbVertex
100
AcDb2dVertex
 10
640.533001378092
 20
1111.103621980808
 30
0.0
  0
VERTEX
  5
4C1
330
44B
100
AcDbEntity
  8
E9127
100
AcDbVertex
100
AcDb2dVertex
 10
640.558636143717
 20
1110.973006746433
 30
0.0
  0
VERTEX
  5
4C2
330
44B
100
AcDbEntity
  8
E9127
100
AcDbVertex
100
AcDb2dVertex
 10
640.581829503092
 20
1110.839950105808
 30
0.0
  0
VERTEX
  5
4C3
330
44B
100
AcDbEntity
  8
E9127
100
AcDbVertex
100
AcDb2dVertex
 10
640.602581456217
 20
1110.704452058933
 30
0.0
  0
VERTEX
  5
4C4
330
44B
100
AcDbEntity
  8
E9127
100
AcDbVertex
100
AcDb2dVertex
 10
640.620892003092
 20
1110.566512605808
 30
0.0
  0
VERTEX
  5
4C5
330
44B
100
AcDbEntity
  8
E9127
100
AcDbVertex
100
AcDb2dVertex
 10
640.636761143717
 20
1110.426131746433
 30
0.0
  0
VERTEX
  5
4C6
330
44B
100
AcDbEntity
  8
E9127
100
AcDbVertex
100
AcDb2dVertex
 10
640.650188878092
 20
1110.283309480808
 30
0.0
  0
VERTEX
  5
4C7
330
44B
100
AcDbEntity
  8
E9127
100
AcDbVertex
100
AcDb2dVertex
 10
640.661175206217
 20
1110.138045808933
 30
0.0
  0
VERTEX
  5
4C8
330
44B
100
AcDbEntity
  8
E9127
100
AcDbVertex
100
AcDb2dVertex
 10
640.675823643717
 20
1109.840194246433
 30
0.0
  0
VERTEX
  5
4C9
330
44B
100
AcDbEntity
  8
E9127
100
AcDbVertex
100
AcDb2dVertex
 10
640.680706456217
 20
1109.532577058933
 30
0.0
  0
VERTEX
  5
4CA
330
44B
100
AcDbEntity
  8
E9127
100
AcDbVertex
100
AcDb2dVertex
 10
640.680706456217
 20
1073.532577058933
 30
0.0
  0
SEQEND
  5
4CB
330
44B
100
AcDbEntity
  8
E9127
  0
POLYLINE
  5
4CC
330
1F
100
AcDbEntity
  8
Make2D$可见线$普通线
100
AcDb2dPolyline
 66
     1
 10
0.0
 20
0.0
 30
0.0
  0
VERTEX
  5
4CD
330
4CC
100
AcDbEntity
  8
Make2D$可见线$普通线
100
AcDbVertex
100
AcDb2dVertex
 10
628.2383313015937
 20
1054.397374348022
 30
0.0
  0
VERTEX
  5
4CE
330
4CC
100
AcDbEntity
  8
Make2D$可见线$普通线
100
AcDbVertex
100
AcDb2dVertex
 10
628.2383313015937
 20
1054.74155258044
 30
0.0
  0
VERTEX
  5
4CF
330
4CC
100
AcDbEntity
  8
Make2D$可见线$普通线
100
AcDbVertex
100
AcDb2dVertex
 10
607.1230757588748
 20
1054.74155258044
 30
0.0
  0
VERTEX
  5
4D0
330
4CC
100
AcDbEntity
  8
Make2D$可见线$普通线
100
AcDbVertex
100
AcDb2dVertex
 10
607.1230757588748
 20
1053.57551755963
 30
0.0
  0
SEQEND
  5
4D1
330
4CC
100
AcDbEntity
  8
Make2D$可见线$普通线
  0
POLYLINE
  5
4D2
330
1F
100
AcDbEntity
  8
Make2D$可见线$普通线
100
AcDb2dPolyline
 66
     1
 10
0.0
 20
0.0
 30
0.0
  0
VERTEX
  5
4D3
330
4D2
100
AcDbEntity
  8
Make2D$可见线$普通线
100
AcDbVertex
100
AcDb2dVertex
 10
627.9251388826613
 20
1053.340019133663
 30
0.0
  0
VERTEX
  5
4D4
330
4D2
100
AcDbEntity
  8
Make2D$可见线$普通线
100
AcDbVertex
100
AcDb2dVertex
 10
627.4616175097066
 20
1053.302602759676
 30
0.0
  0
VERTEX
  5
4D5
330
4D2
100
AcDbEntity
  8
Make2D$可见线$普通线
100
AcDbVertex
100
AcDb2dVertex
 10
626.9973660143717
 20
1053.27572158955
 30
0.0
  0
VERTEX
  5
4D6
330
4D2
100
AcDbEntity
  8
Make2D$可见线$普通线
100
AcDbVertex
100
AcDb2dVertex
 10
625.146073720606
 20
1053.198411167013
 30
0.0
  0
VERTEX
  5
4D7
330
4D2
100
AcDbEntity
  8
Make2D$可见线$普通线
100
AcDbVertex
100
AcDb2dVertex
 10
621.2490924978033
 20
1053.083112173235
 30
0.0
  0
VERTEX
  5
4D8
330
4D2
100
AcDbEntity
  8
Make2D$可见线$普通线
100
AcDbVertex
100
AcDb2dVertex
 10
613.6521024217445
 20
1052.890462075026
 30
0.0
  0
VERTEX
  5
4D9
330
4D2
100
AcDbEntity
  8
Make2D$可见线$普通线
100
AcDbVertex
100
AcDb2dVertex
 10
610.2153333398626
 20
1052.787406965846
 30
0.0
  0
VERTEX
  5
4DA
330
4D2
100
AcDbEntity
  8
Make2D$可见线$普通线
100
AcDbVertex
100
AcDb2dVertex
 10
608.1418933751361
 20
1052.697789312564
 30
0.0
  0
VERTEX
  5
4DB
330
4D2
100
AcDbEntity
  8
Make2D$可见线$普通线
100
AcDbVertex
100
AcDb2dVertex
 10
607.7346594252106
 20
1052.67180013539
 30
0.0
  0
VERTEX
  5
4DC
330
4D2
100
AcDbEntity
  8
Make2D$可见线$普通线
100
AcDbVertex
100
AcDb2dVertex
 10
607.328390939882
 20
1052.633579131597
 30
0.0
  0
VERTEX
  5
4DD
330
4D2
100
AcDbEntity
  8
Make2D$可见线$普通线
100
AcDbVertex
100
AcDb2dVertex
 10
607.2803661856772
 20
1052.627115156545
 30
0.0
  0
VERTEX
  5
4DE
330
4D2
100
AcDbEntity
  8
Make2D$可见线$普通线
100
AcDbVertex
100
AcDb2dVertex
 10
607.2387065966964
 20
1052.620654972212
 30
0.0
  0
VERTEX
  5
4DF
330
4D2
100
AcDbEntity
  8
Make2D$可见线$普通线
100
AcDbVertex
100
AcDb2dVertex
 10
607.2034239269819
 20
1052.614197176904
 30
0.0
  0
VERTEX
  5
4E0
330
4D2
100
AcDbEntity
  8
Make2D$可见线$普通线
100
AcDbVertex
100
AcDb2dVertex
 10
607.1881776099875
 20
1052.610968737105
 30
0.0
  0
VERTEX
  5
4E1
330
4D2
100
AcDbEntity
  8
Make2D$可见线$普通线
100
AcDbVertex
100
AcDb2dVertex
 10
607.1745299305755
 20
1052.607740368927
 30
0.0
  0
VERTEX
  5
4E2
330
4D2
100
AcDbEntity
  8
Make2D$可见线$普通线
100
AcDbVertex
100
AcDb2dVertex
 10
607.1624823580013
 20
1052.604511897159
 30
0.0
  0
VERTEX
  5
4E3
330
4D2
100
AcDbEntity
  8
Make2D$可见线$普通线
100
AcDbVertex
100
AcDb2dVertex
 10
607.1570590709205
 20
1052.602897567675
 30
0.0
  0
VERTEX
  5
4E4
330
4D2
100
AcDbEntity
  8
Make2D$可见线$普通线
100
AcDbVertex
100
AcDb2dVertex
 10
607.1520363615198
 20
1052.601283146588
 30
0.0
  0
VERTEX
  5
4E5
330
4D2
100
AcDbEntity
  8
Make2D$可见线$普通线
100
AcDbVertex
100
AcDb2dVertex
 10
607.1474144134561
 20
1052.599668611998
 30
0.0
  0
VERTEX
  5
4E6
330
4D2
100
AcDbEntity
  8
Make2D$可见线$普通线
100
AcDbVertex
100
AcDb2dVertex
 10
607.1431934103862
 20
1052.598053942004
 30
0.0
  0
VERTEX
  5
4E7
330
4D2
100
AcDbEntity
  8
Make2D$可见线$普通线
100
AcDbVertex
100
AcDb2dVertex
 10
607.1412333206168
 20
1052.597246549385
 30
0.0
  0
VERTEX
  5
4E8
330
4D2
100
AcDbEntity
  8
Make2D$可见线$普通线
100
AcDbVertex
100
AcDb2dVertex
 10
607.1393735359673
 20
1052.596439114703
 30
0.0
  0
VERTEX
  5
4E9
330
4D2
100
AcDbEntity
  8
Make2D$可见线$普通线
100
AcDbVertex
100
AcDb2dVertex
 10
607.1376140793948
 20
1052.595631635218
 30
0.0
  0
VERTEX
  5
4EA
330
4D2
100
AcDbEntity
  8
Make2D$可见线$普通线
100
AcDbVertex
100
AcDb2dVertex
 10
607.1359549738562
 20
1052.594824108194
 30
0.0
  0
VERTEX
  5
4EB
330
4D2
100
AcDbEntity
  8
Make2D$可见线$普通线
100
AcDbVertex
100
AcDb2dVertex
 10
607.1343962423089
 20
1052.594016530892
 30
0.0
  0
VERTEX
  5
4EC
330
4D2
100
AcDbEntity
  8
Make2D$可见线$普通线
100
AcDbVertex
100
AcDb2dVertex
 10
607.1329379077097
 20
1052.593208900576
 30
0.0
  0
VERTEX
  5
4ED
330
4D2
100
AcDbEntity
  8
Make2D$可见线$普通线
100
AcDbVertex
100
AcDb2dVertex
 10
607.131579993016
 20
1052.592401214506
 30
0.0
  0
VERTEX
  5
4EE
330
4D2
100
AcDbEntity
  8
Make2D$可见线$普通线
100
AcDbVertex
100
AcDb2dVertex
 10
607.1309387003078
 20
1052.591997349709
 30
0.0
  0
VERTEX
  5
4EF
330
4D2
100
AcDbEntity
  8
Make2D$可见线$普通线
100
AcDbVertex
100
AcDb2dVertex
 10
607.1303225211848
 20
1052.591593469946
 30
0.0
  0
VERTEX
  5
4F0
330
4D2
100
AcDbEntity
  8
Make2D$可见线$普通线
100
AcDbVertex
100
AcDb2dVertex
 10
607.1297314585169
 20
1052.591189574877
 30
0.0
  0
VERTEX
  5
4F1
330
4D2
100
AcDbEntity
  8
Make2D$可见线$普通线
100
AcDbVertex
100
AcDb2dVertex
 10
607.1291655151733
 20
1052.590785664159
 30
0.0
  0
VERTEX
  5
4F2
330
4D2
100
AcDbEntity
  8
Make2D$可见线$普通线
100
AcDbVertex
100
AcDb2dVertex
 10
607.128624694024
 20
1052.590381737449
 30
0.0
  0
VERTEX
  5
4F3
330
4D2
100
AcDbEntity
  8
Make2D$可见线$普通线
100
AcDbVertex
100
AcDb2dVertex
 10
607.1281089979384
 20
1052.589977794406
 30
0.0
  0
VERTEX
  5
4F4
330
4D2
100
AcDbEntity
  8
Make2D$可见线$普通线
100
AcDbVertex
100
AcDb2dVertex
 10
607.1276184297863
 20
1052.589573834686
 30
0.0
  0
VERTEX
  5
4F5
330
4D2
100
AcDbEntity
  8
Make2D$可见线$普通线
100
AcDbVertex
100
AcDb2dVertex
 10
607.1271529924373
 20
1052.589169857948
 30
0.0
  0
VERTEX
  5
4F6
330
4D2
100
AcDbEntity
  8
Make2D$可见线$普通线
100
AcDbVertex
100
AcDb2dVertex
 10
607.1267126887611
 20
1052.588765863851
 30
0.0
  0
VERTEX
  5
4F7
330
4D2
100
AcDbEntity
  8
Make2D$可见线$普通线
100
AcDbVertex
100
AcDb2dVertex
 10
607.1262975216273
 20
1052.58836185205
 30
0.0
  0
VERTEX
  5
4F8
330
4D2
100
AcDbEntity
  8
Make2D$可见线$普通线
100
AcDbVertex
100
AcDb2dVertex
 10
607.1259074939055
 20
1052.587957822205
 30
0.0
  0
VERTEX
  5
4F9
330
4D2
100
AcDbEntity
  8
Make2D$可见线$普通线
100
AcDbVertex
100
AcDb2dVertex
 10
607.1255426084653
 20
1052.587553773973
 30
0.0
  0
VERTEX
  5
4FA
330
4D2
100
AcDbEntity
  8
Make2D$可见线$普通线
100
AcDbVertex
100
AcDb2dVertex
 10
607.1253695949976
 20
1052.587351742856
 30
0.0
  0
VERTEX
  5
4FB
330
4D2
100
AcDbEntity
  8
Make2D$可见线$普通线
100
AcDbVertex
100
AcDb2dVertex
 10
607.1252028681764
 20
1052.587149707013
 30
0.0
  0
VERTEX
  5
4FC
330
4D2
100
AcDbEntity
  8
Make2D$可见线$普通线
100
AcDbVertex
100
AcDb2dVertex
 10
607.1250424283605
 20
1052.586947666402
 30
0.0
  0
VERTEX
  5
4FD
330
4D2
100
AcDbEntity
  8
Make2D$可见线$普通线
100
AcDbVertex
100
AcDb2dVertex
 10
607.1248882759085
 20
1052.58674562098
 30
0.0
  0
VERTEX
  5
4FE
330
4D2
100
AcDbEntity
  8
Make2D$可见线$普通线
100
AcDbVertex
100
AcDb2dVertex
 10
607.1247404111791
 20
1052.586543570706
 30
0.0
  0
VERTEX
  5
4FF
330
4D2
100
AcDbEntity
  8
Make2D$可见线$普通线
100
AcDbVertex
100
AcDb2dVertex
 10
607.1245988345312
 20
1052.586341515535
 30
0.0
  0
VERTEX
  5
500
330
4D2
100
AcDbEntity
  8
Make2D$可见线$普通线
100
AcDbVertex
100
AcDb2dVertex
 10
607.1244635463231
 20
1052.586139455424
 30
0.0
  0
VERTEX
  5
501
330
4D2
100
AcDbEntity
  8
Make2D$可见线$普通线
100
AcDbVertex
100
AcDb2dVertex
 10
607.124334546914
 20
1052.585937390333
 30
0.0
  0
VERTEX
  5
502
330
4D2
100
AcDbEntity
  8
Make2D$可见线$普通线
100
AcDbVertex
100
AcDb2dVertex
 10
607.1242118366622
 20
1052.585735320217
 30
0.0
  0
VERTEX
  5
503
330
4D2
100
AcDbEntity
  8
Make2D$可见线$普通线
100
AcDbVertex
100
AcDb2dVertex
 10
607.1240954159266
 20
1052.585533245033
 30
0.0
  0
VERTEX
  5
504
330
4D2
100
AcDbEntity
  8
Make2D$可见线$普通线
100
AcDbVertex
100
AcDb2dVertex
 10
607.123985285066
 20
1052.58533116474
 30
0.0
  0
VERTEX
  5
505
330
4D2
100
AcDbEntity
  8
Make2D$可见线$普通线
100
AcDbVertex
100
AcDb2dVertex
 10
607.1238814444389
 20
1052.585129079294
 30
0.0
  0
VERTEX
  5
506
330
4D2
100
AcDbEntity
  8
Make2D$可见线$普通线
100
AcDbVertex
100
AcDb2dVertex
 10
607.1237838944041
 20
1052.584926988652
 30
0.0
  0
VERTEX
  5
507
330
4D2
100
AcDbEntity
  8
Make2D$可见线$普通线
100
AcDbVertex
100
AcDb2dVertex
 10
607.1236926353201
 20
1052.584724892772
 30
0.0
  0
VERTEX
  5
508
330
4D2
100
AcDbEntity
  8
Make2D$可见线$普通线
100
AcDbVertex
100
AcDb2dVertex
 10
607.1236076675461
 20
1052.58452279161
 30
0.0
  0
VERTEX
  5
509
330
4D2
100
AcDbEntity
  8
Make2D$可见线$普通线
100
AcDbVertex
100
AcDb2dVertex
 10
607.1235289914403
 20
1052.584320685125
 30
0.0
  0
VERTEX
  5
50A
330
4D2
100
AcDbEntity
  8
Make2D$可见线$普通线
100
AcDbVertex
100
AcDb2dVertex
 10
607.1234566073616
 20
1052.584118573273
 30
0.0
  0
VERTEX
  5
50B
330
4D2
100
AcDbEntity
  8
Make2D$可见线$普通线
100
AcDbVertex
100
AcDb2dVertex
 10
607.1233905156688
 20
1052.583916456011
 30
0.0
  0
VERTEX
  5
50C
330
4D2
100
AcDbEntity
  8
Make2D$可见线$普通线
100
AcDbVertex
100
AcDb2dVertex
 10
607.1233307167205
 20
1052.583714333298
 30
0.0
  0
VERTEX
  5
50D
330
4D2
100
AcDbEntity
  8
Make2D$可见线$普通线
100
AcDbVertex
100
AcDb2dVertex
 10
607.1232772108754
 20
1052.583512205089
 30
0.0
  0
VERTEX
  5
50E
330
4D2
100
AcDbEntity
  8
Make2D$可见线$普通线
100
AcDbVertex
100
AcDb2dVertex
 10
607.1232299984922
 20
1052.583310071343
 30
0.0
  0
VERTEX
  5
50F
330
4D2
100
AcDbEntity
  8
Make2D$可见线$普通线
100
AcDbVertex
100
AcDb2dVertex
 10
607.1231890799296
 20
1052.583107932016
 30
0.0
  0
VERTEX
  5
510
330
4D2
100
AcDbEntity
  8
Make2D$可见线$普通线
100
AcDbVertex
100
AcDb2dVertex
 10
607.1231544555465
 20
1052.582905787065
 30
0.0
  0
VERTEX
  5
511
330
4D2
100
AcDbEntity
  8
Make2D$可见线$普通线
100
AcDbVertex
100
AcDb2dVertex
 10
607.1231261257012
 20
1052.582703636448
 30
0.0
  0
VERTEX
  5
512
330
4D2
100
AcDbEntity
  8
Make2D$可见线$普通线
100
AcDbVertex
100
AcDb2dVertex
 10
607.1231040907527
 20
1052.582501480123
 30
0.0
  0
VERTEX
  5
513
330
4D2
100
AcDbEntity
  8
Make2D$可见线$普通线
100
AcDbVertex
100
AcDb2dVertex
 10
607.1230883510598
 20
1052.582299318045
 30
0.0
  0
VERTEX
  5
514
330
4D2
100
AcDbEntity
  8
Make2D$可见线$普通线
100
AcDbVertex
100
AcDb2dVertex
 10
607.1230789069809
 20
1052.582097150174
 30
0.0
  0
VERTEX
  5
515
330
4D2
100
AcDbEntity
  8
Make2D$可见线$普通线
100
AcDbVertex
100
AcDb2dVertex
 10
607.1230757588748
 20
1052.581894976465
 30
0.0
  0
VERTEX
  5
516
330
4D2
100
AcDbEntity
  8
Make2D$可见线$普通线
100
AcDbVertex
100
AcDb2dVertex
 10
607.1230757588748
 20
1051.93149723575
 30
0.0
  0
SEQEND
  5
517
330
4D2
100
AcDbEntity
  8
Make2D$可见线$普通线
  0
POLYLINE
  5
518
330
1F
100
AcDbEntity
  8
Make2D$可见线$普通线
100
AcDb2dPolyline
 66
     1
 10
0.0
 20
0.0
 30
0.0
  0
VERTEX
  5
519
330
518
100
AcDbEntity
  8
Make2D$可见线$普通线
100
AcDbVertex
100
AcDb2dVertex
 10
627.9402584419008
 20
1052.691191753336
 30
0.0
  0
VERTEX
  5
51A
330
518
100
AcDbEntity
  8
Make2D$可见线$普通线
100
AcDbVertex
100
AcDb2dVertex
 10
627.8814437147514
 20
1052.652941649575
 30
0.0
 42
0.6017290254257414
  0
VERTEX
  5
51B
330
518
100
AcDbEntity
  8
Make2D$可见线$普通线
100
AcDbVertex
100
AcDb2dVertex
 10
628.0022144218128
 20
1051.799069831784
 30
0.0
  0
SEQEND
  5
51C
330
518
100
AcDbEntity
  8
Make2D$可见线$普通线
  0
POLYLINE
  5
51D
330
1F
100
AcDbEntity
  8
Make2D$可见线$普通线
100
AcDb2dPolyline
 66
     1
 10
0.0
 20
0.0
 30
0.0
  0
VERTEX
  5
51E
330
51D
100
AcDbEntity
  8
Make2D$可见线$普通线
100
AcDbVertex
100
AcDb2dVertex
 10
627.9228417323031
 20
1054.326465775381
 30
0.0
  0
VERTEX
  5
51F
330
51D
100
AcDbEntity
  8
Make2D$可见线$普通线
100
AcDbVertex
100
AcDb2dVertex
 10
627.8249243383054
 20
1054.249052756466
 30
0.0
 42
0.1849568527190772
  0
VERTEX
  5
520
330
51D
100
AcDbEntity
  8
Make2D$可见线$普通线
100
AcDbVertex
100
AcDb2dVertex
 10
627.6812746229534
 20
1053.924589729966
 30
0.0
  0
SEQEND
  5
521
330
51D
100
AcDbEntity
  8
Make2D$可见线$普通线
  0
ENDSEC
  0
SECTION
  2
OBJECTS
  0
DICTIONARY
  5
C
330
0
100
AcDbDictionary
281
     1
  3
ACAD_GROUP
350
D
  3
ACAD_LAYOUT
350
1A
  3
ACAD_MATERIAL
350
3B
  3
ACAD_MLEADERSTYLE
350
54C
  3
ACAD_MLINESTYLE
350
17
  3
ACAD_PLOTSETTINGS
350
19
  3
ACAD_PLOTSTYLENAME
350
E
  3
ACAD_SCALELIST
350
3F
  3
ACAD_TABLESTYLE
350
54B
  3
ACAD_VISUALSTYLE
350
2A
  3
AcDbVariableDictionary
350
522
  0
DICTIONARY
  5
D
102
{ACAD_REACTORS
330
C
102
}
330
C
100
AcDbDictionary
281
     1
  0
DICTIONARY
  5
1A
102
{ACAD_REACTORS
330
C
102
}
330
C
100
AcDbDictionary
281
     1
  3
Layout1
350
1E
  3
Layout2
350
26
  3
Model
350
22
  0
DICTIONARY
  5
3B
102
{ACAD_REACTORS
330
C
102
}
330
C
100
AcDbDictionary
281
     1
  3
ByBlock
350
3D
  3
ByLayer
350
3C
  3
Global
350
3E
  0
DICTIONARY
  5
54C
102
{ACAD_REACTORS
330
C
102
}
330
C
100
AcDbDictionary
281
     1
  0
DICTIONARY
  5
17
102
{ACAD_REACTORS
330
C
102
}
330
C
100
AcDbDictionary
281
     1
  3
Standard
350
18
  0
DICTIONARY
  5
19
102
{ACAD_REACTORS
330
C
102
}
330
C
100
AcDbDictionary
281
     1
  0
ACDBDICTIONARYWDFLT
  5
E
102
{ACAD_REACTORS
330
C
102
}
330
C
100
AcDbDictionary
281
     1
  3
Normal
350
F
100
AcDbDictionaryWithDefault
340
F
  0
DICTIONARY
  5
3F
102
{ACAD_REACTORS
330
C
102
}
330
C
100
AcDbDictionary
281
     1
  3
A0
350
40
  3
A1
350
41
  3
A2
350
42
  3
A3
350
43
  3
A4
350
44
  3
A5
350
45
  3
A6
350
46
  3
A7
350
47
  3
A8
350
48
  3
A9
350
49
  3
B0
350
4A
  3
B1
350
4B
  3
B2
350
4C
  3
B3
350
4D
  3
B4
350
4E
  3
B5
350
4F
  3
B6
350
50
  3
B7
350
51
  3
B8
350
52
  3
B9
350
53
  3
C0
350
54
  3
C1
350
55
  3
C2
350
56
  3
C3
350
57
  3
C4
350
58
  3
C5
350
59
  3
C6
350
5A
  3
C7
350
5B
  3
C8
350
5C
  3
C9
350
5D
  3
D0
350
5E
  3
D1
350
5F
  3
D2
350
60
  0
DICTIONARY
  5
54B
102
{ACAD_REACTORS
330
C
102
}
330
C
100
AcDbDictionary
281
     1
  0
DICTIONARY
  5
2A
102
{ACAD_REACTORS
330
C
102
}
330
C
100
AcDbDictionary
281
     1
  3
2dWireframe
350
2F
  3
3D Hidden
350
31
  3
3dWireframe
350
30
  3
Basic
350
32
  3
Brighten
350
36
  3
ColorChange
350
3A
  3
Conceptual
350
34
  3
Dim
350
35
  3
Facepattern
350
39
  3
Flat
350
2B
  3
FlatWithEdges
350
2C
  3
Gouraud
350
2D
  3
GouraudWithEdges
350
2E
  3
Linepattern
350
38
  3
Realistic
350
33
  3
Thicken
350
37
  0
DICTIONARY
  5
522
102
{ACAD_REACTORS
330
C
102
}
330
C
100
AcDbDictionary
281
     1
  3
CANNOSCALE
350
523
  3
MSLTSCALE
350
524
  0
LAYOUT
  5
1E
102
{ACAD_REACTORS
330
1A
102
}
330
1A
100
AcDbPlotSettings
  1

  2
none_device
  4

  6

 40
0.0
 41
0.0
 42
0.0
 43
0.0
 44
0.0
 45
0.0
 46
0.0
 47
0.0
 48
0.0
 49
0.0
140
0.0
141
0.0
142
1.0
143
1.0
 70
   688
 72
     0
 73
     0
 74
     5
  7

 75
    16
 76
     0
 77
     2
 78
   300
147
1.0
148
0.0
149
0.0
100
AcDbLayout
  1
Layout1
 70
     1
 71
     1
 10
0.0
 20
0.0
 11
12.0
 21
9.0
 12
0.0
 22
0.0
 32
0.0
 14
1.000000000000000E+20
 24
1.000000000000000E+20
 34
1.000000000000000E+20
 15
-1.000000000000000E+20
 25
-1.000000000000000E+20
 35
-1.000000000000000E+20
146
0.0
 13
0.0
 23
0.0
 33
0.0
 16
1.0
 26
0.0
 36
0.0
 17
0.0
 27
1.0
 37
0.0
 76
     0
330
1B
  0
LAYOUT
  5
26
102
{ACAD_REACTORS
330
1A
102
}
330
1A
100
AcDbPlotSettings
  1

  2
none_device
  4

  6

 40
0.0
 41
0.0
 42
0.0
 43
0.0
 44
0.0
 45
0.0
 46
0.0
 47
0.0
 48
0.0
 49
0.0
140
0.0
141
0.0
142
1.0
143
1.0
 70
   688
 72
     0
 73
     0
 74
     5
  7

 75
    16
 76
     0
 77
     2
 78
   300
147
1.0
148
0.0
149
0.0
100
AcDbLayout
  1
Layout2
 70
     1
 71
     2
 10
0.0
 20
0.0
 11
0.0
 21
0.0
 12
0.0
 22
0.0
 32
0.0
 14
0.0
 24
0.0
 34
0.0
 15
0.0
 25
0.0
 35
0.0
146
0.0
 13
0.0
 23
0.0
 33
0.0
 16
1.0
 26
0.0
 36
0.0
 17
0.0
 27
1.0
 37
0.0
 76
     0
330
23
  0
LAYOUT
  5
22
102
{ACAD_REACTORS
330
1A
102
}
330
1A
100
AcDbPlotSettings
  1

  2
none_device
  4
Letter_(8.50_x_11.00_Inches)
  6

 40
6.35
 41
6.35
 42
6.35000508
 43
6.35000508
 44
215.9
 45
279.4
 46
0.0
 47
0.0
 48
0.0
 49
0.0
140
0.0
141
0.0
142
1.0
143
1.0
 70
  1712
 72
     0
 73
     0
 74
     0
  7

 75
     0
 76
     0
 77
     2
 78
   300
147
1.0
148
0.0
149
0.0
100
AcDbLayout
  1
Model
 70
     1
 71
     0
 10
0.0
 20
0.0
 11
12.0
 21
9.0
 12
0.0
 22
0.0
 32
0.0
 14
509.680706456217
 24
1046.680706456217
 34
0.0
 15
750.6807064583604
 25
1122.032631393991
 35
0.0
146
0.0
 13
0.0
 23
0.0
 33
0.0
 16
1.0
 26
0.0
 36
0.0
 17
0.0
 27
1.0
 37
0.0
 76
     0
330
1F
331
29
  0
MATERIAL
  5
3D
102
{ACAD_REACTORS
330
3B
102
}
102
{ACAD_XDICTIONARY
360
547
102
}
330
3B
100
AcDbMaterial
  1
ByBlock
  0
MATERIAL
  5
3C
102
{ACAD_REACTORS
330
3B
102
}
102
{ACAD_XDICTIONARY
360
545
102
}
330
3B
100
AcDbMaterial
  1
ByLayer
  0
MATERIAL
  5
3E
102
{ACAD_REACTORS
330
3B
102
}
102
{ACAD_XDICTIONARY
360
549
102
}
330
3B
100
AcDbMaterial
  1
Global
  0
MLINESTYLE
  5
18
102
{ACAD_REACTORS
330
17
102
}
330
17
100
AcDbMlineStyle
  2
Standard
 70
     0
  3

 62
   256
 51
90.0
 52
90.0
 71
     2
 49
0.5
 62
   256
  6
BYLAYER
 49
-0.5
 62
   256
  6
BYLAYER
  0
ACDBPLACEHOLDER
  5
F
102
{ACAD_REACTORS
330
E
102
}
330
E
  0
SCALE
  5
40
102
{ACAD_REACTORS
330
3F
102
}
330
3F
100
AcDbScale
 70
     0
300
1:1
140
1.0
141
1.0
290
     1
  0
SCALE
  5
41
102
{ACAD_REACTORS
330
3F
102
}
330
3F
100
AcDbScale
 70
     0
300
1:2
140
1.0
141
2.0
290
     0
  0
SCALE
  5
42
102
{ACAD_REACTORS
330
3F
102
}
330
3F
100
AcDbScale
 70
     0
300
1:4
140
1.0
141
4.0
290
     0
  0
SCALE
  5
43
102
{ACAD_REACTORS
330
3F
102
}
330
3F
100
AcDbScale
 70
     0
300
1:5
140
1.0
141
5.0
290
     0
  0
SCALE
  5
44
102
{ACAD_REACTORS
330
3F
102
}
330
3F
100
AcDbScale
 70
     0
300
1:8
140
1.0
141
8.0
290
     0
  0
SCALE
  5
45
102
{ACAD_REACTORS
330
3F
102
}
330
3F
100
AcDbScale
 70
     0
300
1:10
140
1.0
141
10.0
290
     0
  0
SCALE
  5
46
102
{ACAD_REACTORS
330
3F
102
}
330
3F
100
AcDbScale
 70
     0
300
1:16
140
1.0
141
16.0
290
     0
  0
SCALE
  5
47
102
{ACAD_REACTORS
330
3F
102
}
330
3F
100
AcDbScale
 70
     0
300
1:20
140
1.0
141
20.0
290
     0
  0
SCALE
  5
48
102
{ACAD_REACTORS
330
3F
102
}
330
3F
100
AcDbScale
 70
     0
300
1:30
140
1.0
141
30.0
290
     0
  0
SCALE
  5
49
102
{ACAD_REACTORS
330
3F
102
}
330
3F
100
AcDbScale
 70
     0
300
1:40
140
1.0
141
40.0
290
     0
  0
SCALE
  5
4A
102
{ACAD_REACTORS
330
3F
102
}
330
3F
100
AcDbScale
 70
     0
300
1:50
140
1.0
141
50.0
290
     0
  0
SCALE
  5
4B
102
{ACAD_REACTORS
330
3F
102
}
330
3F
100
AcDbScale
 70
     0
300
1:100
140
1.0
141
100.0
290
     0
  0
SCALE
  5
4C
102
{ACAD_REACTORS
330
3F
102
}
330
3F
100
AcDbScale
 70
     0
300
2:1
140
2.0
141
1.0
290
     0
  0
SCALE
  5
4D
102
{ACAD_REACTORS
330
3F
102
}
330
3F
100
AcDbScale
 70
     0
300
4:1
140
4.0
141
1.0
290
     0
  0
SCALE
  5
4E
102
{ACAD_REACTORS
330
3F
102
}
330
3F
100
AcDbScale
 70
     0
300
8:1
140
8.0
141
1.0
290
     0
  0
SCALE
  5
4F
102
{ACAD_REACTORS
330
3F
102
}
330
3F
100
AcDbScale
 70
     0
300
10:1
140
10.0
141
1.0
290
     0
  0
SCALE
  5
50
102
{ACAD_REACTORS
330
3F
102
}
330
3F
100
AcDbScale
 70
     0
300
100:1
140
100.0
141
1.0
290
     0
  0
SCALE
  5
51
102
{ACAD_REACTORS
330
3F
102
}
330
3F
100
AcDbScale
 70
     0
300
1/128" = 1'-0"
140
0.0078125
141
12.0
290
     0
  0
SCALE
  5
52
102
{ACAD_REACTORS
330
3F
102
}
330
3F
100
AcDbScale
 70
     0
300
1/64" = 1'-0"
140
0.015625
141
12.0
290
     0
  0
SCALE
  5
53
102
{ACAD_REACTORS
330
3F
102
}
330
3F
100
AcDbScale
 70
     0
300
1/32" = 1'-0"
140
0.03125
141
12.0
290
     0
  0
SCALE
  5
54
102
{ACAD_REACTORS
330
3F
102
}
330
3F
100
AcDbScale
 70
     0
300
1/16" = 1'-0"
140
0.0625
141
12.0
290
     0
  0
SCALE
  5
55
102
{ACAD_REACTORS
330
3F
102
}
330
3F
100
AcDbScale
 70
     0
300
3/32" = 1'-0"
140
0.09375
141
12.0
290
     0
  0
SCALE
  5
56
102
{ACAD_REACTORS
330
3F
102
}
330
3F
100
AcDbScale
 70
     0
300
1/8" = 1'-0"
140
0.125
141
12.0
290
     0
  0
SCALE
  5
57
102
{ACAD_REACTORS
330
3F
102
}
330
3F
100
AcDbScale
 70
     0
300
3/16" = 1'-0"
140
0.1875
141
12.0
290
     0
  0
SCALE
  5
58
102
{ACAD_REACTORS
330
3F
102
}
330
3F
100
AcDbScale
 70
     0
300
1/4" = 1'-0"
140
0.25
141
12.0
290
     0
  0
SCALE
  5
59
102
{ACAD_REACTORS
330
3F
102
}
330
3F
100
AcDbScale
 70
     0
300
3/8" = 1'-0"
140
0.375
141
12.0
290
     0
  0
SCALE
  5
5A
102
{ACAD_REACTORS
330
3F
102
}
330
3F
100
AcDbScale
 70
     0
300
1/2" = 1'-0"
140
0.5
141
12.0
290
     0
  0
SCALE
  5
5B
102
{ACAD_REACTORS
330
3F
102
}
330
3F
100
AcDbScale
 70
     0
300
3/4" = 1'-0"
140
0.75
141
12.0
290
     0
  0
SCALE
  5
5C
102
{ACAD_REACTORS
330
3F
102
}
330
3F
100
AcDbScale
 70
     0
300
1" = 1'-0"
140
1.0
141
12.0
290
     0
  0
SCALE
  5
5D
102
{ACAD_REACTORS
330
3F
102
}
330
3F
100
AcDbScale
 70
     0
300
1-1/2" = 1'-0"
140
1.5
141
12.0
290
     0
  0
SCALE
  5
5E
102
{ACAD_REACTORS
330
3F
102
}
330
3F
100
AcDbScale
 70
     0
300
3" = 1'-0"
140
3.0
141
12.0
290
     0
  0
SCALE
  5
5F
102
{ACAD_REACTORS
330
3F
102
}
330
3F
100
AcDbScale
 70
     0
300
6" = 1'-0"
140
6.0
141
12.0
290
     0
  0
SCALE
  5
60
102
{ACAD_REACTORS
330
3F
102
}
330
3F
100
AcDbScale
 70
     0
300
1'-0" = 1'-0"
140
12.0
141
12.0
290
     0
  0
VISUALSTYLE
  5
2F
102
{ACAD_REACTORS
330
2A
102
}
102
{ACAD_XDICTIONARY
360
52D
102
}
330
2A
100
AcDbVisualStyle
  2
2dWireframe
 70
     4
 71
     0
 72
     2
 73
     0
 90
        0
 40
0.6
 41
30.0
 62
     5
 63
     7
421
 16777215
 74
     1
 91
        4
 64
     7
 65
   257
 75
     1
175
     1
 42
1.0
 92
        0
 66
   257
 43
1.0
 76
     1
 77
     6
 78
     2
 67
     7
 79
     5
170
     0
171
     0
290
     0
174
     0
 93
        1
 44
0.0
173
     0
291
     0
 45
0.0
1001
ACAD
1000
AcDbSavedByObjectVersion
1070
     0
  0
VISUALSTYLE
  5
31
102
{ACAD_REACTORS
330
2A
102
}
102
{ACAD_XDICTIONARY
360
531
102
}
330
2A
100
AcDbVisualStyle
  2
3D Hidden
 70
     6
 71
     1
 72
     2
 73
     2
 90
        0
 40
0.6
 41
30.0
 62
     5
 63
     7
421
 16777215
 74
     2
 91
        2
 64
     7
 65
   257
 75
     2
175
     1
 42
40.0
 92
        0
 66
   257
 43
1.0
 76
     1
 77
     6
 78
     2
 67
     7
 79
     3
170
     0
171
     0
290
     0
174
     0
 93
        1
 44
0.0
173
     0
291
     0
 45
0.0
1001
ACAD
1000
AcDbSavedByObjectVersion
1070
     0
  0
VISUALSTYLE
  5
30
102
{ACAD_REACTORS
330
2A
102
}
102
{ACAD_XDICTIONARY
360
52F
102
}
330
2A
100
AcDbVisualStyle
  2
3dWireframe
 70
     5
 71
     0
 72
     2
 73
     0
 90
        0
 40
0.6
 41
30.0
 62
     5
 63
     7
421
 16777215
 74
     1
 91
        4
 64
     7
 65
   257
 75
     1
175
     1
 42
1.0
 92
        0
 66
   257
 43
1.0
 76
     1
 77
     6
 78
     2
 67
     7
 79
     5
170
     0
171
     0
290
     0
174
     0
 93
        1
 44
0.0
173
     0
291
     0
 45
0.0
1001
ACAD
1000
AcDbSavedByObjectVersion
1070
     0
  0
VISUALSTYLE
  5
32
102
{ACAD_REACTORS
330
2A
102
}
102
{ACAD_XDICTIONARY
360
533
102
}
330
2A
100
AcDbVisualStyle
  2
Basic
 70
     7
 71
     1
 72
     0
 73
     1
 90
        0
 40
0.6
 41
30.0
 62
     5
 63
     7
421
 16777215
 74
     0
 91
        4
 64
     7
 65
   257
 75
     1
175
     1
 42
1.0
 92
        8
 66
     7
 43
1.0
 76
     1
 77
     6
 78
     2
 67
     7
 79
     5
170
     0
171
     0
290
     0
174
     0
 93
        1
 44
0.0
173
     0
291
     1
 45
0.0
1001
ACAD
1000
AcDbSavedByObjectVersion
1070
     0
  0
VISUALSTYLE
  5
36
102
{ACAD_REACTORS
330
2A
102
}
102
{ACAD_XDICTIONARY
360
53B
102
}
330
2A
100
AcDbVisualStyle
  2
Brighten
 70
    12
 71
     2
 72
     2
 73
     0
 90
        0
 40
0.6
 41
30.0
 62
     5
 63
     7
421
 16777215
 74
     1
 91
        4
 64
     7
 65
   257
 75
     1
175
     1
 42
1.0
 92
        8
 66
     7
 43
1.0
 76
     1
 77
     6
 78
     2
 67
     7
 79
     5
170
     0
171
     0
290
     0
174
     0
 93
        1
 44
50.0
173
     0
291
     1
 45
0.0
1001
ACAD
1000
AcDbSavedByObjectVersion
1070
     0
  0
VISUALSTYLE
  5
3A
102
{ACAD_REACTORS
330
2A
102
}
102
{ACAD_XDICTIONARY
360
543
102
}
330
2A
100
AcDbVisualStyle
  2
ColorChange
 70
    16
 71
     2
 72
     2
 73
     3
 90
        0
 40
0.6
 41
30.0
 62
     5
 63
     8
421
  8421504
 74
     1
 91
        4
 64
     7
 65
   257
 75
     1
175
     1
 42
1.0
 92
        8
 66
     8
424
  8421504
 43
1.0
 76
     1
 77
     6
 78
     2
 67
     7
 79
     5
170
     0
171
     0
290
     0
174
     0
 93
        1
 44
0.0
173
     0
291
     1
 45
0.0
1001
ACAD
1000
AcDbSavedByObjectVersion
1070
     0
  0
VISUALSTYLE
  5
34
102
{ACAD_REACTORS
330
2A
102
}
102
{ACAD_XDICTIONARY
360
537
102
}
330
2A
100
AcDbVisualStyle
  2
Conceptual
 70
     9
 71
     3
 72
     2
 73
     0
 90
        0
 40
0.6
 41
30.0
 62
     5
 63
     7
421
 16777215
 74
     2
 91
        2
 64
     7
 65
   257
 75
     1
175
     1
 42
40.0
 92
        8
 66
     7
 43
1.0
 76
     1
 77
     6
 78
     2
 67
     7
 79
     3
170
     0
171
     0
290
     0
174
     0
 93
        1
 44
0.0
173
     0
291
     0
 45
0.0
1001
ACAD
1000
AcDbSavedByObjectVersion
1070
     0
  0
VISUALSTYLE
  5
35
102
{ACAD_REACTORS
330
2A
102
}
102
{ACAD_XDICTIONARY
360
539
102
}
330
2A
100
AcDbVisualStyle
  2
Dim
 70
    11
 71
     2
 72
     2
 73
     0
 90
        0
 40
0.6
 41
30.0
 62
     5
 63
     7
421
 16777215
 74
     1
 91
        4
 64
     7
 65
   257
 75
     1
175
     1
 42
1.0
 92
        8
 66
     7
 43
1.0
 76
     1
 77
     6
 78
     2
 67
     7
 79
     5
170
     0
171
     0
290
     0
174
     0
 93
        1
 44
-50.0
173
     0
291
     1
 45
0.0
1001
ACAD
1000
AcDbSavedByObjectVersion
1070
     0
  0
VISUALSTYLE
  5
39
102
{ACAD_REACTORS
330
2A
102
}
102
{ACAD_XDICTIONARY
360
541
102
}
330
2A
100
AcDbVisualStyle
  2
Facepattern
 70
    15
 71
     2
 72
     2
 73
     0
 90
        0
 40
0.6
 41
30.0
 62
     5
 63
     7
421
 16777215
 74
     1
 91
        4
 64
     7
 65
   257
 75
     1
175
     1
 42
1.0
 92
        8
 66
     7
 43
1.0
 76
     1
 77
     6
 78
     2
 67
     7
 79
     5
170
     0
171
     0
290
     0
174
     0
 93
        1
 44
0.0
173
     0
291
     1
 45
0.0
1001
ACAD
1000
AcDbSavedByObjectVersion
1070
     0
  0
VISUALSTYLE
  5
2B
102
{ACAD_REACTORS
330
2A
102
}
102
{ACAD_XDICTIONARY
360
525
102
}
330
2A
100
AcDbVisualStyle
  2
Flat
 70
     0
 71
     2
 72
     1
 73
     1
 90
        2
 40
0.6
 41
30.0
 62
     5
 63
     7
421
 16777215
 74
     0
 91
        4
 64
     7
 65
   257
 75
     1
175
     1
 42
1.0
 92
        8
 66
     7
 43
1.0
 76
     1
 77
     6
 78
     2
 67
     7
 79
     5
170
     0
171
     0
290
     0
174
     0
 93
       13
 44
0.0
173
     0
291
     1
 45
0.0
1001
ACAD
1000
AcDbSavedByObjectVersion
1070
     0
  0
VISUALSTYLE
  5
2C
102
{ACAD_REACTORS
330
2A
102
}
102
{ACAD_XDICTIONARY
360
527
102
}
330
2A
100
AcDbVisualStyle
  2
FlatWithEdges
 70
     1
 71
     2
 72
     1
 73
     1
 90
        2
 40
0.6
 41
30.0
 62
     5
 63
     7
421
 16777215
 74
     1
 91
        4
 64
     7
 65
   257
 75
     1
175
     1
 42
1.0
 92
        0
 66
   257
 43
1.0
 76
     1
 77
     6
 78
     2
 67
     7
 79
     5
170
     0
171
     0
290
     0
174
     0
 93
       13
 44
0.0
173
     0
291
     1
 45
0.0
1001
ACAD
1000
AcDbSavedByObjectVersion
1070
     0
  0
VISUALSTYLE
  5
2D
102
{ACAD_REACTORS
330
2A
102
}
102
{ACAD_XDICTIONARY
360
529
102
}
330
2A
100
AcDbVisualStyle
  2
Gouraud
 70
     2
 71
     2
 72
     2
 73
     1
 90
        2
 40
0.6
 41
30.0
 62
     5
 63
     7
421
 16777215
 74
     0
 91
        4
 64
     7
 65
   257
 75
     1
175
     1
 42
1.0
 92
        0
 66
     7
 43
1.0
 76
     1
 77
     6
 78
     2
 67
     7
 79
     5
170
     0
171
     0
290
     0
174
     0
 93
       13
 44
0.0
173
     0
291
     1
 45
0.0
1001
ACAD
1000
AcDbSavedByObjectVersion
1070
     0
  0
VISUALSTYLE
  5
2E
102
{ACAD_REACTORS
330
2A
102
}
102
{ACAD_XDICTIONARY
360
52B
102
}
330
2A
100
AcDbVisualStyle
  2
GouraudWithEdges
 70
     3
 71
     2
 72
     2
 73
     1
 90
        2
 40
0.6
 41
30.0
 62
     5
 63
     7
421
 16777215
 74
     1
 91
        4
 64
     7
 65
   257
 75
     1
175
     1
 42
1.0
 92
        0
 66
   257
 43
1.0
 76
     1
 77
     6
 78
     2
 67
     7
 79
     5
170
     0
171
     0
290
     0
174
     0
 93
       13
 44
0.0
173
     0
291
     1
 45
0.0
1001
ACAD
1000
AcDbSavedByObjectVersion
1070
     0
  0
VISUALSTYLE
  5
38
102
{ACAD_REACTORS
330
2A
102
}
102
{ACAD_XDICTIONARY
360
53F
102
}
330
2A
100
AcDbVisualStyle
  2
Linepattern
 70
    14
 71
     2
 72
     2
 73
     0
 90
        0
 40
0.6
 41
30.0
 62
     5
 63
     7
421
 16777215
 74
     1
 91
        4
 64
     7
 65
   257
 75
     7
175
     7
 42
1.0
 92
        8
 66
     7
 43
1.0
 76
     1
 77
     6
 78
     2
 67
     7
 79
     5
170
     0
171
     0
290
     0
174
     0
 93
        1
 44
0.0
173
     0
291
     1
 45
0.0
1001
ACAD
1000
AcDbSavedByObjectVersion
1070
     0
  0
VISUALSTYLE
  5
33
102
{ACAD_REACTORS
330
2A
102
}
102
{ACAD_XDICTIONARY
360
535
102
}
330
2A
100
AcDbVisualStyle
  2
Realistic
 70
     8
 71
     2
 72
     3
 73
     0
 90
        2
 40
0.6
 41
30.0
 62
     5
 63
     7
421
 16777215
 74
     0
 91
        0
 64
     7
 65
   257
 75
     1
175
     1
 42
1.0
 92
        8
 66
   257
 43
1.0
 76
     1
 77
     6
 78
     2
 67
     7
 79
     3
170
     0
171
     0
290
     0
174
     0
 93
       13
 44
0.0
173
     0
291
     0
 45
0.0
1001
ACAD
1000
AcDbSavedByObjectVersion
1070
     0
  0
VISUALSTYLE
  5
37
102
{ACAD_REACTORS
330
2A
102
}
102
{ACAD_XDICTIONARY
360
53D
102
}
330
2A
100
AcDbVisualStyle
  2
Thicken
 70
    13
 71
     2
 72
     2
 73
     0
 90
        0
 40
0.6
 41
30.0
 62
     5
 63
     7
421
 16777215
 74
     1
 91
        4
 64
     7
 65
   257
 75
     1
175
     1
 42
1.0
 92
       12
 66
     7
 43
1.0
 76
     1
 77
     6
 78
     2
 67
     7
 79
     5
170
     0
171
     0
290
     0
174
     0
 93
        1
 44
0.0
173
     0
291
     1
 45
0.0
1001
ACAD
1000
AcDbSavedByObjectVersion
1070
     0
  0
DICTIONARYVAR
  5
523
102
{ACAD_REACTORS
330
522
102
}
330
522
100
DictionaryVariables
280
     0
  1
1:1
  0
DICTIONARYVAR
  5
524
102
{ACAD_REACTORS
330
522
102
}
330
522
100
DictionaryVariables
280
     0
  1
1
  0
DICTIONARY
  5
547
330
3D
100
AcDbDictionary
280
     1
281
     1
  3
ACAD_XREC_ROUNDTRIP
360
548
  0
DICTIONARY
  5
545
330
3C
100
AcDbDictionary
280
     1
281
     1
  3
ACAD_XREC_ROUNDTRIP
360
546
  0
DICTIONARY
  5
549
330
3E
100
AcDbDictionary
280
     1
281
     1
  3
ACAD_XREC_ROUNDTRIP
360
54A
  0
DICTIONARY
  5
52D
330
2F
100
AcDbDictionary
280
     1
281
     1
  3
ACAD_XREC_ROUNDTRIP
360
52E
  0
DICTIONARY
  5
531
330
31
100
AcDbDictionary
280
     1
281
     1
  3
ACAD_XREC_ROUNDTRIP
360
532
  0
DICTIONARY
  5
52F
330
30
100
AcDbDictionary
280
     1
281
     1
  3
ACAD_XREC_ROUNDTRIP
360
530
  0
DICTIONARY
  5
533
330
32
100
AcDbDictionary
280
     1
281
     1
  3
ACAD_XREC_ROUNDTRIP
360
534
  0
DICTIONARY
  5
53B
330
36
100
AcDbDictionary
280
     1
281
     1
  3
ACAD_XREC_ROUNDTRIP
360
53C
  0
DICTIONARY
  5
543
330
3A
100
AcDbDictionary
280
     1
281
     1
  3
ACAD_XREC_ROUNDTRIP
360
544
  0
DICTIONARY
  5
537
330
34
100
AcDbDictionary
280
     1
281
     1
  3
ACAD_XREC_ROUNDTRIP
360
538
  0
DICTIONARY
  5
539
330
35
100
AcDbDictionary
280
     1
281
     1
  3
ACAD_XREC_ROUNDTRIP
360
53A
  0
DICTIONARY
  5
541
330
39
100
AcDbDictionary
280
     1
281
     1
  3
ACAD_XREC_ROUNDTRIP
360
542
  0
DICTIONARY
  5
525
330
2B
100
AcDbDictionary
280
     1
281
     1
  3
ACAD_XREC_ROUNDTRIP
360
526
  0
DICTIONARY
  5
527
330
2C
100
AcDbDictionary
280
     1
281
     1
  3
ACAD_XREC_ROUNDTRIP
360
528
  0
DICTIONARY
  5
529
330
2D
100
AcDbDictionary
280
     1
281
     1
  3
ACAD_XREC_ROUNDTRIP
360
52A
  0
DICTIONARY
  5
52B
330
2E
100
AcDbDictionary
280
     1
281
     1
  3
ACAD_XREC_ROUNDTRIP
360
52C
  0
DICTIONARY
  5
53F
330
38
100
AcDbDictionary
280
     1
281
     1
  3
ACAD_XREC_ROUNDTRIP
360
540
  0
DICTIONARY
  5
535
330
33
100
AcDbDictionary
280
     1
281
     1
  3
ACAD_XREC_ROUNDTRIP
360
536
  0
DICTIONARY
  5
53D
330
37
100
AcDbDictionary
280
     1
281
     1
  3
ACAD_XREC_ROUNDTRIP
360
53E
  0
XRECORD
  5
548
102
{ACAD_REACTORS
330
547
102
}
330
547
100
AcDbXrecord
280
     1
102
MATERIAL
148
0.0
149
0.0
149
0.0
 93
        0
 94
      127
282
     0
 72
     1
 77
     1
171
     1
175
     1
179
     1
273
     0
  0
XRECORD
  5
546
102
{ACAD_REACTORS
330
545
102
}
330
545
100
AcDbXrecord
280
     1
102
MATERIAL
148
0.0
149
0.0
149
0.0
 93
        0
 94
      127
282
     0
 72
     1
 77
     1
171
     1
175
     1
179
     1
273
     0
  0
XRECORD
  5
54A
102
{ACAD_REACTORS
330
549
102
}
330
549
100
AcDbXrecord
280
     1
102
MATERIAL
148
0.0
149
0.0
149
0.0
 93
        0
 94
      127
282
     0
 72
     1
 77
     1
171
     1
175
     1
179
     1
273
     0
  0
XRECORD
  5
52E
102
{ACAD_REACTORS
330
52D
102
}
330
52D
100
AcDbXrecord
280
     1
102
RTVSPropertyOp0
 70
     1
102
RTVSPropertyOp1
 70
     1
102
RTVSPropertyOp2
 70
     1
102
RTVSPropertyOp3
 70
     1
102
RTVSPropertyOp4
 70
     1
102
RTVSPropertyOp5
 70
     1
102
RTVSPropertyOp6
 70
     1
102
RTVSPropertyOp7
 70
     1
102
RTVSPropertyOp8
 70
     1
102
RTVSPropertyOp9
 70
     1
102
RTVSPropertyOp10
 70
     1
102
RTVSPropertyOp11
 70
     1
102
RTVSPropertyOp12
 70
     1
102
RTVSPropertyOp13
 70
     1
102
RTVSPropertyOp14
 70
     1
102
RTVSPropertyOp15
 70
     1
102
RTVSPropertyOp16
 70
     1
102
RTVSPropertyOp17
 70
     1
102
RTVSPropertyOp18
 70
     1
102
RTVSPropertyOp19
 70
     1
102
RTVSPropertyOp20
 70
     1
102
RTVSPropertyOp21
 70
     1
102
RTVSPropertyOp22
 70
     1
102
RTVSPropertyOp23
 70
     1
102
RTVSPropertyOp24
 70
     1
102
RTVSPropertyOp25
 70
     1
102
RTVSPropertyOp26
 70
     1
102
RTVSPropertyOp27
 70
     1
102
RTVSPropertyOp28
 70
     1
102
RTVSPropertyOp29
 70
     1
102
RTVSPropertyOp30
 70
     1
102
RTVSPropertyOp31
 70
     1
102
RTVSPropertyOp32
 70
     1
102
RTVSPropertyOp33
 70
     1
102
RTVSPropertyOp34
 70
     1
102
RTVSPropertyOp35
 70
     1
102
RTVSPropertyOp36
 70
     1
102
RTVSPropertyOp37
 70
     1
102
RTVSPropertyOp38
 70
     1
102
RTVSPropertyOp39
 70
     1
102
RTVSPropertyOp40
 70
     1
102
RTVSPropertyOp41
 70
     1
102
RTVSPropertyOp42
 70
     1
102
RTVSPropertyOp43
 70
     1
102
RTVSPropertyOp44
 70
     1
102
RTVSPropertyOp45
 70
     1
102
RTVSPropertyOp46
 70
     1
102
RTVSPropertyOp47
 70
     1
102
RTVSPropertyOp48
 70
     1
102
RTVSPropertyOp49
 70
     1
102
RTVSPropertyOp50
 70
     1
102
RTVSPropertyOp51
 70
     0
102
RTVSPropertyOp52
 70
     0
102
RTVSPropertyOp53
 70
     1
102
RTVSPropertyOp54
 70
     1
102
RTVSPropertyOp55
 70
     1
102
RTVSPropertyOp56
 70
     1
102
RTVSPropertyOp57
 70
     1
102
RTVSPost2010Prop28
280
     1
102
RTVSPost2010PropOp28
 70
     1
102
RTVSPost2010Prop29
280
     1
102
RTVSPost2010PropOp29
 70
     1
102
RTVSPost2010Prop30
280
     0
102
RTVSPost2010PropOp30
 70
     1
102
RTVSPost2010Prop31
280
     0
102
RTVSPost2010PropOp31
 70
     1
102
RTVSPost2010Prop32
280
     0
102
RTVSPost2010PropOp32
 70
     1
102
RTVSPost2010Prop33
280
     0
102
RTVSPost2010PropOp33
 70
     1
102
RTVSPost2010Prop34
280
     0
102
RTVSPost2010PropOp34
 70
     1
102
RTVSPost2010Prop35
280
     0
102
RTVSPost2010PropOp35
 70
     1
102
RTVSPost2010Prop36
280
     0
102
RTVSPost2010PropOp36
 70
     1
102
RTVSPost2010Prop37
 90
       50
102
RTVSPost2010PropOp37
 70
     1
102
RTVSPost2010Prop38
140
0.0
102
RTVSPost2010PropOp38
 70
     1
102
RTVSPost2010Prop39
140
1.0
102
RTVSPost2010PropOp39
 70
     1
102
RTVSPost2010Prop40
 90
        0
102
RTVSPost2010PropOp40
 70
     1
102
RTVSPost2010Prop41ColorIndex
 90
       18
102
RTVSPost2010Prop41ColorRGB
 90
        0
102
RTVSPost2010PropOp41
 70
     1
102
RTVSPost2010Prop42
 90
       50
102
RTVSPost2010PropOp42
 70
     1
102
RTVSPost2010Prop43
 90
        3
102
RTVSPost2010PropOp43
 70
     1
102
RTVSPost2010Prop44ColorIndex
 90
        5
102
RTVSPost2010Prop44ColorRGB
 90
      255
102
RTVSPost2010PropOp44
 70
     1
102
RTVSPost2010Prop45
280
     0
102
RTVSPost2010PropOp45
 70
     1
102
RTVSPost2010Prop46
 90
       50
102
RTVSPost2010PropOp46
 70
     1
102
RTVSPost2010Prop47
 90
       50
102
RTVSPost2010PropOp47
 70
     1
102
RTVSPost2010Prop48
 90
       50
102
RTVSPost2010PropOp48
 70
     1
102
RTVSPost2010Prop49
280
     0
102
RTVSPost2010PropOp49
 70
     1
102
RTVSPost2010Prop50
 90
       50
102
RTVSPost2010PropOp50
 70
     1
102
RTVSPost2010Prop51ColorIndex
 90
      256
102
RTVSPost2010Prop51ColorRGB
 90
-16777216
102
RTVSPost2010PropOp51
 70
     0
102
RTVSPost2010Prop52
140
1.0
102
RTVSPost2010PropOp52
 70
     0
102
RTVSPost2010Prop53
 90
        2
102
RTVSPost2010PropOp53
 70
     1
102
RTVSPost2010Prop54
  1
strokes_ogs.tif
102
RTVSPost2010PropOp54
 70
     1
102
RTVSPost2010Prop55
280
     0
102
RTVSPost2010PropOp55
 70
     1
102
RTVSPost2010Prop56
140
1.0
102
RTVSPost2010PropOp56
 70
     1
102
RTVSPost2010Prop57
140
1.0
102
RTVSPost2010PropOp57
 70
     1
  0
XRECORD
  5
532
102
{ACAD_REACTORS
330
531
102
}
330
531
100
AcDbXrecord
280
     1
102
RTVSPropertyOp0
 70
     1
102
RTVSPropertyOp1
 70
     1
102
RTVSPropertyOp2
 70
     1
102
RTVSPropertyOp3
 70
     1
102
RTVSPropertyOp4
 70
     1
102
RTVSPropertyOp5
 70
     1
102
RTVSPropertyOp6
 70
     1
102
RTVSPropertyOp7
 70
     1
102
RTVSPropertyOp8
 70
     1
102
RTVSPropertyOp9
 70
     1
102
RTVSPropertyOp10
 70
     1
102
RTVSPropertyOp11
 70
     1
102
RTVSPropertyOp12
 70
     1
102
RTVSPropertyOp13
 70
     1
102
RTVSPropertyOp14
 70
     1
102
RTVSPropertyOp15
 70
     1
102
RTVSPropertyOp16
 70
     1
102
RTVSPropertyOp17
 70
     1
102
RTVSPropertyOp18
 70
     1
102
RTVSPropertyOp19
 70
     1
102
RTVSPropertyOp20
 70
     1
102
RTVSPropertyOp21
 70
     1
102
RTVSPropertyOp22
 70
     1
102
RTVSPropertyOp23
 70
     1
102
RTVSPropertyOp24
 70
     1
102
RTVSPropertyOp25
 70
     1
102
RTVSPropertyOp26
 70
     1
102
RTVSPropertyOp27
 70
     1
102
RTVSPropertyOp28
 70
     1
102
RTVSPropertyOp29
 70
     1
102
RTVSPropertyOp30
 70
     1
102
RTVSPropertyOp31
 70
     1
102
RTVSPropertyOp32
 70
     1
102
RTVSPropertyOp33
 70
     1
102
RTVSPropertyOp34
 70
     1
102
RTVSPropertyOp35
 70
     1
102
RTVSPropertyOp36
 70
     1
102
RTVSPropertyOp37
 70
     1
102
RTVSPropertyOp38
 70
     1
102
RTVSPropertyOp39
 70
     1
102
RTVSPropertyOp40
 70
     1
102
RTVSPropertyOp41
 70
     1
102
RTVSPropertyOp42
 70
     1
102
RTVSPropertyOp43
 70
     1
102
RTVSPropertyOp44
 70
     1
102
RTVSPropertyOp45
 70
     1
102
RTVSPropertyOp46
 70
     1
102
RTVSPropertyOp47
 70
     1
102
RTVSPropertyOp48
 70
     1
102
RTVSPropertyOp49
 70
     1
102
RTVSPropertyOp50
 70
     1
102
RTVSPropertyOp51
 70
     0
102
RTVSPropertyOp52
 70
     0
102
RTVSPropertyOp53
 70
     1
102
RTVSPropertyOp54
 70
     1
102
RTVSPropertyOp55
 70
     1
102
RTVSPropertyOp56
 70
     1
102
RTVSPropertyOp57
 70
     1
102
RTVSPost2010Prop28
280
     0
102
RTVSPost2010PropOp28
 70
     1
102
RTVSPost2010Prop29
280
     1
102
RTVSPost2010PropOp29
 70
     1
102
RTVSPost2010Prop30
280
     1
102
RTVSPost2010PropOp30
 70
     1
102
RTVSPost2010Prop31
280
     0
102
RTVSPost2010PropOp31
 70
     1
102
RTVSPost2010Prop32
280
     0
102
RTVSPost2010PropOp32
 70
     1
102
RTVSPost2010Prop33
280
     0
102
RTVSPost2010PropOp33
 70
     1
102
RTVSPost2010Prop34
280
     0
102
RTVSPost2010PropOp34
 70
     1
102
RTVSPost2010Prop35
280
     0
102
RTVSPost2010PropOp35
 70
     1
102
RTVSPost2010Prop36
280
     0
102
RTVSPost2010PropOp36
 70
     1
102
RTVSPost2010Prop37
 90
       50
102
RTVSPost2010PropOp37
 70
     1
102
RTVSPost2010Prop38
140
0.0
102
RTVSPost2010PropOp38
 70
     1
102
RTVSPost2010Prop39
140
1.0
102
RTVSPost2010PropOp39
 70
     1
102
RTVSPost2010Prop40
 90
        0
102
RTVSPost2010PropOp40
 70
     1
102
RTVSPost2010Prop41ColorIndex
 90
       18
102
RTVSPost2010Prop41ColorRGB
 90
        0
102
RTVSPost2010PropOp41
 70
     1
102
RTVSPost2010Prop42
 90
       50
102
RTVSPost2010PropOp42
 70
     1
102
RTVSPost2010Prop43
 90
        3
102
RTVSPost2010PropOp43
 70
     1
102
RTVSPost2010Prop44ColorIndex
 90
        5
102
RTVSPost2010Prop44ColorRGB
 90
      255
102
RTVSPost2010PropOp44
 70
     1
102
RTVSPost2010Prop45
280
     0
102
RTVSPost2010PropOp45
 70
     1
102
RTVSPost2010Prop46
 90
       50
102
RTVSPost2010PropOp46
 70
     1
102
RTVSPost2010Prop47
 90
       50
102
RTVSPost2010PropOp47
 70
     1
102
RTVSPost2010Prop48
 90
       50
102
RTVSPost2010PropOp48
 70
     1
102
RTVSPost2010Prop49
280
     0
102
RTVSPost2010PropOp49
 70
     1
102
RTVSPost2010Prop50
 90
       50
102
RTVSPost2010PropOp50
 70
     1
102
RTVSPost2010Prop51ColorIndex
 90
      256
102
RTVSPost2010Prop51ColorRGB
 90
-16777216
102
RTVSPost2010PropOp51
 70
     0
102
RTVSPost2010Prop52
140
1.0
102
RTVSPost2010PropOp52
 70
     0
102
RTVSPost2010Prop53
 90
        2
102
RTVSPost2010PropOp53
 70
     1
102
RTVSPost2010Prop54
  1
strokes_ogs.tif
102
RTVSPost2010PropOp54
 70
     1
102
RTVSPost2010Prop55
280
     0
102
RTVSPost2010PropOp55
 70
     1
102
RTVSPost2010Prop56
140
1.0
102
RTVSPost2010PropOp56
 70
     1
102
RTVSPost2010Prop57
140
1.0
102
RTVSPost2010PropOp57
 70
     1
  0
XRECORD
  5
530
102
{ACAD_REACTORS
330
52F
102
}
330
52F
100
AcDbXrecord
280
     1
102
RTVSPropertyOp0
 70
     1
102
RTVSPropertyOp1
 70
     1
102
RTVSPropertyOp2
 70
     1
102
RTVSPropertyOp3
 70
     1
102
RTVSPropertyOp4
 70
     1
102
RTVSPropertyOp5
 70
     1
102
RTVSPropertyOp6
 70
     1
102
RTVSPropertyOp7
 70
     1
102
RTVSPropertyOp8
 70
     1
102
RTVSPropertyOp9
 70
     1
102
RTVSPropertyOp10
 70
     1
102
RTVSPropertyOp11
 70
     1
102
RTVSPropertyOp12
 70
     1
102
RTVSPropertyOp13
 70
     1
102
RTVSPropertyOp14
 70
     1
102
RTVSPropertyOp15
 70
     1
102
RTVSPropertyOp16
 70
     1
102
RTVSPropertyOp17
 70
     1
102
RTVSPropertyOp18
 70
     1
102
RTVSPropertyOp19
 70
     1
102
RTVSPropertyOp20
 70
     1
102
RTVSPropertyOp21
 70
     1
102
RTVSPropertyOp22
 70
     1
102
RTVSPropertyOp23
 70
     1
102
RTVSPropertyOp24
 70
     1
102
RTVSPropertyOp25
 70
     1
102
RTVSPropertyOp26
 70
     1
102
RTVSPropertyOp27
 70
     1
102
RTVSPropertyOp28
 70
     1
102
RTVSPropertyOp29
 70
     1
102
RTVSPropertyOp30
 70
     1
102
RTVSPropertyOp31
 70
     1
102
RTVSPropertyOp32
 70
     1
102
RTVSPropertyOp33
 70
     1
102
RTVSPropertyOp34
 70
     1
102
RTVSPropertyOp35
 70
     1
102
RTVSPropertyOp36
 70
     1
102
RTVSPropertyOp37
 70
     1
102
RTVSPropertyOp38
 70
     1
102
RTVSPropertyOp39
 70
     1
102
RTVSPropertyOp40
 70
     1
102
RTVSPropertyOp41
 70
     1
102
RTVSPropertyOp42
 70
     1
102
RTVSPropertyOp43
 70
     1
102
RTVSPropertyOp44
 70
     1
102
RTVSPropertyOp45
 70
     1
102
RTVSPropertyOp46
 70
     1
102
RTVSPropertyOp47
 70
     1
102
RTVSPropertyOp48
 70
     1
102
RTVSPropertyOp49
 70
     1
102
RTVSPropertyOp50
 70
     1
102
RTVSPropertyOp51
 70
     0
102
RTVSPropertyOp52
 70
     0
102
RTVSPropertyOp53
 70
     1
102
RTVSPropertyOp54
 70
     1
102
RTVSPropertyOp55
 70
     1
102
RTVSPropertyOp56
 70
     1
102
RTVSPropertyOp57
 70
     1
102
RTVSPost2010Prop28
280
     0
102
RTVSPost2010PropOp28
 70
     1
102
RTVSPost2010Prop29
280
     1
102
RTVSPost2010PropOp29
 70
     1
102
RTVSPost2010Prop30
280
     1
102
RTVSPost2010PropOp30
 70
     1
102
RTVSPost2010Prop31
280
     0
102
RTVSPost2010PropOp31
 70
     1
102
RTVSPost2010Prop32
280
     0
102
RTVSPost2010PropOp32
 70
     1
102
RTVSPost2010Prop33
280
     0
102
RTVSPost2010PropOp33
 70
     1
102
RTVSPost2010Prop34
280
     0
102
RTVSPost2010PropOp34
 70
     1
102
RTVSPost2010Prop35
280
     0
102
RTVSPost2010PropOp35
 70
     1
102
RTVSPost2010Prop36
280
     0
102
RTVSPost2010PropOp36
 70
     1
102
RTVSPost2010Prop37
 90
       50
102
RTVSPost2010PropOp37
 70
     1
102
RTVSPost2010Prop38
140
0.0
102
RTVSPost2010PropOp38
 70
     1
102
RTVSPost2010Prop39
140
1.0
102
RTVSPost2010PropOp39
 70
     1
102
RTVSPost2010Prop40
 90
        0
102
RTVSPost2010PropOp40
 70
     1
102
RTVSPost2010Prop41ColorIndex
 90
       18
102
RTVSPost2010Prop41ColorRGB
 90
        0
102
RTVSPost2010PropOp41
 70
     1
102
RTVSPost2010Prop42
 90
       50
102
RTVSPost2010PropOp42
 70
     1
102
RTVSPost2010Prop43
 90
        3
102
RTVSPost2010PropOp43
 70
     1
102
RTVSPost2010Prop44ColorIndex
 90
        5
102
RTVSPost2010Prop44ColorRGB
 90
      255
102
RTVSPost2010PropOp44
 70
     1
102
RTVSPost2010Prop45
280
     0
102
RTVSPost2010PropOp45
 70
     1
102
RTVSPost2010Prop46
 90
       50
102
RTVSPost2010PropOp46
 70
     1
102
RTVSPost2010Prop47
 90
       50
102
RTVSPost2010PropOp47
 70
     1
102
RTVSPost2010Prop48
 90
       50
102
RTVSPost2010PropOp48
 70
     1
102
RTVSPost2010Prop49
280
     0
102
RTVSPost2010PropOp49
 70
     1
102
RTVSPost2010Prop50
 90
       50
102
RTVSPost2010PropOp50
 70
     1
102
RTVSPost2010Prop51ColorIndex
 90
      256
102
RTVSPost2010Prop51ColorRGB
 90
-16777216
102
RTVSPost2010PropOp51
 70
     0
102
RTVSPost2010Prop52
140
1.0
102
RTVSPost2010PropOp52
 70
     0
102
RTVSPost2010Prop53
 90
        2
102
RTVSPost2010PropOp53
 70
     1
102
RTVSPost2010Prop54
  1
strokes_ogs.tif
102
RTVSPost2010PropOp54
 70
     1
102
RTVSPost2010Prop55
280
     0
102
RTVSPost2010PropOp55
 70
     1
102
RTVSPost2010Prop56
140
1.0
102
RTVSPost2010PropOp56
 70
     1
102
RTVSPost2010Prop57
140
1.0
102
RTVSPost2010PropOp57
 70
     1
  0
XRECORD
  5
534
102
{ACAD_REACTORS
330
533
102
}
330
533
100
AcDbXrecord
280
     1
102
RTVSPropertyOp0
 70
     1
102
RTVSPropertyOp1
 70
     1
102
RTVSPropertyOp2
 70
     1
102
RTVSPropertyOp3
 70
     1
102
RTVSPropertyOp4
 70
     1
102
RTVSPropertyOp5
 70
     1
102
RTVSPropertyOp6
 70
     1
102
RTVSPropertyOp7
 70
     1
102
RTVSPropertyOp8
 70
     1
102
RTVSPropertyOp9
 70
     1
102
RTVSPropertyOp10
 70
     1
102
RTVSPropertyOp11
 70
     1
102
RTVSPropertyOp12
 70
     1
102
RTVSPropertyOp13
 70
     1
102
RTVSPropertyOp14
 70
     1
102
RTVSPropertyOp15
 70
     1
102
RTVSPropertyOp16
 70
     1
102
RTVSPropertyOp17
 70
     1
102
RTVSPropertyOp18
 70
     1
102
RTVSPropertyOp19
 70
     1
102
RTVSPropertyOp20
 70
     1
102
RTVSPropertyOp21
 70
     1
102
RTVSPropertyOp22
 70
     1
102
RTVSPropertyOp23
 70
     1
102
RTVSPropertyOp24
 70
     1
102
RTVSPropertyOp25
 70
     1
102
RTVSPropertyOp26
 70
     1
102
RTVSPropertyOp27
 70
     1
102
RTVSPropertyOp28
 70
     1
102
RTVSPropertyOp29
 70
     1
102
RTVSPropertyOp30
 70
     1
102
RTVSPropertyOp31
 70
     1
102
RTVSPropertyOp32
 70
     1
102
RTVSPropertyOp33
 70
     1
102
RTVSPropertyOp34
 70
     1
102
RTVSPropertyOp35
 70
     1
102
RTVSPropertyOp36
 70
     1
102
RTVSPropertyOp37
 70
     1
102
RTVSPropertyOp38
 70
     1
102
RTVSPropertyOp39
 70
     1
102
RTVSPropertyOp40
 70
     1
102
RTVSPropertyOp41
 70
     1
102
RTVSPropertyOp42
 70
     1
102
RTVSPropertyOp43
 70
     1
102
RTVSPropertyOp44
 70
     1
102
RTVSPropertyOp45
 70
     1
102
RTVSPropertyOp46
 70
     1
102
RTVSPropertyOp47
 70
     1
102
RTVSPropertyOp48
 70
     1
102
RTVSPropertyOp49
 70
     1
102
RTVSPropertyOp50
 70
     1
102
RTVSPropertyOp51
 70
     0
102
RTVSPropertyOp52
 70
     0
102
RTVSPropertyOp53
 70
     1
102
RTVSPropertyOp54
 70
     1
102
RTVSPropertyOp55
 70
     1
102
RTVSPropertyOp56
 70
     1
102
RTVSPropertyOp57
 70
     1
102
RTVSPost2010Prop28
280
     0
102
RTVSPost2010PropOp28
 70
     1
102
RTVSPost2010Prop29
280
     1
102
RTVSPost2010PropOp29
 70
     1
102
RTVSPost2010Prop30
280
     1
102
RTVSPost2010PropOp30
 70
     1
102
RTVSPost2010Prop31
280
     0
102
RTVSPost2010PropOp31
 70
     1
102
RTVSPost2010Prop32
280
     0
102
RTVSPost2010PropOp32
 70
     1
102
RTVSPost2010Prop33
280
     0
102
RTVSPost2010PropOp33
 70
     1
102
RTVSPost2010Prop34
280
     0
102
RTVSPost2010PropOp34
 70
     1
102
RTVSPost2010Prop35
280
     0
102
RTVSPost2010PropOp35
 70
     1
102
RTVSPost2010Prop36
280
     0
102
RTVSPost2010PropOp36
 70
     1
102
RTVSPost2010Prop37
 90
       50
102
RTVSPost2010PropOp37
 70
     1
102
RTVSPost2010Prop38
140
0.0
102
RTVSPost2010PropOp38
 70
     1
102
RTVSPost2010Prop39
140
1.0
102
RTVSPost2010PropOp39
 70
     1
102
RTVSPost2010Prop40
 90
        0
102
RTVSPost2010PropOp40
 70
     1
102
RTVSPost2010Prop41ColorIndex
 90
       18
102
RTVSPost2010Prop41ColorRGB
 90
        0
102
RTVSPost2010PropOp41
 70
     1
102
RTVSPost2010Prop42
 90
       50
102
RTVSPost2010PropOp42
 70
     1
102
RTVSPost2010Prop43
 90
        3
102
RTVSPost2010PropOp43
 70
     1
102
RTVSPost2010Prop44ColorIndex
 90
        5
102
RTVSPost2010Prop44ColorRGB
 90
      255
102
RTVSPost2010PropOp44
 70
     1
102
RTVSPost2010Prop45
280
     0
102
RTVSPost2010PropOp45
 70
     1
102
RTVSPost2010Prop46
 90
       50
102
RTVSPost2010PropOp46
 70
     1
102
RTVSPost2010Prop47
 90
       50
102
RTVSPost2010PropOp47
 70
     1
102
RTVSPost2010Prop48
 90
       50
102
RTVSPost2010PropOp48
 70
     1
102
RTVSPost2010Prop49
280
     0
102
RTVSPost2010PropOp49
 70
     1
102
RTVSPost2010Prop50
 90
       50
102
RTVSPost2010PropOp50
 70
     1
102
RTVSPost2010Prop51ColorIndex
 90
      256
102
RTVSPost2010Prop51ColorRGB
 90
-16777216
102
RTVSPost2010PropOp51
 70
     0
102
RTVSPost2010Prop52
140
1.0
102
RTVSPost2010PropOp52
 70
     0
102
RTVSPost2010Prop53
 90
        2
102
RTVSPost2010PropOp53
 70
     1
102
RTVSPost2010Prop54
  1
strokes_ogs.tif
102
RTVSPost2010PropOp54
 70
     1
102
RTVSPost2010Prop55
280
     0
102
RTVSPost2010PropOp55
 70
     1
102
RTVSPost2010Prop56
140
1.0
102
RTVSPost2010PropOp56
 70
     1
102
RTVSPost2010Prop57
140
1.0
102
RTVSPost2010PropOp57
 70
     1
  0
XRECORD
  5
53C
102
{ACAD_REACTORS
330
53B
102
}
330
53B
100
AcDbXrecord
280
     1
102
RTVSPropertyOp0
 70
     1
102
RTVSPropertyOp1
 70
     1
102
RTVSPropertyOp2
 70
     1
102
RTVSPropertyOp3
 70
     1
102
RTVSPropertyOp4
 70
     1
102
RTVSPropertyOp5
 70
     1
102
RTVSPropertyOp6
 70
     1
102
RTVSPropertyOp7
 70
     1
102
RTVSPropertyOp8
 70
     1
102
RTVSPropertyOp9
 70
     1
102
RTVSPropertyOp10
 70
     1
102
RTVSPropertyOp11
 70
     1
102
RTVSPropertyOp12
 70
     1
102
RTVSPropertyOp13
 70
     1
102
RTVSPropertyOp14
 70
     1
102
RTVSPropertyOp15
 70
     1
102
RTVSPropertyOp16
 70
     1
102
RTVSPropertyOp17
 70
     1
102
RTVSPropertyOp18
 70
     1
102
RTVSPropertyOp19
 70
     1
102
RTVSPropertyOp20
 70
     1
102
RTVSPropertyOp21
 70
     1
102
RTVSPropertyOp22
 70
     1
102
RTVSPropertyOp23
 70
     1
102
RTVSPropertyOp24
 70
     1
102
RTVSPropertyOp25
 70
     1
102
RTVSPropertyOp26
 70
     1
102
RTVSPropertyOp27
 70
     1
102
RTVSPropertyOp28
 70
     1
102
RTVSPropertyOp29
 70
     1
102
RTVSPropertyOp30
 70
     1
102
RTVSPropertyOp31
 70
     1
102
RTVSPropertyOp32
 70
     1
102
RTVSPropertyOp33
 70
     1
102
RTVSPropertyOp34
 70
     1
102
RTVSPropertyOp35
 70
     1
102
RTVSPropertyOp36
 70
     1
102
RTVSPropertyOp37
 70
     1
102
RTVSPropertyOp38
 70
     1
102
RTVSPropertyOp39
 70
     1
102
RTVSPropertyOp40
 70
     1
102
RTVSPropertyOp41
 70
     1
102
RTVSPropertyOp42
 70
     1
102
RTVSPropertyOp43
 70
     1
102
RTVSPropertyOp44
 70
     1
102
RTVSPropertyOp45
 70
     1
102
RTVSPropertyOp46
 70
     1
102
RTVSPropertyOp47
 70
     1
102
RTVSPropertyOp48
 70
     1
102
RTVSPropertyOp49
 70
     1
102
RTVSPropertyOp50
 70
     1
102
RTVSPropertyOp51
 70
     0
102
RTVSPropertyOp52
 70
     0
102
RTVSPropertyOp53
 70
     1
102
RTVSPropertyOp54
 70
     1
102
RTVSPropertyOp55
 70
     1
102
RTVSPropertyOp56
 70
     1
102
RTVSPropertyOp57
 70
     1
102
RTVSPost2010Prop28
280
     0
102
RTVSPost2010PropOp28
 70
     1
102
RTVSPost2010Prop29
280
     1
102
RTVSPost2010PropOp29
 70
     1
102
RTVSPost2010Prop30
280
     1
102
RTVSPost2010PropOp30
 70
     1
102
RTVSPost2010Prop31
280
     0
102
RTVSPost2010PropOp31
 70
     1
102
RTVSPost2010Prop32
280
     0
102
RTVSPost2010PropOp32
 70
     1
102
RTVSPost2010Prop33
280
     0
102
RTVSPost2010PropOp33
 70
     1
102
RTVSPost2010Prop34
280
     0
102
RTVSPost2010PropOp34
 70
     1
102
RTVSPost2010Prop35
280
     0
102
RTVSPost2010PropOp35
 70
     1
102
RTVSPost2010Prop36
280
     0
102
RTVSPost2010PropOp36
 70
     1
102
RTVSPost2010Prop37
 90
       50
102
RTVSPost2010PropOp37
 70
     1
102
RTVSPost2010Prop38
140
0.0
102
RTVSPost2010PropOp38
 70
     1
102
RTVSPost2010Prop39
140
1.0
102
RTVSPost2010PropOp39
 70
     1
102
RTVSPost2010Prop40
 90
        0
102
RTVSPost2010PropOp40
 70
     1
102
RTVSPost2010Prop41ColorIndex
 90
       18
102
RTVSPost2010Prop41ColorRGB
 90
        0
102
RTVSPost2010PropOp41
 70
     1
102
RTVSPost2010Prop42
 90
       50
102
RTVSPost2010PropOp42
 70
     1
102
RTVSPost2010Prop43
 90
        3
102
RTVSPost2010PropOp43
 70
     1
102
RTVSPost2010Prop44ColorIndex
 90
        5
102
RTVSPost2010Prop44ColorRGB
 90
      255
102
RTVSPost2010PropOp44
 70
     1
102
RTVSPost2010Prop45
280
     0
102
RTVSPost2010PropOp45
 70
     1
102
RTVSPost2010Prop46
 90
       50
102
RTVSPost2010PropOp46
 70
     1
102
RTVSPost2010Prop47
 90
       50
102
RTVSPost2010PropOp47
 70
     1
102
RTVSPost2010Prop48
 90
       50
102
RTVSPost2010PropOp48
 70
     1
102
RTVSPost2010Prop49
280
     0
102
RTVSPost2010PropOp49
 70
     1
102
RTVSPost2010Prop50
 90
       50
102
RTVSPost2010PropOp50
 70
     1
102
RTVSPost2010Prop51ColorIndex
 90
      256
102
RTVSPost2010Prop51ColorRGB
 90
-16777216
102
RTVSPost2010PropOp51
 70
     0
102
RTVSPost2010Prop52
140
1.0
102
RTVSPost2010PropOp52
 70
     0
102
RTVSPost2010Prop53
 90
        2
102
RTVSPost2010PropOp53
 70
     1
102
RTVSPost2010Prop54
  1
strokes_ogs.tif
102
RTVSPost2010PropOp54
 70
     1
102
RTVSPost2010Prop55
280
     0
102
RTVSPost2010PropOp55
 70
     1
102
RTVSPost2010Prop56
140
1.0
102
RTVSPost2010PropOp56
 70
     1
102
RTVSPost2010Prop57
140
1.0
102
RTVSPost2010PropOp57
 70
     1
  0
XRECORD
  5
544
102
{ACAD_REACTORS
330
543
102
}
330
543
100
AcDbXrecord
280
     1
102
RTVSPropertyOp0
 70
     1
102
RTVSPropertyOp1
 70
     1
102
RTVSPropertyOp2
 70
     1
102
RTVSPropertyOp3
 70
     1
102
RTVSPropertyOp4
 70
     1
102
RTVSPropertyOp5
 70
     1
102
RTVSPropertyOp6
 70
     1
102
RTVSPropertyOp7
 70
     1
102
RTVSPropertyOp8
 70
     1
102
RTVSPropertyOp9
 70
     1
102
RTVSPropertyOp10
 70
     1
102
RTVSPropertyOp11
 70
     1
102
RTVSPropertyOp12
 70
     1
102
RTVSPropertyOp13
 70
     1
102
RTVSPropertyOp14
 70
     1
102
RTVSPropertyOp15
 70
     1
102
RTVSPropertyOp16
 70
     1
102
RTVSPropertyOp17
 70
     1
102
RTVSPropertyOp18
 70
     1
102
RTVSPropertyOp19
 70
     1
102
RTVSPropertyOp20
 70
     1
102
RTVSPropertyOp21
 70
     1
102
RTVSPropertyOp22
 70
     1
102
RTVSPropertyOp23
 70
     1
102
RTVSPropertyOp24
 70
     1
102
RTVSPropertyOp25
 70
     1
102
RTVSPropertyOp26
 70
     1
102
RTVSPropertyOp27
 70
     1
102
RTVSPropertyOp28
 70
     1
102
RTVSPropertyOp29
 70
     1
102
RTVSPropertyOp30
 70
     1
102
RTVSPropertyOp31
 70
     1
102
RTVSPropertyOp32
 70
     1
102
RTVSPropertyOp33
 70
     1
102
RTVSPropertyOp34
 70
     1
102
RTVSPropertyOp35
 70
     1
102
RTVSPropertyOp36
 70
     1
102
RTVSPropertyOp37
 70
     1
102
RTVSPropertyOp38
 70
     1
102
RTVSPropertyOp39
 70
     1
102
RTVSPropertyOp40
 70
     1
102
RTVSPropertyOp41
 70
     1
102
RTVSPropertyOp42
 70
     1
102
RTVSPropertyOp43
 70
     1
102
RTVSPropertyOp44
 70
     1
102
RTVSPropertyOp45
 70
     1
102
RTVSPropertyOp46
 70
     1
102
RTVSPropertyOp47
 70
     1
102
RTVSPropertyOp48
 70
     1
102
RTVSPropertyOp49
 70
     1
102
RTVSPropertyOp50
 70
     1
102
RTVSPropertyOp51
 70
     0
102
RTVSPropertyOp52
 70
     0
102
RTVSPropertyOp53
 70
     1
102
RTVSPropertyOp54
 70
     1
102
RTVSPropertyOp55
 70
     1
102
RTVSPropertyOp56
 70
     1
102
RTVSPropertyOp57
 70
     1
102
RTVSPost2010Prop28
280
     0
102
RTVSPost2010PropOp28
 70
     1
102
RTVSPost2010Prop29
280
     1
102
RTVSPost2010PropOp29
 70
     1
102
RTVSPost2010Prop30
280
     1
102
RTVSPost2010PropOp30
 70
     1
102
RTVSPost2010Prop31
280
     0
102
RTVSPost2010PropOp31
 70
     1
102
RTVSPost2010Prop32
280
     0
102
RTVSPost2010PropOp32
 70
     1
102
RTVSPost2010Prop33
280
     0
102
RTVSPost2010PropOp33
 70
     1
102
RTVSPost2010Prop34
280
     0
102
RTVSPost2010PropOp34
 70
     1
102
RTVSPost2010Prop35
280
     0
102
RTVSPost2010PropOp35
 70
     1
102
RTVSPost2010Prop36
280
     0
102
RTVSPost2010PropOp36
 70
     1
102
RTVSPost2010Prop37
 90
       50
102
RTVSPost2010PropOp37
 70
     1
102
RTVSPost2010Prop38
140
0.0
102
RTVSPost2010PropOp38
 70
     1
102
RTVSPost2010Prop39
140
1.0
102
RTVSPost2010PropOp39
 70
     1
102
RTVSPost2010Prop40
 90
        0
102
RTVSPost2010PropOp40
 70
     1
102
RTVSPost2010Prop41ColorIndex
 90
       18
102
RTVSPost2010Prop41ColorRGB
 90
        0
102
RTVSPost2010PropOp41
 70
     1
102
RTVSPost2010Prop42
 90
       50
102
RTVSPost2010PropOp42
 70
     1
102
RTVSPost2010Prop43
 90
        3
102
RTVSPost2010PropOp43
 70
     1
102
RTVSPost2010Prop44ColorIndex
 90
        5
102
RTVSPost2010Prop44ColorRGB
 90
      255
102
RTVSPost2010PropOp44
 70
     1
102
RTVSPost2010Prop45
280
     0
102
RTVSPost2010PropOp45
 70
     1
102
RTVSPost2010Prop46
 90
       50
102
RTVSPost2010PropOp46
 70
     1
102
RTVSPost2010Prop47
 90
       50
102
RTVSPost2010PropOp47
 70
     1
102
RTVSPost2010Prop48
 90
       50
102
RTVSPost2010PropOp48
 70
     1
102
RTVSPost2010Prop49
280
     0
102
RTVSPost2010PropOp49
 70
     1
102
RTVSPost2010Prop50
 90
       50
102
RTVSPost2010PropOp50
 70
     1
102
RTVSPost2010Prop51ColorIndex
 90
      256
102
RTVSPost2010Prop51ColorRGB
 90
-16777216
102
RTVSPost2010PropOp51
 70
     0
102
RTVSPost2010Prop52
140
1.0
102
RTVSPost2010PropOp52
 70
     0
102
RTVSPost2010Prop53
 90
        2
102
RTVSPost2010PropOp53
 70
     1
102
RTVSPost2010Prop54
  1
strokes_ogs.tif
102
RTVSPost2010PropOp54
 70
     1
102
RTVSPost2010Prop55
280
     0
102
RTVSPost2010PropOp55
 70
     1
102
RTVSPost2010Prop56
140
1.0
102
RTVSPost2010PropOp56
 70
     1
102
RTVSPost2010Prop57
140
1.0
102
RTVSPost2010PropOp57
 70
     1
  0
XRECORD
  5
538
102
{ACAD_REACTORS
330
537
102
}
330
537
100
AcDbXrecord
280
     1
102
RTVSPropertyOp0
 70
     1
102
RTVSPropertyOp1
 70
     1
102
RTVSPropertyOp2
 70
     1
102
RTVSPropertyOp3
 70
     1
102
RTVSPropertyOp4
 70
     1
102
RTVSPropertyOp5
 70
     1
102
RTVSPropertyOp6
 70
     1
102
RTVSPropertyOp7
 70
     1
102
RTVSPropertyOp8
 70
     1
102
RTVSPropertyOp9
 70
     1
102
RTVSPropertyOp10
 70
     1
102
RTVSPropertyOp11
 70
     1
102
RTVSPropertyOp12
 70
     1
102
RTVSPropertyOp13
 70
     1
102
RTVSPropertyOp14
 70
     1
102
RTVSPropertyOp15
 70
     1
102
RTVSPropertyOp16
 70
     1
102
RTVSPropertyOp17
 70
     1
102
RTVSPropertyOp18
 70
     1
102
RTVSPropertyOp19
 70
     1
102
RTVSPropertyOp20
 70
     1
102
RTVSPropertyOp21
 70
     1
102
RTVSPropertyOp22
 70
     1
102
RTVSPropertyOp23
 70
     1
102
RTVSPropertyOp24
 70
     1
102
RTVSPropertyOp25
 70
     1
102
RTVSPropertyOp26
 70
     1
102
RTVSPropertyOp27
 70
     1
102
RTVSPropertyOp28
 70
     1
102
RTVSPropertyOp29
 70
     1
102
RTVSPropertyOp30
 70
     1
102
RTVSPropertyOp31
 70
     1
102
RTVSPropertyOp32
 70
     1
102
RTVSPropertyOp33
 70
     1
102
RTVSPropertyOp34
 70
     1
102
RTVSPropertyOp35
 70
     1
102
RTVSPropertyOp36
 70
     1
102
RTVSPropertyOp37
 70
     1
102
RTVSPropertyOp38
 70
     1
102
RTVSPropertyOp39
 70
     1
102
RTVSPropertyOp40
 70
     1
102
RTVSPropertyOp41
 70
     1
102
RTVSPropertyOp42
 70
     1
102
RTVSPropertyOp43
 70
     1
102
RTVSPropertyOp44
 70
     1
102
RTVSPropertyOp45
 70
     1
102
RTVSPropertyOp46
 70
     1
102
RTVSPropertyOp47
 70
     1
102
RTVSPropertyOp48
 70
     1
102
RTVSPropertyOp49
 70
     1
102
RTVSPropertyOp50
 70
     1
102
RTVSPropertyOp51
 70
     0
102
RTVSPropertyOp52
 70
     0
102
RTVSPropertyOp53
 70
     1
102
RTVSPropertyOp54
 70
     1
102
RTVSPropertyOp55
 70
     1
102
RTVSPropertyOp56
 70
     1
102
RTVSPropertyOp57
 70
     1
102
RTVSPost2010Prop28
280
     0
102
RTVSPost2010PropOp28
 70
     1
102
RTVSPost2010Prop29
280
     1
102
RTVSPost2010PropOp29
 70
     1
102
RTVSPost2010Prop30
280
     1
102
RTVSPost2010PropOp30
 70
     1
102
RTVSPost2010Prop31
280
     0
102
RTVSPost2010PropOp31
 70
     1
102
RTVSPost2010Prop32
280
     0
102
RTVSPost2010PropOp32
 70
     1
102
RTVSPost2010Prop33
280
     0
102
RTVSPost2010PropOp33
 70
     1
102
RTVSPost2010Prop34
280
     0
102
RTVSPost2010PropOp34
 70
     1
102
RTVSPost2010Prop35
280
     0
102
RTVSPost2010PropOp35
 70
     1
102
RTVSPost2010Prop36
280
     0
102
RTVSPost2010PropOp36
 70
     1
102
RTVSPost2010Prop37
 90
       50
102
RTVSPost2010PropOp37
 70
     1
102
RTVSPost2010Prop38
140
0.0
102
RTVSPost2010PropOp38
 70
     1
102
RTVSPost2010Prop39
140
1.0
102
RTVSPost2010PropOp39
 70
     1
102
RTVSPost2010Prop40
 90
        0
102
RTVSPost2010PropOp40
 70
     1
102
RTVSPost2010Prop41ColorIndex
 90
       18
102
RTVSPost2010Prop41ColorRGB
 90
        0
102
RTVSPost2010PropOp41
 70
     1
102
RTVSPost2010Prop42
 90
       50
102
RTVSPost2010PropOp42
 70
     1
102
RTVSPost2010Prop43
 90
        3
102
RTVSPost2010PropOp43
 70
     1
102
RTVSPost2010Prop44ColorIndex
 90
        5
102
RTVSPost2010Prop44ColorRGB
 90
      255
102
RTVSPost2010PropOp44
 70
     1
102
RTVSPost2010Prop45
280
     0
102
RTVSPost2010PropOp45
 70
     1
102
RTVSPost2010Prop46
 90
       50
102
RTVSPost2010PropOp46
 70
     1
102
RTVSPost2010Prop47
 90
       50
102
RTVSPost2010PropOp47
 70
     1
102
RTVSPost2010Prop48
 90
       50
102
RTVSPost2010PropOp48
 70
     1
102
RTVSPost2010Prop49
280
     0
102
RTVSPost2010PropOp49
 70
     1
102
RTVSPost2010Prop50
 90
       50
102
RTVSPost2010PropOp50
 70
     1
102
RTVSPost2010Prop51ColorIndex
 90
      256
102
RTVSPost2010Prop51ColorRGB
 90
-16777216
102
RTVSPost2010PropOp51
 70
     0
102
RTVSPost2010Prop52
140
1.0
102
RTVSPost2010PropOp52
 70
     0
102
RTVSPost2010Prop53
 90
        2
102
RTVSPost2010PropOp53
 70
     1
102
RTVSPost2010Prop54
  1
strokes_ogs.tif
102
RTVSPost2010PropOp54
 70
     1
102
RTVSPost2010Prop55
280
     0
102
RTVSPost2010PropOp55
 70
     1
102
RTVSPost2010Prop56
140
1.0
102
RTVSPost2010PropOp56
 70
     1
102
RTVSPost2010Prop57
140
1.0
102
RTVSPost2010PropOp57
 70
     1
  0
XRECORD
  5
53A
102
{ACAD_REACTORS
330
539
102
}
330
539
100
AcDbXrecord
280
     1
102
RTVSPropertyOp0
 70
     1
102
RTVSPropertyOp1
 70
     1
102
RTVSPropertyOp2
 70
     1
102
RTVSPropertyOp3
 70
     1
102
RTVSPropertyOp4
 70
     1
102
RTVSPropertyOp5
 70
     1
102
RTVSPropertyOp6
 70
     1
102
RTVSPropertyOp7
 70
     1
102
RTVSPropertyOp8
 70
     1
102
RTVSPropertyOp9
 70
     1
102
RTVSPropertyOp10
 70
     1
102
RTVSPropertyOp11
 70
     1
102
RTVSPropertyOp12
 70
     1
102
RTVSPropertyOp13
 70
     1
102
RTVSPropertyOp14
 70
     1
102
RTVSPropertyOp15
 70
     1
102
RTVSPropertyOp16
 70
     1
102
RTVSPropertyOp17
 70
     1
102
RTVSPropertyOp18
 70
     1
102
RTVSPropertyOp19
 70
     1
102
RTVSPropertyOp20
 70
     1
102
RTVSPropertyOp21
 70
     1
102
RTVSPropertyOp22
 70
     1
102
RTVSPropertyOp23
 70
     1
102
RTVSPropertyOp24
 70
     1
102
RTVSPropertyOp25
 70
     1
102
RTVSPropertyOp26
 70
     1
102
RTVSPropertyOp27
 70
     1
102
RTVSPropertyOp28
 70
     1
102
RTVSPropertyOp29
 70
     1
102
RTVSPropertyOp30
 70
     1
102
RTVSPropertyOp31
 70
     1
102
RTVSPropertyOp32
 70
     1
102
RTVSPropertyOp33
 70
     1
102
RTVSPropertyOp34
 70
     1
102
RTVSPropertyOp35
 70
     1
102
RTVSPropertyOp36
 70
     1
102
RTVSPropertyOp37
 70
     1
102
RTVSPropertyOp38
 70
     1
102
RTVSPropertyOp39
 70
     1
102
RTVSPropertyOp40
 70
     1
102
RTVSPropertyOp41
 70
     1
102
RTVSPropertyOp42
 70
     1
102
RTVSPropertyOp43
 70
     1
102
RTVSPropertyOp44
 70
     1
102
RTVSPropertyOp45
 70
     1
102
RTVSPropertyOp46
 70
     1
102
RTVSPropertyOp47
 70
     1
102
RTVSPropertyOp48
 70
     1
102
RTVSPropertyOp49
 70
     1
102
RTVSPropertyOp50
 70
     1
102
RTVSPropertyOp51
 70
     0
102
RTVSPropertyOp52
 70
     0
102
RTVSPropertyOp53
 70
     1
102
RTVSPropertyOp54
 70
     1
102
RTVSPropertyOp55
 70
     1
102
RTVSPropertyOp56
 70
     1
102
RTVSPropertyOp57
 70
     1
102
RTVSPost2010Prop28
280
     0
102
RTVSPost2010PropOp28
 70
     1
102
RTVSPost2010Prop29
280
     1
102
RTVSPost2010PropOp29
 70
     1
102
RTVSPost2010Prop30
280
     1
102
RTVSPost2010PropOp30
 70
     1
102
RTVSPost2010Prop31
280
     0
102
RTVSPost2010PropOp31
 70
     1
102
RTVSPost2010Prop32
280
     0
102
RTVSPost2010PropOp32
 70
     1
102
RTVSPost2010Prop33
280
     0
102
RTVSPost2010PropOp33
 70
     1
102
RTVSPost2010Prop34
280
     0
102
RTVSPost2010PropOp34
 70
     1
102
RTVSPost2010Prop35
280
     0
102
RTVSPost2010PropOp35
 70
     1
102
RTVSPost2010Prop36
280
     0
102
RTVSPost2010PropOp36
 70
     1
102
RTVSPost2010Prop37
 90
       50
102
RTVSPost2010PropOp37
 70
     1
102
RTVSPost2010Prop38
140
0.0
102
RTVSPost2010PropOp38
 70
     1
102
RTVSPost2010Prop39
140
1.0
102
RTVSPost2010PropOp39
 70
     1
102
RTVSPost2010Prop40
 90
        0
102
RTVSPost2010PropOp40
 70
     1
102
RTVSPost2010Prop41ColorIndex
 90
       18
102
RTVSPost2010Prop41ColorRGB
 90
        0
102
RTVSPost2010PropOp41
 70
     1
102
RTVSPost2010Prop42
 90
       50
102
RTVSPost2010PropOp42
 70
     1
102
RTVSPost2010Prop43
 90
        3
102
RTVSPost2010PropOp43
 70
     1
102
RTVSPost2010Prop44ColorIndex
 90
        5
102
RTVSPost2010Prop44ColorRGB
 90
      255
102
RTVSPost2010PropOp44
 70
     1
102
RTVSPost2010Prop45
280
     0
102
RTVSPost2010PropOp45
 70
     1
102
RTVSPost2010Prop46
 90
       50
102
RTVSPost2010PropOp46
 70
     1
102
RTVSPost2010Prop47
 90
       50
102
RTVSPost2010PropOp47
 70
     1
102
RTVSPost2010Prop48
 90
       50
102
RTVSPost2010PropOp48
 70
     1
102
RTVSPost2010Prop49
280
     0
102
RTVSPost2010PropOp49
 70
     1
102
RTVSPost2010Prop50
 90
       50
102
RTVSPost2010PropOp50
 70
     1
102
RTVSPost2010Prop51ColorIndex
 90
      256
102
RTVSPost2010Prop51ColorRGB
 90
-16777216
102
RTVSPost2010PropOp51
 70
     0
102
RTVSPost2010Prop52
140
1.0
102
RTVSPost2010PropOp52
 70
     0
102
RTVSPost2010Prop53
 90
        2
102
RTVSPost2010PropOp53
 70
     1
102
RTVSPost2010Prop54
  1
strokes_ogs.tif
102
RTVSPost2010PropOp54
 70
     1
102
RTVSPost2010Prop55
280
     0
102
RTVSPost2010PropOp55
 70
     1
102
RTVSPost2010Prop56
140
1.0
102
RTVSPost2010PropOp56
 70
     1
102
RTVSPost2010Prop57
140
1.0
102
RTVSPost2010PropOp57
 70
     1
  0
XRECORD
  5
542
102
{ACAD_REACTORS
330
541
102
}
330
541
100
AcDbXrecord
280
     1
102
RTVSPropertyOp0
 70
     1
102
RTVSPropertyOp1
 70
     1
102
RTVSPropertyOp2
 70
     1
102
RTVSPropertyOp3
 70
     1
102
RTVSPropertyOp4
 70
     1
102
RTVSPropertyOp5
 70
     1
102
RTVSPropertyOp6
 70
     1
102
RTVSPropertyOp7
 70
     1
102
RTVSPropertyOp8
 70
     1
102
RTVSPropertyOp9
 70
     1
102
RTVSPropertyOp10
 70
     1
102
RTVSPropertyOp11
 70
     1
102
RTVSPropertyOp12
 70
     1
102
RTVSPropertyOp13
 70
     1
102
RTVSPropertyOp14
 70
     1
102
RTVSPropertyOp15
 70
     1
102
RTVSPropertyOp16
 70
     1
102
RTVSPropertyOp17
 70
     1
102
RTVSPropertyOp18
 70
     1
102
RTVSPropertyOp19
 70
     1
102
RTVSPropertyOp20
 70
     1
102
RTVSPropertyOp21
 70
     1
102
RTVSPropertyOp22
 70
     1
102
RTVSPropertyOp23
 70
     1
102
RTVSPropertyOp24
 70
     1
102
RTVSPropertyOp25
 70
     1
102
RTVSPropertyOp26
 70
     1
102
RTVSPropertyOp27
 70
     1
102
RTVSPropertyOp28
 70
     1
102
RTVSPropertyOp29
 70
     1
102
RTVSPropertyOp30
 70
     1
102
RTVSPropertyOp31
 70
     1
102
RTVSPropertyOp32
 70
     1
102
RTVSPropertyOp33
 70
     1
102
RTVSPropertyOp34
 70
     1
102
RTVSPropertyOp35
 70
     1
102
RTVSPropertyOp36
 70
     1
102
RTVSPropertyOp37
 70
     1
102
RTVSPropertyOp38
 70
     1
102
RTVSPropertyOp39
 70
     1
102
RTVSPropertyOp40
 70
     1
102
RTVSPropertyOp41
 70
     1
102
RTVSPropertyOp42
 70
     1
102
RTVSPropertyOp43
 70
     1
102
RTVSPropertyOp44
 70
     1
102
RTVSPropertyOp45
 70
     1
102
RTVSPropertyOp46
 70
     1
102
RTVSPropertyOp47
 70
     1
102
RTVSPropertyOp48
 70
     1
102
RTVSPropertyOp49
 70
     1
102
RTVSPropertyOp50
 70
     1
102
RTVSPropertyOp51
 70
     0
102
RTVSPropertyOp52
 70
     0
102
RTVSPropertyOp53
 70
     1
102
RTVSPropertyOp54
 70
     1
102
RTVSPropertyOp55
 70
     1
102
RTVSPropertyOp56
 70
     1
102
RTVSPropertyOp57
 70
     1
102
RTVSPost2010Prop28
280
     0
102
RTVSPost2010PropOp28
 70
     1
102
RTVSPost2010Prop29
280
     1
102
RTVSPost2010PropOp29
 70
     1
102
RTVSPost2010Prop30
280
     1
102
RTVSPost2010PropOp30
 70
     1
102
RTVSPost2010Prop31
280
     0
102
RTVSPost2010PropOp31
 70
     1
102
RTVSPost2010Prop32
280
     0
102
RTVSPost2010PropOp32
 70
     1
102
RTVSPost2010Prop33
280
     0
102
RTVSPost2010PropOp33
 70
     1
102
RTVSPost2010Prop34
280
     0
102
RTVSPost2010PropOp34
 70
     1
102
RTVSPost2010Prop35
280
     0
102
RTVSPost2010PropOp35
 70
     1
102
RTVSPost2010Prop36
280
     0
102
RTVSPost2010PropOp36
 70
     1
102
RTVSPost2010Prop37
 90
       50
102
RTVSPost2010PropOp37
 70
     1
102
RTVSPost2010Prop38
140
0.0
102
RTVSPost2010PropOp38
 70
     1
102
RTVSPost2010Prop39
140
1.0
102
RTVSPost2010PropOp39
 70
     1
102
RTVSPost2010Prop40
 90
        0
102
RTVSPost2010PropOp40
 70
     1
102
RTVSPost2010Prop41ColorIndex
 90
       18
102
RTVSPost2010Prop41ColorRGB
 90
        0
102
RTVSPost2010PropOp41
 70
     1
102
RTVSPost2010Prop42
 90
       50
102
RTVSPost2010PropOp42
 70
     1
102
RTVSPost2010Prop43
 90
        3
102
RTVSPost2010PropOp43
 70
     1
102
RTVSPost2010Prop44ColorIndex
 90
        5
102
RTVSPost2010Prop44ColorRGB
 90
      255
102
RTVSPost2010PropOp44
 70
     1
102
RTVSPost2010Prop45
280
     0
102
RTVSPost2010PropOp45
 70
     1
102
RTVSPost2010Prop46
 90
       50
102
RTVSPost2010PropOp46
 70
     1
102
RTVSPost2010Prop47
 90
       50
102
RTVSPost2010PropOp47
 70
     1
102
RTVSPost2010Prop48
 90
       50
102
RTVSPost2010PropOp48
 70
     1
102
RTVSPost2010Prop49
280
     0
102
RTVSPost2010PropOp49
 70
     1
102
RTVSPost2010Prop50
 90
       50
102
RTVSPost2010PropOp50
 70
     1
102
RTVSPost2010Prop51ColorIndex
 90
      256
102
RTVSPost2010Prop51ColorRGB
 90
-16777216
102
RTVSPost2010PropOp51
 70
     0
102
RTVSPost2010Prop52
140
1.0
102
RTVSPost2010PropOp52
 70
     0
102
RTVSPost2010Prop53
 90
        2
102
RTVSPost2010PropOp53
 70
     1
102
RTVSPost2010Prop54
  1
strokes_ogs.tif
102
RTVSPost2010PropOp54
 70
     1
102
RTVSPost2010Prop55
280
     0
102
RTVSPost2010PropOp55
 70
     1
102
RTVSPost2010Prop56
140
1.0
102
RTVSPost2010PropOp56
 70
     1
102
RTVSPost2010Prop57
140
1.0
102
RTVSPost2010PropOp57
 70
     1
  0
XRECORD
  5
526
102
{ACAD_REACTORS
330
525
102
}
330
525
100
AcDbXrecord
280
     1
102
RTVSPropertyOp0
 70
     1
102
RTVSPropertyOp1
 70
     1
102
RTVSPropertyOp2
 70
     1
102
RTVSPropertyOp3
 70
     1
102
RTVSPropertyOp4
 70
     1
102
RTVSPropertyOp5
 70
     1
102
RTVSPropertyOp6
 70
     1
102
RTVSPropertyOp7
 70
     1
102
RTVSPropertyOp8
 70
     1
102
RTVSPropertyOp9
 70
     1
102
RTVSPropertyOp10
 70
     1
102
RTVSPropertyOp11
 70
     1
102
RTVSPropertyOp12
 70
     1
102
RTVSPropertyOp13
 70
     1
102
RTVSPropertyOp14
 70
     1
102
RTVSPropertyOp15
 70
     1
102
RTVSPropertyOp16
 70
     1
102
RTVSPropertyOp17
 70
     1
102
RTVSPropertyOp18
 70
     1
102
RTVSPropertyOp19
 70
     1
102
RTVSPropertyOp20
 70
     1
102
RTVSPropertyOp21
 70
     1
102
RTVSPropertyOp22
 70
     1
102
RTVSPropertyOp23
 70
     1
102
RTVSPropertyOp24
 70
     1
102
RTVSPropertyOp25
 70
     1
102
RTVSPropertyOp26
 70
     1
102
RTVSPropertyOp27
 70
     1
102
RTVSPropertyOp28
 70
     1
102
RTVSPropertyOp29
 70
     1
102
RTVSPropertyOp30
 70
     1
102
RTVSPropertyOp31
 70
     1
102
RTVSPropertyOp32
 70
     1
102
RTVSPropertyOp33
 70
     1
102
RTVSPropertyOp34
 70
     1
102
RTVSPropertyOp35
 70
     1
102
RTVSPropertyOp36
 70
     1
102
RTVSPropertyOp37
 70
     1
102
RTVSPropertyOp38
 70
     1
102
RTVSPropertyOp39
 70
     1
102
RTVSPropertyOp40
 70
     1
102
RTVSPropertyOp41
 70
     1
102
RTVSPropertyOp42
 70
     1
102
RTVSPropertyOp43
 70
     1
102
RTVSPropertyOp44
 70
     1
102
RTVSPropertyOp45
 70
     1
102
RTVSPropertyOp46
 70
     1
102
RTVSPropertyOp47
 70
     1
102
RTVSPropertyOp48
 70
     1
102
RTVSPropertyOp49
 70
     1
102
RTVSPropertyOp50
 70
     1
102
RTVSPropertyOp51
 70
     0
102
RTVSPropertyOp52
 70
     0
102
RTVSPropertyOp53
 70
     1
102
RTVSPropertyOp54
 70
     1
102
RTVSPropertyOp55
 70
     1
102
RTVSPropertyOp56
 70
     1
102
RTVSPropertyOp57
 70
     1
102
RTVSPost2010Prop28
280
     0
102
RTVSPost2010PropOp28
 70
     1
102
RTVSPost2010Prop29
280
     1
102
RTVSPost2010PropOp29
 70
     1
102
RTVSPost2010Prop30
280
     1
102
RTVSPost2010PropOp30
 70
     1
102
RTVSPost2010Prop31
280
     0
102
RTVSPost2010PropOp31
 70
     1
102
RTVSPost2010Prop32
280
     0
102
RTVSPost2010PropOp32
 70
     1
102
RTVSPost2010Prop33
280
     0
102
RTVSPost2010PropOp33
 70
     1
102
RTVSPost2010Prop34
280
     0
102
RTVSPost2010PropOp34
 70
     1
102
RTVSPost2010Prop35
280
     0
102
RTVSPost2010PropOp35
 70
     1
102
RTVSPost2010Prop36
280
     0
102
RTVSPost2010PropOp36
 70
     1
102
RTVSPost2010Prop37
 90
       50
102
RTVSPost2010PropOp37
 70
     1
102
RTVSPost2010Prop38
140
0.0
102
RTVSPost2010PropOp38
 70
     1
102
RTVSPost2010Prop39
140
1.0
102
RTVSPost2010PropOp39
 70
     1
102
RTVSPost2010Prop40
 90
        0
102
RTVSPost2010PropOp40
 70
     1
102
RTVSPost2010Prop41ColorIndex
 90
       18
102
RTVSPost2010Prop41ColorRGB
 90
        0
102
RTVSPost2010PropOp41
 70
     1
102
RTVSPost2010Prop42
 90
       50
102
RTVSPost2010PropOp42
 70
     1
102
RTVSPost2010Prop43
 90
        3
102
RTVSPost2010PropOp43
 70
     1
102
RTVSPost2010Prop44ColorIndex
 90
        5
102
RTVSPost2010Prop44ColorRGB
 90
      255
102
RTVSPost2010PropOp44
 70
     1
102
RTVSPost2010Prop45
280
     0
102
RTVSPost2010PropOp45
 70
     1
102
RTVSPost2010Prop46
 90
       50
102
RTVSPost2010PropOp46
 70
     1
102
RTVSPost2010Prop47
 90
       50
102
RTVSPost2010PropOp47
 70
     1
102
RTVSPost2010Prop48
 90
       50
102
RTVSPost2010PropOp48
 70
     1
102
RTVSPost2010Prop49
280
     0
102
RTVSPost2010PropOp49
 70
     1
102
RTVSPost2010Prop50
 90
       50
102
RTVSPost2010PropOp50
 70
     1
102
RTVSPost2010Prop51ColorIndex
 90
      256
102
RTVSPost2010Prop51ColorRGB
 90
-16777216
102
RTVSPost2010PropOp51
 70
     0
102
RTVSPost2010Prop52
140
1.0
102
RTVSPost2010PropOp52
 70
     0
102
RTVSPost2010Prop53
 90
        2
102
RTVSPost2010PropOp53
 70
     1
102
RTVSPost2010Prop54
  1
strokes_ogs.tif
102
RTVSPost2010PropOp54
 70
     1
102
RTVSPost2010Prop55
280
     0
102
RTVSPost2010PropOp55
 70
     1
102
RTVSPost2010Prop56
140
1.0
102
RTVSPost2010PropOp56
 70
     1
102
RTVSPost2010Prop57
140
1.0
102
RTVSPost2010PropOp57
 70
     1
  0
XRECORD
  5
528
102
{ACAD_REACTORS
330
527
102
}
330
527
100
AcDbXrecord
280
     1
102
RTVSPropertyOp0
 70
     1
102
RTVSPropertyOp1
 70
     1
102
RTVSPropertyOp2
 70
     1
102
RTVSPropertyOp3
 70
     1
102
RTVSPropertyOp4
 70
     1
102
RTVSPropertyOp5
 70
     1
102
RTVSPropertyOp6
 70
     1
102
RTVSPropertyOp7
 70
     1
102
RTVSPropertyOp8
 70
     1
102
RTVSPropertyOp9
 70
     1
102
RTVSPropertyOp10
 70
     1
102
RTVSPropertyOp11
 70
     1
102
RTVSPropertyOp12
 70
     1
102
RTVSPropertyOp13
 70
     1
102
RTVSPropertyOp14
 70
     1
102
RTVSPropertyOp15
 70
     1
102
RTVSPropertyOp16
 70
     1
102
RTVSPropertyOp17
 70
     1
102
RTVSPropertyOp18
 70
     1
102
RTVSPropertyOp19
 70
     1
102
RTVSPropertyOp20
 70
     1
102
RTVSPropertyOp21
 70
     1
102
RTVSPropertyOp22
 70
     1
102
RTVSPropertyOp23
 70
     1
102
RTVSPropertyOp24
 70
     1
102
RTVSPropertyOp25
 70
     1
102
RTVSPropertyOp26
 70
     1
102
RTVSPropertyOp27
 70
     1
102
RTVSPropertyOp28
 70
     1
102
RTVSPropertyOp29
 70
     1
102
RTVSPropertyOp30
 70
     1
102
RTVSPropertyOp31
 70
     1
102
RTVSPropertyOp32
 70
     1
102
RTVSPropertyOp33
 70
     1
102
RTVSPropertyOp34
 70
     1
102
RTVSPropertyOp35
 70
     1
102
RTVSPropertyOp36
 70
     1
102
RTVSPropertyOp37
 70
     1
102
RTVSPropertyOp38
 70
     1
102
RTVSPropertyOp39
 70
     1
102
RTVSPropertyOp40
 70
     1
102
RTVSPropertyOp41
 70
     1
102
RTVSPropertyOp42
 70
     1
102
RTVSPropertyOp43
 70
     1
102
RTVSPropertyOp44
 70
     1
102
RTVSPropertyOp45
 70
     1
102
RTVSPropertyOp46
 70
     1
102
RTVSPropertyOp47
 70
     1
102
RTVSPropertyOp48
 70
     1
102
RTVSPropertyOp49
 70
     1
102
RTVSPropertyOp50
 70
     1
102
RTVSPropertyOp51
 70
     0
102
RTVSPropertyOp52
 70
     0
102
RTVSPropertyOp53
 70
     1
102
RTVSPropertyOp54
 70
     1
102
RTVSPropertyOp55
 70
     1
102
RTVSPropertyOp56
 70
     1
102
RTVSPropertyOp57
 70
     1
102
RTVSPost2010Prop28
280
     0
102
RTVSPost2010PropOp28
 70
     1
102
RTVSPost2010Prop29
280
     1
102
RTVSPost2010PropOp29
 70
     1
102
RTVSPost2010Prop30
280
     1
102
RTVSPost2010PropOp30
 70
     1
102
RTVSPost2010Prop31
280
     0
102
RTVSPost2010PropOp31
 70
     1
102
RTVSPost2010Prop32
280
     0
102
RTVSPost2010PropOp32
 70
     1
102
RTVSPost2010Prop33
280
     0
102
RTVSPost2010PropOp33
 70
     1
102
RTVSPost2010Prop34
280
     0
102
RTVSPost2010PropOp34
 70
     1
102
RTVSPost2010Prop35
280
     0
102
RTVSPost2010PropOp35
 70
     1
102
RTVSPost2010Prop36
280
     0
102
RTVSPost2010PropOp36
 70
     1
102
RTVSPost2010Prop37
 90
       50
102
RTVSPost2010PropOp37
 70
     1
102
RTVSPost2010Prop38
140
0.0
102
RTVSPost2010PropOp38
 70
     1
102
RTVSPost2010Prop39
140
1.0
102
RTVSPost2010PropOp39
 70
     1
102
RTVSPost2010Prop40
 90
        0
102
RTVSPost2010PropOp40
 70
     1
102
RTVSPost2010Prop41ColorIndex
 90
       18
102
RTVSPost2010Prop41ColorRGB
 90
        0
102
RTVSPost2010PropOp41
 70
     1
102
RTVSPost2010Prop42
 90
       50
102
RTVSPost2010PropOp42
 70
     1
102
RTVSPost2010Prop43
 90
        3
102
RTVSPost2010PropOp43
 70
     1
102
RTVSPost2010Prop44ColorIndex
 90
        5
102
RTVSPost2010Prop44ColorRGB
 90
      255
102
RTVSPost2010PropOp44
 70
     1
102
RTVSPost2010Prop45
280
     0
102
RTVSPost2010PropOp45
 70
     1
102
RTVSPost2010Prop46
 90
       50
102
RTVSPost2010PropOp46
 70
     1
102
RTVSPost2010Prop47
 90
       50
102
RTVSPost2010PropOp47
 70
     1
102
RTVSPost2010Prop48
 90
       50
102
RTVSPost2010PropOp48
 70
     1
102
RTVSPost2010Prop49
280
     0
102
RTVSPost2010PropOp49
 70
     1
102
RTVSPost2010Prop50
 90
       50
102
RTVSPost2010PropOp50
 70
     1
102
RTVSPost2010Prop51ColorIndex
 90
      256
102
RTVSPost2010Prop51ColorRGB
 90
-16777216
102
RTVSPost2010PropOp51
 70
     0
102
RTVSPost2010Prop52
140
1.0
102
RTVSPost2010PropOp52
 70
     0
102
RTVSPost2010Prop53
 90
        2
102
RTVSPost2010PropOp53
 70
     1
102
RTVSPost2010Prop54
  1
strokes_ogs.tif
102
RTVSPost2010PropOp54
 70
     1
102
RTVSPost2010Prop55
280
     0
102
RTVSPost2010PropOp55
 70
     1
102
RTVSPost2010Prop56
140
1.0
102
RTVSPost2010PropOp56
 70
     1
102
RTVSPost2010Prop57
140
1.0
102
RTVSPost2010PropOp57
 70
     1
  0
XRECORD
  5
52A
102
{ACAD_REACTORS
330
529
102
}
330
529
100
AcDbXrecord
280
     1
102
RTVSPropertyOp0
 70
     1
102
RTVSPropertyOp1
 70
     1
102
RTVSPropertyOp2
 70
     1
102
RTVSPropertyOp3
 70
     1
102
RTVSPropertyOp4
 70
     1
102
RTVSPropertyOp5
 70
     1
102
RTVSPropertyOp6
 70
     1
102
RTVSPropertyOp7
 70
     1
102
RTVSPropertyOp8
 70
     1
102
RTVSPropertyOp9
 70
     1
102
RTVSPropertyOp10
 70
     1
102
RTVSPropertyOp11
 70
     1
102
RTVSPropertyOp12
 70
     1
102
RTVSPropertyOp13
 70
     1
102
RTVSPropertyOp14
 70
     1
102
RTVSPropertyOp15
 70
     1
102
RTVSPropertyOp16
 70
     1
102
RTVSPropertyOp17
 70
     1
102
RTVSPropertyOp18
 70
     1
102
RTVSPropertyOp19
 70
     1
102
RTVSPropertyOp20
 70
     1
102
RTVSPropertyOp21
 70
     1
102
RTVSPropertyOp22
 70
     1
102
RTVSPropertyOp23
 70
     1
102
RTVSPropertyOp24
 70
     1
102
RTVSPropertyOp25
 70
     1
102
RTVSPropertyOp26
 70
     1
102
RTVSPropertyOp27
 70
     1
102
RTVSPropertyOp28
 70
     1
102
RTVSPropertyOp29
 70
     1
102
RTVSPropertyOp30
 70
     1
102
RTVSPropertyOp31
 70
     1
102
RTVSPropertyOp32
 70
     1
102
RTVSPropertyOp33
 70
     1
102
RTVSPropertyOp34
 70
     1
102
RTVSPropertyOp35
 70
     1
102
RTVSPropertyOp36
 70
     1
102
RTVSPropertyOp37
 70
     1
102
RTVSPropertyOp38
 70
     1
102
RTVSPropertyOp39
 70
     1
102
RTVSPropertyOp40
 70
     1
102
RTVSPropertyOp41
 70
     1
102
RTVSPropertyOp42
 70
     1
102
RTVSPropertyOp43
 70
     1
102
RTVSPropertyOp44
 70
     1
102
RTVSPropertyOp45
 70
     1
102
RTVSPropertyOp46
 70
     1
102
RTVSPropertyOp47
 70
     1
102
RTVSPropertyOp48
 70
     1
102
RTVSPropertyOp49
 70
     1
102
RTVSPropertyOp50
 70
     1
102
RTVSPropertyOp51
 70
     0
102
RTVSPropertyOp52
 70
     0
102
RTVSPropertyOp53
 70
     1
102
RTVSPropertyOp54
 70
     1
102
RTVSPropertyOp55
 70
     1
102
RTVSPropertyOp56
 70
     1
102
RTVSPropertyOp57
 70
     1
102
RTVSPost2010Prop28
280
     0
102
RTVSPost2010PropOp28
 70
     1
102
RTVSPost2010Prop29
280
     1
102
RTVSPost2010PropOp29
 70
     1
102
RTVSPost2010Prop30
280
     1
102
RTVSPost2010PropOp30
 70
     1
102
RTVSPost2010Prop31
280
     0
102
RTVSPost2010PropOp31
 70
     1
102
RTVSPost2010Prop32
280
     0
102
RTVSPost2010PropOp32
 70
     1
102
RTVSPost2010Prop33
280
     0
102
RTVSPost2010PropOp33
 70
     1
102
RTVSPost2010Prop34
280
     0
102
RTVSPost2010PropOp34
 70
     1
102
RTVSPost2010Prop35
280
     0
102
RTVSPost2010PropOp35
 70
     1
102
RTVSPost2010Prop36
280
     0
102
RTVSPost2010PropOp36
 70
     1
102
RTVSPost2010Prop37
 90
       50
102
RTVSPost2010PropOp37
 70
     1
102
RTVSPost2010Prop38
140
0.0
102
RTVSPost2010PropOp38
 70
     1
102
RTVSPost2010Prop39
140
1.0
102
RTVSPost2010PropOp39
 70
     1
102
RTVSPost2010Prop40
 90
        0
102
RTVSPost2010PropOp40
 70
     1
102
RTVSPost2010Prop41ColorIndex
 90
       18
102
RTVSPost2010Prop41ColorRGB
 90
        0
102
RTVSPost2010PropOp41
 70
     1
102
RTVSPost2010Prop42
 90
       50
102
RTVSPost2010PropOp42
 70
     1
102
RTVSPost2010Prop43
 90
        3
102
RTVSPost2010PropOp43
 70
     1
102
RTVSPost2010Prop44ColorIndex
 90
        5
102
RTVSPost2010Prop44ColorRGB
 90
      255
102
RTVSPost2010PropOp44
 70
     1
102
RTVSPost2010Prop45
280
     0
102
RTVSPost2010PropOp45
 70
     1
102
RTVSPost2010Prop46
 90
       50
102
RTVSPost2010PropOp46
 70
     1
102
RTVSPost2010Prop47
 90
       50
102
RTVSPost2010PropOp47
 70
     1
102
RTVSPost2010Prop48
 90
       50
102
RTVSPost2010PropOp48
 70
     1
102
RTVSPost2010Prop49
280
     0
102
RTVSPost2010PropOp49
 70
     1
102
RTVSPost2010Prop50
 90
       50
102
RTVSPost2010PropOp50
 70
     1
102
RTVSPost2010Prop51ColorIndex
 90
      256
102
RTVSPost2010Prop51ColorRGB
 90
-16777216
102
RTVSPost2010PropOp51
 70
     0
102
RTVSPost2010Prop52
140
1.0
102
RTVSPost2010PropOp52
 70
     0
102
RTVSPost2010Prop53
 90
        2
102
RTVSPost2010PropOp53
 70
     1
102
RTVSPost2010Prop54
  1
strokes_ogs.tif
102
RTVSPost2010PropOp54
 70
     1
102
RTVSPost2010Prop55
280
     0
102
RTVSPost2010PropOp55
 70
     1
102
RTVSPost2010Prop56
140
1.0
102
RTVSPost2010PropOp56
 70
     1
102
RTVSPost2010Prop57
140
1.0
102
RTVSPost2010PropOp57
 70
     1
  0
XRECORD
  5
52C
102
{ACAD_REACTORS
330
52B
102
}
330
52B
100
AcDbXrecord
280
     1
102
RTVSPropertyOp0
 70
     1
102
RTVSPropertyOp1
 70
     1
102
RTVSPropertyOp2
 70
     1
102
RTVSPropertyOp3
 70
     1
102
RTVSPropertyOp4
 70
     1
102
RTVSPropertyOp5
 70
     1
102
RTVSPropertyOp6
 70
     1
102
RTVSPropertyOp7
 70
     1
102
RTVSPropertyOp8
 70
     1
102
RTVSPropertyOp9
 70
     1
102
RTVSPropertyOp10
 70
     1
102
RTVSPropertyOp11
 70
     1
102
RTVSPropertyOp12
 70
     1
102
RTVSPropertyOp13
 70
     1
102
RTVSPropertyOp14
 70
     1
102
RTVSPropertyOp15
 70
     1
102
RTVSPropertyOp16
 70
     1
102
RTVSPropertyOp17
 70
     1
102
RTVSPropertyOp18
 70
     1
102
RTVSPropertyOp19
 70
     1
102
RTVSPropertyOp20
 70
     1
102
RTVSPropertyOp21
 70
     1
102
RTVSPropertyOp22
 70
     1
102
RTVSPropertyOp23
 70
     1
102
RTVSPropertyOp24
 70
     1
102
RTVSPropertyOp25
 70
     1
102
RTVSPropertyOp26
 70
     1
102
RTVSPropertyOp27
 70
     1
102
RTVSPropertyOp28
 70
     1
102
RTVSPropertyOp29
 70
     1
102
RTVSPropertyOp30
 70
     1
102
RTVSPropertyOp31
 70
     1
102
RTVSPropertyOp32
 70
     1
102
RTVSPropertyOp33
 70
     1
102
RTVSPropertyOp34
 70
     1
102
RTVSPropertyOp35
 70
     1
102
RTVSPropertyOp36
 70
     1
102
RTVSPropertyOp37
 70
     1
102
RTVSPropertyOp38
 70
     1
102
RTVSPropertyOp39
 70
     1
102
RTVSPropertyOp40
 70
     1
102
RTVSPropertyOp41
 70
     1
102
RTVSPropertyOp42
 70
     1
102
RTVSPropertyOp43
 70
     1
102
RTVSPropertyOp44
 70
     1
102
RTVSPropertyOp45
 70
     1
102
RTVSPropertyOp46
 70
     1
102
RTVSPropertyOp47
 70
     1
102
RTVSPropertyOp48
 70
     1
102
RTVSPropertyOp49
 70
     1
102
RTVSPropertyOp50
 70
     1
102
RTVSPropertyOp51
 70
     0
102
RTVSPropertyOp52
 70
     0
102
RTVSPropertyOp53
 70
     1
102
RTVSPropertyOp54
 70
     1
102
RTVSPropertyOp55
 70
     1
102
RTVSPropertyOp56
 70
     1
102
RTVSPropertyOp57
 70
     1
102
RTVSPost2010Prop28
280
     0
102
RTVSPost2010PropOp28
 70
     1
102
RTVSPost2010Prop29
280
     1
102
RTVSPost2010PropOp29
 70
     1
102
RTVSPost2010Prop30
280
     1
102
RTVSPost2010PropOp30
 70
     1
102
RTVSPost2010Prop31
280
     0
102
RTVSPost2010PropOp31
 70
     1
102
RTVSPost2010Prop32
280
     0
102
RTVSPost2010PropOp32
 70
     1
102
RTVSPost2010Prop33
280
     0
102
RTVSPost2010PropOp33
 70
     1
102
RTVSPost2010Prop34
280
     0
102
RTVSPost2010PropOp34
 70
     1
102
RTVSPost2010Prop35
280
     0
102
RTVSPost2010PropOp35
 70
     1
102
RTVSPost2010Prop36
280
     0
102
RTVSPost2010PropOp36
 70
     1
102
RTVSPost2010Prop37
 90
       50
102
RTVSPost2010PropOp37
 70
     1
102
RTVSPost2010Prop38
140
0.0
102
RTVSPost2010PropOp38
 70
     1
102
RTVSPost2010Prop39
140
1.0
102
RTVSPost2010PropOp39
 70
     1
102
RTVSPost2010Prop40
 90
        0
102
RTVSPost2010PropOp40
 70
     1
102
RTVSPost2010Prop41ColorIndex
 90
       18
102
RTVSPost2010Prop41ColorRGB
 90
        0
102
RTVSPost2010PropOp41
 70
     1
102
RTVSPost2010Prop42
 90
       50
102
RTVSPost2010PropOp42
 70
     1
102
RTVSPost2010Prop43
 90
        3
102
RTVSPost2010PropOp43
 70
     1
102
RTVSPost2010Prop44ColorIndex
 90
        5
102
RTVSPost2010Prop44ColorRGB
 90
      255
102
RTVSPost2010PropOp44
 70
     1
102
RTVSPost2010Prop45
280
     0
102
RTVSPost2010PropOp45
 70
     1
102
RTVSPost2010Prop46
 90
       50
102
RTVSPost2010PropOp46
 70
     1
102
RTVSPost2010Prop47
 90
       50
102
RTVSPost2010PropOp47
 70
     1
102
RTVSPost2010Prop48
 90
       50
102
RTVSPost2010PropOp48
 70
     1
102
RTVSPost2010Prop49
280
     0
102
RTVSPost2010PropOp49
 70
     1
102
RTVSPost2010Prop50
 90
       50
102
RTVSPost2010PropOp50
 70
     1
102
RTVSPost2010Prop51ColorIndex
 90
      256
102
RTVSPost2010Prop51ColorRGB
 90
-16777216
102
RTVSPost2010PropOp51
 70
     0
102
RTVSPost2010Prop52
140
1.0
102
RTVSPost2010PropOp52
 70
     0
102
RTVSPost2010Prop53
 90
        2
102
RTVSPost2010PropOp53
 70
     1
102
RTVSPost2010Prop54
  1
strokes_ogs.tif
102
RTVSPost2010PropOp54
 70
     1
102
RTVSPost2010Prop55
280
     0
102
RTVSPost2010PropOp55
 70
     1
102
RTVSPost2010Prop56
140
1.0
102
RTVSPost2010PropOp56
 70
     1
102
RTVSPost2010Prop57
140
1.0
102
RTVSPost2010PropOp57
 70
     1
  0
XRECORD
  5
540
102
{ACAD_REACTORS
330
53F
102
}
330
53F
100
AcDbXrecord
280
     1
102
RTVSPropertyOp0
 70
     1
102
RTVSPropertyOp1
 70
     1
102
RTVSPropertyOp2
 70
     1
102
RTVSPropertyOp3
 70
     1
102
RTVSPropertyOp4
 70
     1
102
RTVSPropertyOp5
 70
     1
102
RTVSPropertyOp6
 70
     1
102
RTVSPropertyOp7
 70
     1
102
RTVSPropertyOp8
 70
     1
102
RTVSPropertyOp9
 70
     1
102
RTVSPropertyOp10
 70
     1
102
RTVSPropertyOp11
 70
     1
102
RTVSPropertyOp12
 70
     1
102
RTVSPropertyOp13
 70
     1
102
RTVSPropertyOp14
 70
     1
102
RTVSPropertyOp15
 70
     1
102
RTVSPropertyOp16
 70
     1
102
RTVSPropertyOp17
 70
     1
102
RTVSPropertyOp18
 70
     1
102
RTVSPropertyOp19
 70
     1
102
RTVSPropertyOp20
 70
     1
102
RTVSPropertyOp21
 70
     1
102
RTVSPropertyOp22
 70
     1
102
RTVSPropertyOp23
 70
     1
102
RTVSPropertyOp24
 70
     1
102
RTVSPropertyOp25
 70
     1
102
RTVSPropertyOp26
 70
     1
102
RTVSPropertyOp27
 70
     1
102
RTVSPropertyOp28
 70
     1
102
RTVSPropertyOp29
 70
     1
102
RTVSPropertyOp30
 70
     1
102
RTVSPropertyOp31
 70
     1
102
RTVSPropertyOp32
 70
     1
102
RTVSPropertyOp33
 70
     1
102
RTVSPropertyOp34
 70
     1
102
RTVSPropertyOp35
 70
     1
102
RTVSPropertyOp36
 70
     1
102
RTVSPropertyOp37
 70
     1
102
RTVSPropertyOp38
 70
     1
102
RTVSPropertyOp39
 70
     1
102
RTVSPropertyOp40
 70
     1
102
RTVSPropertyOp41
 70
     1
102
RTVSPropertyOp42
 70
     1
102
RTVSPropertyOp43
 70
     1
102
RTVSPropertyOp44
 70
     1
102
RTVSPropertyOp45
 70
     1
102
RTVSPropertyOp46
 70
     1
102
RTVSPropertyOp47
 70
     1
102
RTVSPropertyOp48
 70
     1
102
RTVSPropertyOp49
 70
     1
102
RTVSPropertyOp50
 70
     1
102
RTVSPropertyOp51
 70
     0
102
RTVSPropertyOp52
 70
     0
102
RTVSPropertyOp53
 70
     1
102
RTVSPropertyOp54
 70
     1
102
RTVSPropertyOp55
 70
     1
102
RTVSPropertyOp56
 70
     1
102
RTVSPropertyOp57
 70
     1
102
RTVSPost2010Prop28
280
     0
102
RTVSPost2010PropOp28
 70
     1
102
RTVSPost2010Prop29
280
     1
102
RTVSPost2010PropOp29
 70
     1
102
RTVSPost2010Prop30
280
     1
102
RTVSPost2010PropOp30
 70
     1
102
RTVSPost2010Prop31
280
     0
102
RTVSPost2010PropOp31
 70
     1
102
RTVSPost2010Prop32
280
     0
102
RTVSPost2010PropOp32
 70
     1
102
RTVSPost2010Prop33
280
     0
102
RTVSPost2010PropOp33
 70
     1
102
RTVSPost2010Prop34
280
     0
102
RTVSPost2010PropOp34
 70
     1
102
RTVSPost2010Prop35
280
     0
102
RTVSPost2010PropOp35
 70
     1
102
RTVSPost2010Prop36
280
     0
102
RTVSPost2010PropOp36
 70
     1
102
RTVSPost2010Prop37
 90
       50
102
RTVSPost2010PropOp37
 70
     1
102
RTVSPost2010Prop38
140
0.0
102
RTVSPost2010PropOp38
 70
     1
102
RTVSPost2010Prop39
140
1.0
102
RTVSPost2010PropOp39
 70
     1
102
RTVSPost2010Prop40
 90
        0
102
RTVSPost2010PropOp40
 70
     1
102
RTVSPost2010Prop41ColorIndex
 90
       18
102
RTVSPost2010Prop41ColorRGB
 90
        0
102
RTVSPost2010PropOp41
 70
     1
102
RTVSPost2010Prop42
 90
       50
102
RTVSPost2010PropOp42
 70
     1
102
RTVSPost2010Prop43
 90
        3
102
RTVSPost2010PropOp43
 70
     1
102
RTVSPost2010Prop44ColorIndex
 90
        5
102
RTVSPost2010Prop44ColorRGB
 90
      255
102
RTVSPost2010PropOp44
 70
     1
102
RTVSPost2010Prop45
280
     0
102
RTVSPost2010PropOp45
 70
     1
102
RTVSPost2010Prop46
 90
       50
102
RTVSPost2010PropOp46
 70
     1
102
RTVSPost2010Prop47
 90
       50
102
RTVSPost2010PropOp47
 70
     1
102
RTVSPost2010Prop48
 90
       50
102
RTVSPost2010PropOp48
 70
     1
102
RTVSPost2010Prop49
280
     0
102
RTVSPost2010PropOp49
 70
     1
102
RTVSPost2010Prop50
 90
       50
102
RTVSPost2010PropOp50
 70
     1
102
RTVSPost2010Prop51ColorIndex
 90
      256
102
RTVSPost2010Prop51ColorRGB
 90
-16777216
102
RTVSPost2010PropOp51
 70
     0
102
RTVSPost2010Prop52
140
1.0
102
RTVSPost2010PropOp52
 70
     0
102
RTVSPost2010Prop53
 90
        2
102
RTVSPost2010PropOp53
 70
     1
102
RTVSPost2010Prop54
  1
strokes_ogs.tif
102
RTVSPost2010PropOp54
 70
     1
102
RTVSPost2010Prop55
280
     0
102
RTVSPost2010PropOp55
 70
     1
102
RTVSPost2010Prop56
140
1.0
102
RTVSPost2010PropOp56
 70
     1
102
RTVSPost2010Prop57
140
1.0
102
RTVSPost2010PropOp57
 70
     1
  0
XRECORD
  5
536
102
{ACAD_REACTORS
330
535
102
}
330
535
100
AcDbXrecord
280
     1
102
RTVSPropertyOp0
 70
     1
102
RTVSPropertyOp1
 70
     1
102
RTVSPropertyOp2
 70
     1
102
RTVSPropertyOp3
 70
     1
102
RTVSPropertyOp4
 70
     1
102
RTVSPropertyOp5
 70
     1
102
RTVSPropertyOp6
 70
     1
102
RTVSPropertyOp7
 70
     1
102
RTVSPropertyOp8
 70
     1
102
RTVSPropertyOp9
 70
     1
102
RTVSPropertyOp10
 70
     1
102
RTVSPropertyOp11
 70
     1
102
RTVSPropertyOp12
 70
     1
102
RTVSPropertyOp13
 70
     1
102
RTVSPropertyOp14
 70
     1
102
RTVSPropertyOp15
 70
     1
102
RTVSPropertyOp16
 70
     1
102
RTVSPropertyOp17
 70
     1
102
RTVSPropertyOp18
 70
     1
102
RTVSPropertyOp19
 70
     1
102
RTVSPropertyOp20
 70
     1
102
RTVSPropertyOp21
 70
     1
102
RTVSPropertyOp22
 70
     1
102
RTVSPropertyOp23
 70
     1
102
RTVSPropertyOp24
 70
     1
102
RTVSPropertyOp25
 70
     1
102
RTVSPropertyOp26
 70
     1
102
RTVSPropertyOp27
 70
     1
102
RTVSPropertyOp28
 70
     1
102
RTVSPropertyOp29
 70
     1
102
RTVSPropertyOp30
 70
     1
102
RTVSPropertyOp31
 70
     1
102
RTVSPropertyOp32
 70
     1
102
RTVSPropertyOp33
 70
     1
102
RTVSPropertyOp34
 70
     1
102
RTVSPropertyOp35
 70
     1
102
RTVSPropertyOp36
 70
     1
102
RTVSPropertyOp37
 70
     1
102
RTVSPropertyOp38
 70
     1
102
RTVSPropertyOp39
 70
     1
102
RTVSPropertyOp40
 70
     1
102
RTVSPropertyOp41
 70
     1
102
RTVSPropertyOp42
 70
     1
102
RTVSPropertyOp43
 70
     1
102
RTVSPropertyOp44
 70
     1
102
RTVSPropertyOp45
 70
     1
102
RTVSPropertyOp46
 70
     1
102
RTVSPropertyOp47
 70
     1
102
RTVSPropertyOp48
 70
     1
102
RTVSPropertyOp49
 70
     1
102
RTVSPropertyOp50
 70
     1
102
RTVSPropertyOp51
 70
     0
102
RTVSPropertyOp52
 70
     0
102
RTVSPropertyOp53
 70
     1
102
RTVSPropertyOp54
 70
     1
102
RTVSPropertyOp55
 70
     1
102
RTVSPropertyOp56
 70
     1
102
RTVSPropertyOp57
 70
     1
102
RTVSPost2010Prop28
280
     0
102
RTVSPost2010PropOp28
 70
     1
102
RTVSPost2010Prop29
280
     1
102
RTVSPost2010PropOp29
 70
     1
102
RTVSPost2010Prop30
280
     1
102
RTVSPost2010PropOp30
 70
     1
102
RTVSPost2010Prop31
280
     0
102
RTVSPost2010PropOp31
 70
     1
102
RTVSPost2010Prop32
280
     0
102
RTVSPost2010PropOp32
 70
     1
102
RTVSPost2010Prop33
280
     0
102
RTVSPost2010PropOp33
 70
     1
102
RTVSPost2010Prop34
280
     0
102
RTVSPost2010PropOp34
 70
     1
102
RTVSPost2010Prop35
280
     0
102
RTVSPost2010PropOp35
 70
     1
102
RTVSPost2010Prop36
280
     0
102
RTVSPost2010PropOp36
 70
     1
102
RTVSPost2010Prop37
 90
       50
102
RTVSPost2010PropOp37
 70
     1
102
RTVSPost2010Prop38
140
0.0
102
RTVSPost2010PropOp38
 70
     1
102
RTVSPost2010Prop39
140
1.0
102
RTVSPost2010PropOp39
 70
     1
102
RTVSPost2010Prop40
 90
        0
102
RTVSPost2010PropOp40
 70
     1
102
RTVSPost2010Prop41ColorIndex
 90
       18
102
RTVSPost2010Prop41ColorRGB
 90
        0
102
RTVSPost2010PropOp41
 70
     1
102
RTVSPost2010Prop42
 90
       50
102
RTVSPost2010PropOp42
 70
     1
102
RTVSPost2010Prop43
 90
        3
102
RTVSPost2010PropOp43
 70
     1
102
RTVSPost2010Prop44ColorIndex
 90
        5
102
RTVSPost2010Prop44ColorRGB
 90
      255
102
RTVSPost2010PropOp44
 70
     1
102
RTVSPost2010Prop45
280
     0
102
RTVSPost2010PropOp45
 70
     1
102
RTVSPost2010Prop46
 90
       50
102
RTVSPost2010PropOp46
 70
     1
102
RTVSPost2010Prop47
 90
       50
102
RTVSPost2010PropOp47
 70
     1
102
RTVSPost2010Prop48
 90
       50
102
RTVSPost2010PropOp48
 70
     1
102
RTVSPost2010Prop49
280
     0
102
RTVSPost2010PropOp49
 70
     1
102
RTVSPost2010Prop50
 90
       50
102
RTVSPost2010PropOp50
 70
     1
102
RTVSPost2010Prop51ColorIndex
 90
      256
102
RTVSPost2010Prop51ColorRGB
 90
-16777216
102
RTVSPost2010PropOp51
 70
     0
102
RTVSPost2010Prop52
140
1.0
102
RTVSPost2010PropOp52
 70
     0
102
RTVSPost2010Prop53
 90
        2
102
RTVSPost2010PropOp53
 70
     1
102
RTVSPost2010Prop54
  1
strokes_ogs.tif
102
RTVSPost2010PropOp54
 70
     1
102
RTVSPost2010Prop55
280
     0
102
RTVSPost2010PropOp55
 70
     1
102
RTVSPost2010Prop56
140
1.0
102
RTVSPost2010PropOp56
 70
     1
102
RTVSPost2010Prop57
140
1.0
102
RTVSPost2010PropOp57
 70
     1
  0
XRECORD
  5
53E
102
{ACAD_REACTORS
330
53D
102
}
330
53D
100
AcDbXrecord
280
     1
102
RTVSPropertyOp0
 70
     1
102
RTVSPropertyOp1
 70
     1
102
RTVSPropertyOp2
 70
     1
102
RTVSPropertyOp3
 70
     1
102
RTVSPropertyOp4
 70
     1
102
RTVSPropertyOp5
 70
     1
102
RTVSPropertyOp6
 70
     1
102
RTVSPropertyOp7
 70
     1
102
RTVSPropertyOp8
 70
     1
102
RTVSPropertyOp9
 70
     1
102
RTVSPropertyOp10
 70
     1
102
RTVSPropertyOp11
 70
     1
102
RTVSPropertyOp12
 70
     1
102
RTVSPropertyOp13
 70
     1
102
RTVSPropertyOp14
 70
     1
102
RTVSPropertyOp15
 70
     1
102
RTVSPropertyOp16
 70
     1
102
RTVSPropertyOp17
 70
     1
102
RTVSPropertyOp18
 70
     1
102
RTVSPropertyOp19
 70
     1
102
RTVSPropertyOp20
 70
     1
102
RTVSPropertyOp21
 70
     1
102
RTVSPropertyOp22
 70
     1
102
RTVSPropertyOp23
 70
     1
102
RTVSPropertyOp24
 70
     1
102
RTVSPropertyOp25
 70
     1
102
RTVSPropertyOp26
 70
     1
102
RTVSPropertyOp27
 70
     1
102
RTVSPropertyOp28
 70
     1
102
RTVSPropertyOp29
 70
     1
102
RTVSPropertyOp30
 70
     1
102
RTVSPropertyOp31
 70
     1
102
RTVSPropertyOp32
 70
     1
102
RTVSPropertyOp33
 70
     1
102
RTVSPropertyOp34
 70
     1
102
RTVSPropertyOp35
 70
     1
102
RTVSPropertyOp36
 70
     1
102
RTVSPropertyOp37
 70
     1
102
RTVSPropertyOp38
 70
     1
102
RTVSPropertyOp39
 70
     1
102
RTVSPropertyOp40
 70
     1
102
RTVSPropertyOp41
 70
     1
102
RTVSPropertyOp42
 70
     1
102
RTVSPropertyOp43
 70
     1
102
RTVSPropertyOp44
 70
     1
102
RTVSPropertyOp45
 70
     1
102
RTVSPropertyOp46
 70
     1
102
RTVSPropertyOp47
 70
     1
102
RTVSPropertyOp48
 70
     1
102
RTVSPropertyOp49
 70
     1
102
RTVSPropertyOp50
 70
     1
102
RTVSPropertyOp51
 70
     0
102
RTVSPropertyOp52
 70
     0
102
RTVSPropertyOp53
 70
     1
102
RTVSPropertyOp54
 70
     1
102
RTVSPropertyOp55
 70
     1
102
RTVSPropertyOp56
 70
     1
102
RTVSPropertyOp57
 70
     1
102
RTVSPost2010Prop28
280
     0
102
RTVSPost2010PropOp28
 70
     1
102
RTVSPost2010Prop29
280
     1
102
RTVSPost2010PropOp29
 70
     1
102
RTVSPost2010Prop30
280
     1
102
RTVSPost2010PropOp30
 70
     1
102
RTVSPost2010Prop31
280
     0
102
RTVSPost2010PropOp31
 70
     1
102
RTVSPost2010Prop32
280
     0
102
RTVSPost2010PropOp32
 70
     1
102
RTVSPost2010Prop33
280
     0
102
RTVSPost2010PropOp33
 70
     1
102
RTVSPost2010Prop34
280
     0
102
RTVSPost2010PropOp34
 70
     1
102
RTVSPost2010Prop35
280
     0
102
RTVSPost2010PropOp35
 70
     1
102
RTVSPost2010Prop36
280
     0
102
RTVSPost2010PropOp36
 70
     1
102
RTVSPost2010Prop37
 90
       50
102
RTVSPost2010PropOp37
 70
     1
102
RTVSPost2010Prop38
140
0.0
102
RTVSPost2010PropOp38
 70
     1
102
RTVSPost2010Prop39
140
1.0
102
RTVSPost2010PropOp39
 70
     1
102
RTVSPost2010Prop40
 90
        0
102
RTVSPost2010PropOp40
 70
     1
102
RTVSPost2010Prop41ColorIndex
 90
       18
102
RTVSPost2010Prop41ColorRGB
 90
        0
102
RTVSPost2010PropOp41
 70
     1
102
RTVSPost2010Prop42
 90
       50
102
RTVSPost2010PropOp42
 70
     1
102
RTVSPost2010Prop43
 90
        3
102
RTVSPost2010PropOp43
 70
     1
102
RTVSPost2010Prop44ColorIndex
 90
        5
102
RTVSPost2010Prop44ColorRGB
 90
      255
102
RTVSPost2010PropOp44
 70
     1
102
RTVSPost2010Prop45
280
     0
102
RTVSPost2010PropOp45
 70
     1
102
RTVSPost2010Prop46
 90
       50
102
RTVSPost2010PropOp46
 70
     1
102
RTVSPost2010Prop47
 90
       50
102
RTVSPost2010PropOp47
 70
     1
102
RTVSPost2010Prop48
 90
       50
102
RTVSPost2010PropOp48
 70
     1
102
RTVSPost2010Prop49
280
     0
102
RTVSPost2010PropOp49
 70
     1
102
RTVSPost2010Prop50
 90
       50
102
RTVSPost2010PropOp50
 70
     1
102
RTVSPost2010Prop51ColorIndex
 90
      256
102
RTVSPost2010Prop51ColorRGB
 90
-16777216
102
RTVSPost2010PropOp51
 70
     0
102
RTVSPost2010Prop52
140
1.0
102
RTVSPost2010PropOp52
 70
     0
102
RTVSPost2010Prop53
 90
        2
102
RTVSPost2010PropOp53
 70
     1
102
RTVSPost2010Prop54
  1
strokes_ogs.tif
102
RTVSPost2010PropOp54
 70
     1
102
RTVSPost2010Prop55
280
     0
102
RTVSPost2010PropOp55
 70
     1
102
RTVSPost2010Prop56
140
1.0
102
RTVSPost2010PropOp56
 70
     1
102
RTVSPost2010Prop57
140
1.0
102
RTVSPost2010PropOp57
 70
     1
  0
ENDSEC
  0
EOF
