  0
SECTION
  2
HEADER
  9
$ACADVER
  1
AC1018
  9
$ACADMAINTVER
 70
     0
  9
$DWGCODEPAGE
  3
ANSI_936
  9
$INSBASE
 10
0.0
 20
0.0
 30
0.0
  9
$EXTMIN
 10
1008.035174991185
 20
726.9999999978494
 30
0.0
  9
$EXTMAX
 10
1631.035174991185
 20
1129.400013142411
 30
0.0
  9
$LIMMIN
 10
0.0
 20
0.0
  9
$LIMMAX
 10
12.0
 20
9.0
  9
$ORTHOMODE
 70
     0
  9
$REGENMODE
 70
     1
  9
$FILLMODE
 70
     1
  9
$QTEXTMODE
 70
     0
  9
$MIRRTEXT
 70
     1
  9
$LTSCALE
 40
1.0
  9
$ATTMODE
 70
     1
  9
$TEXTSIZE
 40
0.2
  9
$TRACEWID
 40
0.05
  9
$TEXTSTYLE
  7
Standard
  9
$CLAYER
  8
E98321
  9
$CELTYPE
  6
ByLayer
  9
$CECOLOR
 62
   256
  9
$CELTSCALE
 40
1.0
  9
$DISPSILH
 70
     0
  9
$DIMSCALE
 40
1.0
  9
$DIMASZ
 40
0.18
  9
$DIMEXO
 40
0.0625
  9
$DIMDLI
 40
0.38
  9
$DIMRND
 40
0.0
  9
$DIMDLE
 40
0.0
  9
$DIMEXE
 40
0.18
  9
$DIMTP
 40
0.0
  9
$DIMTM
 40
0.0
  9
$DIMTXT
 40
0.18
  9
$DIMCEN
 40
0.09
  9
$DIMTSZ
 40
0.0
  9
$DIMTOL
 70
     0
  9
$DIMLIM
 70
     0
  9
$DIMTIH
 70
     1
  9
$DIMTOH
 70
     1
  9
$DIMSE1
 70
     0
  9
$DIMSE2
 70
     0
  9
$DIMTAD
 70
     0
  9
$DIMZIN
 70
     0
  9
$DIMBLK
  1

  9
$DIMASO
 70
     1
  9
$DIMSHO
 70
     1
  9
$DIMPOST
  1

  9
$DIMAPOST
  1

  9
$DIMALT
 70
     0
  9
$DIMALTD
 70
     2
  9
$DIMALTF
 40
25.4
  9
$DIMLFAC
 40
1.0
  9
$DIMTOFL
 70
     0
  9
$DIMTVP
 40
0.0
  9
$DIMTIX
 70
     0
  9
$DIMSOXD
 70
     0
  9
$DIMSAH
 70
     0
  9
$DIMBLK1
  1

  9
$DIMBLK2
  1

  9
$DIMSTYLE
  2
Standard
  9
$DIMCLRD
 70
     0
  9
$DIMCLRE
 70
     0
  9
$DIMCLRT
 70
     0
  9
$DIMTFAC
 40
1.0
  9
$DIMGAP
 40
0.09
  9
$DIMJUST
 70
     0
  9
$DIMSD1
 70
     0
  9
$DIMSD2
 70
     0
  9
$DIMTOLJ
 70
     1
  9
$DIMTZIN
 70
     0
  9
$DIMALTZ
 70
     0
  9
$DIMALTTZ
 70
     0
  9
$DIMUPT
 70
     0
  9
$DIMDEC
 70
     4
  9
$DIMTDEC
 70
     4
  9
$DIMALTU
 70
     2
  9
$DIMALTTD
 70
     2
  9
$DIMTXSTY
  7
Standard
  9
$DIMAUNIT
 70
     0
  9
$DIMADEC
 70
     0
  9
$DIMALTRND
 40
0.0
  9
$DIMAZIN
 70
     0
  9
$DIMDSEP
 70
    46
  9
$DIMATFIT
 70
     3
  9
$DIMFRAC
 70
     0
  9
$DIMLDRBLK
  1

  9
$DIMLUNIT
 70
     2
  9
$DIMLWD
 70
    -2
  9
$DIMLWE
 70
    -2
  9
$DIMTMOVE
 70
     2
  9
$LUNITS
 70
     2
  9
$LUPREC
 70
     2
  9
$SKETCHINC
 40
0.1
  9
$FILLETRAD
 40
0.5
  9
$AUNITS
 70
     0
  9
$AUPREC
 70
     0
  9
$MENU
  1
.
  9
$ELEVATION
 40
0.0
  9
$PELEVATION
 40
0.0
  9
$THICKNESS
 40
0.0
  9
$LIMCHECK
 70
     0
  9
$CHAMFERA
 40
0.5
  9
$CHAMFERB
 40
0.5
  9
$CHAMFERC
 40
1.0
  9
$CHAMFERD
 40
0.0
  9
$SKPOLY
 70
     0
  9
$TDCREATE
 40
2456724.021710417
  9
$TDUCREATE
 40
2456723.688377083
  9
$TDUPDATE
 40
2456724.021711667
  9
$TDUUPDATE
 40
2456723.688378333
  9
$TDINDWG
 40
0.0000000116
  9
$TDUSRTIMER
 40
0.0000000116
  9
$USRTIMER
 70
     1
  9
$ANGBASE
 50
0.0
  9
$ANGDIR
 70
     0
  9
$PDMODE
 70
     0
  9
$PDSIZE
 40
0.0
  9
$PLINEWID
 40
0.0
  9
$SPLFRAME
 70
     0
  9
$SPLINETYPE
 70
     6
  9
$SPLINESEGS
 70
     8
  9
$HANDSEED
  5
47C
  9
$SURFTAB1
 70
     6
  9
$SURFTAB2
 70
     6
  9
$SURFTYPE
 70
     6
  9
$SURFU
 70
     6
  9
$SURFV
 70
     6
  9
$UCSBASE
  2

  9
$UCSNAME
  2

  9
$UCSORG
 10
0.0
 20
0.0
 30
0.0
  9
$UCSXDIR
 10
1.0
 20
0.0
 30
0.0
  9
$UCSYDIR
 10
0.0
 20
1.0
 30
0.0
  9
$UCSORTHOREF
  2

  9
$UCSORTHOVIEW
 70
     0
  9
$UCSORGTOP
 10
0.0
 20
0.0
 30
0.0
  9
$UCSORGBOTTOM
 10
0.0
 20
0.0
 30
0.0
  9
$UCSORGLEFT
 10
0.0
 20
0.0
 30
0.0
  9
$UCSORGRIGHT
 10
0.0
 20
0.0
 30
0.0
  9
$UCSORGFRONT
 10
0.0
 20
0.0
 30
0.0
  9
$UCSORGBACK
 10
0.0
 20
0.0
 30
0.0
  9
$PUCSBASE
  2

  9
$PUCSNAME
  2

  9
$PUCSORG
 10
0.0
 20
0.0
 30
0.0
  9
$PUCSXDIR
 10
1.0
 20
0.0
 30
0.0
  9
$PUCSYDIR
 10
0.0
 20
1.0
 30
0.0
  9
$PUCSORTHOREF
  2

  9
$PUCSORTHOVIEW
 70
     0
  9
$PUCSORGTOP
 10
0.0
 20
0.0
 30
0.0
  9
$PUCSORGBOTTOM
 10
0.0
 20
0.0
 30
0.0
  9
$PUCSORGLEFT
 10
0.0
 20
0.0
 30
0.0
  9
$PUCSORGRIGHT
 10
0.0
 20
0.0
 30
0.0
  9
$PUCSORGFRONT
 10
0.0
 20
0.0
 30
0.0
  9
$PUCSORGBACK
 10
0.0
 20
0.0
 30
0.0
  9
$USERI1
 70
     0
  9
$USERI2
 70
     0
  9
$USERI3
 70
     0
  9
$USERI4
 70
     0
  9
$USERI5
 70
     0
  9
$USERR1
 40
0.0
  9
$USERR2
 40
0.0
  9
$USERR3
 40
0.0
  9
$USERR4
 40
0.0
  9
$USERR5
 40
0.0
  9
$WORLDVIEW
 70
     1
  9
$SHADEDGE
 70
     3
  9
$SHADEDIF
 70
    70
  9
$TILEMODE
 70
     1
  9
$MAXACTVP
 70
    64
  9
$PINSBASE
 10
0.0
 20
0.0
 30
0.0
  9
$PLIMCHECK
 70
     0
  9
$PEXTMIN
 10
1.000000000000000E+20
 20
1.000000000000000E+20
 30
1.000000000000000E+20
  9
$PEXTMAX
 10
-1.000000000000000E+20
 20
-1.000000000000000E+20
 30
-1.000000000000000E+20
  9
$PLIMMIN
 10
0.0
 20
0.0
  9
$PLIMMAX
 10
12.0
 20
9.0
  9
$UNITMODE
 70
     0
  9
$VISRETAIN
 70
     1
  9
$PLINEGEN
 70
     0
  9
$PSLTSCALE
 70
     1
  9
$TREEDEPTH
 70
  3020
  9
$CMLSTYLE
  2
Standard
  9
$CMLJUST
 70
     0
  9
$CMLSCALE
 40
1.0
  9
$PROXYGRAPHICS
 70
     1
  9
$MEASUREMENT
 70
     0
  9
$CELWEIGHT
370
    -1
  9
$ENDCAPS
280
     0
  9
$JOINSTYLE
280
     0
  9
$LWDISPLAY
290
     0
  9
$INSUNITS
 70
     4
  9
$HYPERLINKBASE
  1

  9
$STYLESHEET
  1

  9
$XEDIT
290
     1
  9
$CEPSNTYPE
380
     0
  9
$PSTYLEMODE
290
     1
  9
$FINGERPRINTGUID
  2
{FFF23EAE-996C-4B2F-8EC4-5D8F84503394}
  9
$VERSIONGUID
  2
{FAEB1C32-E019-11D5-929B-00C0DF256EC4}
  9
$EXTNAMES
290
     1
  9
$PSVPSCALE
 40
0.0
  9
$OLESTARTUP
290
     0
  9
$SORTENTS
280
   127
  9
$INDEXCTL
280
     0
  9
$HIDETEXT
280
     1
  9
$XCLIPFRAME
290
     0
  9
$HALOGAP
280
     0
  9
$OBSCOLOR
 70
   257
  9
$OBSLTYPE
280
     0
  9
$INTERSECTIONDISPLAY
280
     0
  9
$INTERSECTIONCOLOR
 70
   257
  9
$DIMASSOC
280
     2
  9
$PROJECTNAME
  1

  0
ENDSEC
  0
SECTION
  2
CLASSES
  0
CLASS
  1
ACDBDICTIONARYWDFLT
  2
AcDbDictionaryWithDefault
  3
ObjectDBX Classes
 90
        0
 91
        4
280
     0
281
     0
  0
CLASS
  1
VISUALSTYLE
  2
AcDbVisualStyle
  3
ObjectDBX Classes
 90
     4095
 91
        4
280
     0
281
     0
  0
CLASS
  1
MATERIAL
  2
AcDbMaterial
  3
ObjectDBX Classes
 90
     1153
 91
        4
280
     0
281
     0
  0
CLASS
  1
SCALE
  2
AcDbScale
  3
ObjectDBX Classes
 90
     1153
 91
        4
280
     0
281
     0
  0
CLASS
  1
SUN
  2
AcDbSun
  3
SCENEOE
 90
     1153
 91
        4
280
     0
281
     0
  0
CLASS
  1
DICTIONARYVAR
  2
AcDbDictionaryVar
  3
ObjectDBX Classes
 90
        0
 91
        4
280
     0
281
     0
  0
ENDSEC
  0
SECTION
  2
TABLES
  0
TABLE
  2
VPORT
  5
8
330
0
100
AcDbSymbolTable
 70
     1
  0
VPORT
  5
29
330
8
100
AcDbSymbolTableRecord
100
AcDbViewportTableRecord
  2
*Active
 70
     0
 10
0.0
 20
0.0
 11
1.0
 21
1.0
 12
1319.535174991185
 22
928.1986812244936
 13
0.0
 23
0.0
 14
0.5
 24
0.5
 15
0.5
 25
0.5
 16
0.0
 26
0.0
 36
1.0
 17
0.0
 27
0.0
 37
0.0
 40
410.445309697967
 41
1.548220883478029
 42
50.0
 43
0.0
 44
0.0
 50
0.0
 51
0.0
 71
     0
 72
   100
 73
     1
 74
     3
 75
     0
 76
     0
 77
     0
 78
     0
281
     0
 65
     1
110
0.0
120
0.0
130
0.0
111
1.0
121
0.0
131
0.0
112
0.0
122
1.0
132
0.0
 79
     0
146
0.0
  0
ENDTAB
  0
TABLE
  2
LTYPE
  5
5
330
0
100
AcDbSymbolTable
 70
     1
  0
LTYPE
  5
14
330
5
100
AcDbSymbolTableRecord
100
AcDbLinetypeTableRecord
  2
ByBlock
 70
     0
  3

 72
    65
 73
     0
 40
0.0
  0
LTYPE
  5
15
330
5
100
AcDbSymbolTableRecord
100
AcDbLinetypeTableRecord
  2
ByLayer
 70
     0
  3

 72
    65
 73
     0
 40
0.0
  0
LTYPE
  5
16
330
5
100
AcDbSymbolTableRecord
100
AcDbLinetypeTableRecord
  2
Continuous
 70
     0
  3
Solid line
 72
    65
 73
     0
 40
0.0
  0
ENDTAB
  0
TABLE
  2
LAYER
  5
2
330
0
100
AcDbSymbolTable
 70
     3
  0
LAYER
  5
10
330
2
100
AcDbSymbolTableRecord
100
AcDbLayerTableRecord
  2
0
 70
     0
 62
     7
  6
Continuous
370
    -3
390
F
  0
LAYER
  5
62
330
2
100
AcDbSymbolTableRecord
100
AcDbLayerTableRecord
  2
Make2D$可见线$普通线
 70
     0
 62
    18
420
        0
  6
Continuous
370
    -3
390
F
  0
LAYER
  5
344
330
2
100
AcDbSymbolTableRecord
100
AcDbLayerTableRecord
  2
E98321
 70
     0
 62
    18
420
        0
  6
Continuous
370
    -3
390
F
  0
ENDTAB
  0
TABLE
  2
STYLE
  5
3
330
0
100
AcDbSymbolTable
 70
     1
  0
STYLE
  5
11
330
3
100
AcDbSymbolTableRecord
100
AcDbTextStyleTableRecord
  2
Standard
 70
     0
 40
0.0
 41
1.0
 50
0.0
 71
     0
 42
0.2
  3
txt
  4

  0
ENDTAB
  0
TABLE
  2
VIEW
  5
6
330
0
100
AcDbSymbolTable
 70
     0
  0
ENDTAB
  0
TABLE
  2
UCS
  5
7
330
0
100
AcDbSymbolTable
 70
     0
  0
ENDTAB
  0
TABLE
  2
APPID
  5
9
330
0
100
AcDbSymbolTable
 70
     1
  0
APPID
  5
12
330
9
100
AcDbSymbolTableRecord
100
AcDbRegAppTableRecord
  2
ACAD
 70
     0
  0
ENDTAB
  0
TABLE
  2
DIMSTYLE
  5
A
330
0
100
AcDbSymbolTable
 70
     1
100
AcDbDimStyleTable
  0
DIMSTYLE
105
27
330
A
100
AcDbSymbolTableRecord
100
AcDbDimStyleTableRecord
  2
Standard
 70
     0
178
     0
340
11
  0
ENDTAB
  0
TABLE
  2
BLOCK_RECORD
  5
1
330
0
100
AcDbSymbolTable
 70
     1
  0
BLOCK_RECORD
  5
1F
330
1
100
AcDbSymbolTableRecord
100
AcDbBlockTableRecord
  2
*Model_Space
340
22
  0
BLOCK_RECORD
  5
1B
330
1
100
AcDbSymbolTableRecord
100
AcDbBlockTableRecord
  2
*Paper_Space
340
1E
  0
BLOCK_RECORD
  5
23
330
1
100
AcDbSymbolTableRecord
100
AcDbBlockTableRecord
  2
*Paper_Space0
340
26
  0
ENDTAB
  0
ENDSEC
  0
SECTION
  2
BLOCKS
  0
BLOCK
  5
20
330
1F
100
AcDbEntity
  8
0
100
AcDbBlockBegin
  2
*Model_Space
 70
     0
 10
0.0
 20
0.0
 30
0.0
  3
*Model_Space
  1
*Model_Space
  0
ENDBLK
  5
21
330
1F
100
AcDbEntity
  8
0
100
AcDbBlockEnd
  0
BLOCK
  5
1C
330
1B
100
AcDbEntity
 67
     1
  8
0
100
AcDbBlockBegin
  2
*Paper_Space
 70
     0
 10
0.0
 20
0.0
 30
0.0
  3
*Paper_Space
  1
*Paper_Space
  0
ENDBLK
  5
1D
330
1B
100
AcDbEntity
 67
     1
  8
0
100
AcDbBlockEnd
  0
BLOCK
  5
24
330
23
100
AcDbEntity
  8
0
100
AcDbBlockBegin
  2
*Paper_Space0
 70
     0
 10
0.0
 20
0.0
 30
0.0
  3
*Paper_Space0
  1
*Paper_Space0
  0
ENDBLK
  5
25
330
23
100
AcDbEntity
  8
0
100
AcDbBlockEnd
  0
ENDSEC
  0
SECTION
  2
ENTITIES
  0
LINE
  5
63
330
1F
100
AcDbEntity
  8
Make2D$可见线$普通线
100
AcDbLine
 10
1077.035174991185
 20
819.9999999999889
 30
0.0
 11
1076.075383801967
 21
819.9999999999889
 31
0.0
  0
LINE
  5
64
330
1F
100
AcDbEntity
  8
Make2D$可见线$普通线
100
AcDbLine
 10
1077.035174991185
 20
949.0000000000116
 30
0.0
 11
1076.075383801967
 21
949.0000000000116
 31
0.0
  0
LINE
  5
65
330
1F
100
AcDbEntity
  8
Make2D$可见线$普通线
100
AcDbLine
 10
1106.035174991185
 20
863.5780363687416
 30
0.0
 11
1106.035174991185
 21
863.6406370178722
 31
0.0
  0
LINE
  5
66
330
1F
100
AcDbEntity
  8
Make2D$可见线$普通线
100
AcDbLine
 10
1126.022889903691
 20
1120.143378582176
 30
0.0
 11
1126.026135656437
 21
1119.996057759492
 31
0.0
  0
LINE
  5
67
330
1F
100
AcDbEntity
  8
Make2D$可见线$普通线
100
AcDbLine
 10
1126.050618428354
 20
1119.515376177615
 30
0.0
 11
1126.017526012351
 21
1120.52094006993
 31
0.0
  0
LINE
  5
68
330
1F
100
AcDbEntity
  8
Make2D$可见线$普通线
100
AcDbLine
 10
1126.036241911135
 20
1118.870010799958
 30
0.0
 11
1126.036376849304
 21
1118.957445235544
 31
0.0
  0
LINE
  5
69
330
1F
100
AcDbEntity
  8
Make2D$可见线$普通线
100
AcDbLine
 10
1126.048616932339
 20
1119.765843931421
 30
0.0
 11
1126.052128671421
 21
1119.846199546231
 31
0.0
  0
LINE
  5
6A
330
1F
100
AcDbEntity
  8
Make2D$可见线$普通线
100
AcDbLine
 10
1095.040348557621
 20
995.5000000000002
 30
0.0
 11
1106.064043496466
 21
995.5000000000002
 31
0.0
  0
ARC
  5
6B
330
1F
100
AcDbEntity
  8
Make2D$可见线$普通线
100
AcDbCircle
 10
1091.035174991307
 20
984.4999999999857
 30
0.0
 40
1.999999999877821
100
AcDbArc
 50
349.5158770187555
 51
354.8551586576397
  0
ARC
  5
6C
330
1F
100
AcDbEntity
  8
Make2D$可见线$普通线
100
AcDbCircle
 10
1091.035174991094
 20
784.4999999999902
 30
0.0
 40
2.000000000092228
100
AcDbArc
 50
5.144841342516898
 51
10.48412298082326
  0
LINE
  5
6D
330
1F
100
AcDbEntity
  8
Make2D$可见线$普通线
100
AcDbLine
 10
1077.035174991185
 20
799.9999999999889
 30
0.0
 11
1076.075383801967
 21
799.9999999999889
 31
0.0
  0
LINE
  5
6E
330
1F
100
AcDbEntity
  8
Make2D$可见线$普通线
100
AcDbLine
 10
1077.035174991185
 20
969.0000000000116
 30
0.0
 11
1076.075383801967
 21
969.0000000000116
 31
0.0
  0
LINE
  5
6F
330
1F
100
AcDbEntity
  8
Make2D$可见线$普通线
100
AcDbLine
 10
1125.035174991186
 20
938.9999999999998
 30
0.0
 11
1125.035174991186
 21
911.5000000000002
 31
0.0
  0
LINE
  5
70
330
1F
100
AcDbEntity
  8
Make2D$可见线$普通线
100
AcDbLine
 10
1107.035174991186
 20
911.5000000000002
 30
0.0
 11
1107.035174991186
 21
939.0000000000003
 31
0.0
  0
LINE
  5
71
330
1F
100
AcDbEntity
  8
Make2D$可见线$普通线
100
AcDbLine
 10
1106.035194649546
 20
1092.31534659856
 30
0.0
 11
1106.035174988303
 21
1041.999999998305
 31
0.0
  0
POLYLINE
  5
72
330
1F
100
AcDbEntity
  8
Make2D$可见线$普通线
100
AcDb2dPolyline
 66
     1
 10
0.0
 20
0.0
 30
0.0
  0
VERTEX
  5
73
330
72
100
AcDbEntity
  8
Make2D$可见线$普通线
100
AcDbVertex
100
AcDb2dVertex
 10
1106.042332777734
 20
1119.967881605451
 30
0.0
  0
VERTEX
  5
74
330
72
100
AcDbEntity
  8
Make2D$可见线$普通线
100
AcDbVertex
100
AcDb2dVertex
 10
1106.044516025358
 20
1119.917353078743
 30
0.0
  0
VERTEX
  5
75
330
72
100
AcDbEntity
  8
Make2D$可见线$普通线
100
AcDbVertex
100
AcDb2dVertex
 10
1106.049276966425
 20
1119.920556712239
 30
0.0
  0
VERTEX
  5
76
330
72
100
AcDbEntity
  8
Make2D$可见线$普通线
100
AcDbVertex
100
AcDb2dVertex
 10
1106.05270915213
 20
1119.954234287916
 30
0.0
  0
VERTEX
  5
77
330
72
100
AcDbEntity
  8
Make2D$可见线$普通线
100
AcDbVertex
100
AcDb2dVertex
 10
1106.052733771745
 20
1119.954420497133
 30
0.0
  0
VERTEX
  5
78
330
72
100
AcDbEntity
  8
Make2D$可见线$普通线
100
AcDbVertex
100
AcDb2dVertex
 10
1106.052739045028
 20
1119.954453566569
 30
0.0
  0
VERTEX
  5
79
330
72
100
AcDbEntity
  8
Make2D$可见线$普通线
100
AcDbVertex
100
AcDb2dVertex
 10
1106.052743973617
 20
1119.954481228628
 30
0.0
  0
VERTEX
  5
7A
330
72
100
AcDbEntity
  8
Make2D$可见线$普通线
100
AcDbVertex
100
AcDb2dVertex
 10
1106.052748561489
 20
1119.954503476195
 30
0.0
  0
VERTEX
  5
7B
330
72
100
AcDbEntity
  8
Make2D$可见线$普通线
100
AcDbVertex
100
AcDb2dVertex
 10
1106.0527507289
 20
1119.95451256732
 30
0.0
  0
VERTEX
  5
7C
330
72
100
AcDbEntity
  8
Make2D$可见线$普通线
100
AcDbVertex
100
AcDb2dVertex
 10
1106.052752812623
 20
1119.954520302154
 30
0.0
  0
VERTEX
  5
7D
330
72
100
AcDbEntity
  8
Make2D$可见线$普通线
100
AcDbVertex
100
AcDb2dVertex
 10
1106.052754813156
 20
1119.954526679808
 30
0.0
  0
VERTEX
  5
7E
330
72
100
AcDbEntity
  8
Make2D$可见线$普通线
100
AcDbVertex
100
AcDb2dVertex
 10
1106.052756730996
 20
1119.954531699392
 30
0.0
  0
VERTEX
  5
7F
330
72
100
AcDbEntity
  8
Make2D$可见线$普通线
100
AcDbVertex
100
AcDb2dVertex
 10
1106.05275856664
 20
1119.954535360017
 30
0.0
  0
VERTEX
  5
80
330
72
100
AcDbEntity
  8
Make2D$可见线$普通线
100
AcDbVertex
100
AcDb2dVertex
 10
1106.052760320585
 20
1119.954537660793
 30
0.0
  0
VERTEX
  5
81
330
72
100
AcDbEntity
  8
Make2D$可见线$普通线
100
AcDbVertex
100
AcDb2dVertex
 10
1106.052761993329
 20
1119.954538600831
 30
0.0
  0
VERTEX
  5
82
330
72
100
AcDbEntity
  8
Make2D$可见线$普通线
100
AcDbVertex
100
AcDb2dVertex
 10
1106.052763585369
 20
1119.954538179243
 30
0.0
  0
VERTEX
  5
83
330
72
100
AcDbEntity
  8
Make2D$可见线$普通线
100
AcDbVertex
100
AcDb2dVertex
 10
1106.052765097201
 20
1119.954536395137
 30
0.0
  0
VERTEX
  5
84
330
72
100
AcDbEntity
  8
Make2D$可见线$普通线
100
AcDbVertex
100
AcDb2dVertex
 10
1106.052766529323
 20
1119.954533247625
 30
0.0
  0
VERTEX
  5
85
330
72
100
AcDbEntity
  8
Make2D$可见线$普通线
100
AcDbVertex
100
AcDb2dVertex
 10
1106.052767882233
 20
1119.954528735819
 30
0.0
  0
VERTEX
  5
86
330
72
100
AcDbEntity
  8
Make2D$可见线$普通线
100
AcDbVertex
100
AcDb2dVertex
 10
1106.052769156427
 20
1119.954522858827
 30
0.0
  0
VERTEX
  5
87
330
72
100
AcDbEntity
  8
Make2D$可见线$普通线
100
AcDbVertex
100
AcDb2dVertex
 10
1106.052770352403
 20
1119.954515615761
 30
0.0
  0
VERTEX
  5
88
330
72
100
AcDbEntity
  8
Make2D$可见线$普通线
100
AcDbVertex
100
AcDb2dVertex
 10
1106.052771470657
 20
1119.954507005732
 30
0.0
  0
VERTEX
  5
89
330
72
100
AcDbEntity
  8
Make2D$可见线$普通线
100
AcDbVertex
100
AcDb2dVertex
 10
1106.052772511688
 20
1119.95449702785
 30
0.0
  0
VERTEX
  5
8A
330
72
100
AcDbEntity
  8
Make2D$可见线$普通线
100
AcDbVertex
100
AcDb2dVertex
 10
1106.052773475991
 20
1119.954485681226
 30
0.0
  0
VERTEX
  5
8B
330
72
100
AcDbEntity
  8
Make2D$可见线$普通线
100
AcDbVertex
100
AcDb2dVertex
 10
1106.052775176407
 20
1119.954458878194
 30
0.0
  0
VERTEX
  5
8C
330
72
100
AcDbEntity
  8
Make2D$可见线$普通线
100
AcDbVertex
100
AcDb2dVertex
 10
1106.052777678392
 20
1119.954388808091
 30
0.0
  0
VERTEX
  5
8D
330
72
100
AcDbEntity
  8
Make2D$可见线$普通线
100
AcDbVertex
100
AcDb2dVertex
 10
1106.052769495311
 20
1119.952461414866
 30
0.0
  0
VERTEX
  5
8E
330
72
100
AcDbEntity
  8
Make2D$可见线$普通线
100
AcDbVertex
100
AcDb2dVertex
 10
1106.05278632818
 20
1119.951674851254
 30
0.0
  0
VERTEX
  5
8F
330
72
100
AcDbEntity
  8
Make2D$可见线$普通线
100
AcDbVertex
100
AcDb2dVertex
 10
1106.052825110663
 20
1119.95076376196
 30
0.0
  0
VERTEX
  5
90
330
72
100
AcDbEntity
  8
Make2D$可见线$普通线
100
AcDbVertex
100
AcDb2dVertex
 10
1106.052893084201
 20
1119.949730904826
 30
0.0
  0
VERTEX
  5
91
330
72
100
AcDbEntity
  8
Make2D$可见线$普通线
100
AcDbVertex
100
AcDb2dVertex
 10
1106.052997490237
 20
1119.948579037689
 30
0.0
  0
VERTEX
  5
92
330
72
100
AcDbEntity
  8
Make2D$可见线$普通线
100
AcDbVertex
100
AcDb2dVertex
 10
1106.053145570212
 20
1119.947310918392
 30
0.0
  0
VERTEX
  5
93
330
72
100
AcDbEntity
  8
Make2D$可见线$普通线
100
AcDbVertex
100
AcDb2dVertex
 10
1106.053344565569
 20
1119.945929304774
 30
0.0
  0
VERTEX
  5
94
330
72
100
AcDbEntity
  8
Make2D$可见线$普通线
100
AcDbVertex
100
AcDb2dVertex
 10
1106.053601717749
 20
1119.944436954676
 30
0.0
  0
VERTEX
  5
95
330
72
100
AcDbEntity
  8
Make2D$可见线$普通线
100
AcDbVertex
100
AcDb2dVertex
 10
1106.053924268195
 20
1119.942836625937
 30
0.0
  0
VERTEX
  5
96
330
72
100
AcDbEntity
  8
Make2D$可见线$普通线
100
AcDbVertex
100
AcDb2dVertex
 10
1106.054319458349
 20
1119.941131076398
 30
0.0
  0
VERTEX
  5
97
330
72
100
AcDbEntity
  8
Make2D$可见线$普通线
100
AcDbVertex
100
AcDb2dVertex
 10
1106.054794529653
 20
1119.939323063898
 30
0.0
  0
VERTEX
  5
98
330
72
100
AcDbEntity
  8
Make2D$可见线$普通线
100
AcDbVertex
100
AcDb2dVertex
 10
1106.055356723549
 20
1119.93741534628
 30
0.0
  0
VERTEX
  5
99
330
72
100
AcDbEntity
  8
Make2D$可见线$普通线
100
AcDbVertex
100
AcDb2dVertex
 10
1106.056013281479
 20
1119.935410681381
 30
0.0
  0
VERTEX
  5
9A
330
72
100
AcDbEntity
  8
Make2D$可见线$普通线
100
AcDbVertex
100
AcDb2dVertex
 10
1106.056771444885
 20
1119.933311827043
 30
0.0
  0
VERTEX
  5
9B
330
72
100
AcDbEntity
  8
Make2D$可见线$普通线
100
AcDbVertex
100
AcDb2dVertex
 10
1106.039660691243
 20
1119.544034663158
 30
0.0
  0
VERTEX
  5
9C
330
72
100
AcDbEntity
  8
Make2D$可见线$普通线
100
AcDbVertex
100
AcDb2dVertex
 10
1106.038080595694
 20
1119.59396601051
 30
0.0
  0
SEQEND
  5
9D
330
72
100
AcDbEntity
  8
Make2D$可见线$普通线
  0
POLYLINE
  5
9E
330
1F
100
AcDbEntity
  8
Make2D$可见线$普通线
100
AcDb2dPolyline
 66
     1
 10
0.0
 20
0.0
 30
0.0
  0
VERTEX
  5
9F
330
9E
100
AcDbEntity
  8
Make2D$可见线$普通线
100
AcDbVertex
100
AcDb2dVertex
 10
1106.040430041453
 20
1119.655164370019
 30
0.0
  0
VERTEX
  5
A0
330
9E
100
AcDbEntity
  8
Make2D$可见线$普通线
100
AcDbVertex
100
AcDb2dVertex
 10
1106.039528786199
 20
1119.636236929519
 30
0.0
  0
VERTEX
  5
A1
330
9E
100
AcDbEntity
  8
Make2D$可见线$普通线
100
AcDbVertex
100
AcDb2dVertex
 10
1106.041525893285
 20
1119.894178831745
 30
0.0
  0
SEQEND
  5
A2
330
9E
100
AcDbEntity
  8
Make2D$可见线$普通线
  0
POLYLINE
  5
A3
330
1F
100
AcDbEntity
  8
Make2D$可见线$普通线
100
AcDb2dPolyline
 66
     1
 10
0.0
 20
0.0
 30
0.0
  0
VERTEX
  5
A4
330
A3
100
AcDbEntity
  8
Make2D$可见线$普通线
100
AcDbVertex
100
AcDb2dVertex
 10
1126.069440645213
 20
966.0000000000001
 30
0.0
  0
VERTEX
  5
A5
330
A3
100
AcDbEntity
  8
Make2D$可见线$普通线
100
AcDbVertex
100
AcDb2dVertex
 10
1126.040408881487
 20
1119.393283876926
 30
0.0
  0
VERTEX
  5
A6
330
A3
100
AcDbEntity
  8
Make2D$可见线$普通线
100
AcDbVertex
100
AcDb2dVertex
 10
1126.038825731882
 20
1119.461988291336
 30
0.0
 42
-0.0398839196345516
  0
VERTEX
  5
A7
330
A3
100
AcDbEntity
  8
Make2D$可见线$普通线
100
AcDbVertex
100
AcDb2dVertex
 10
1126.034197846594
 20
1119.621573624164
 30
0.0
  0
VERTEX
  5
A8
330
A3
100
AcDbEntity
  8
Make2D$可见线$普通线
100
AcDbVertex
100
AcDb2dVertex
 10
1126.032704265883
 20
1119.694223487942
 30
0.0
  0
VERTEX
  5
A9
330
A3
100
AcDbEntity
  8
Make2D$可见线$普通线
100
AcDbVertex
100
AcDb2dVertex
 10
1126.032371224991
 20
1119.709275732719
 30
0.0
  0
VERTEX
  5
AA
330
A3
100
AcDbEntity
  8
Make2D$可见线$普通线
100
AcDbVertex
100
AcDb2dVertex
 10
1126.029767570824
 20
1119.774456825443
 30
0.0
  0
VERTEX
  5
AB
330
A3
100
AcDbEntity
  8
Make2D$可见线$普通线
100
AcDbVertex
100
AcDb2dVertex
 10
1126.02740626265
 20
1119.839047290484
 30
0.0
 42
0.9351464453878668
  0
VERTEX
  5
AC
330
A3
100
AcDbEntity
  8
Make2D$可见线$普通线
100
AcDbVertex
100
AcDb2dVertex
 10
1106.076322750969
 20
1120.298492779905
 30
0.0
  0
VERTEX
  5
AD
330
A3
100
AcDbEntity
  8
Make2D$可见线$普通线
100
AcDbVertex
100
AcDb2dVertex
 10
1106.052836495731
 20
1119.957902744349
 30
0.0
  0
VERTEX
  5
AE
330
A3
100
AcDbEntity
  8
Make2D$可见线$普通线
100
AcDbVertex
100
AcDb2dVertex
 10
1106.052325648972
 20
1119.948836497877
 30
0.0
  0
SEQEND
  5
AF
330
A3
100
AcDbEntity
  8
Make2D$可见线$普通线
  0
POLYLINE
  5
B0
330
1F
100
AcDbEntity
  8
Make2D$可见线$普通线
100
AcDb2dPolyline
 66
     1
 10
0.0
 20
0.0
 30
0.0
  0
VERTEX
  5
B1
330
B0
100
AcDbEntity
  8
Make2D$可见线$普通线
100
AcDbVertex
100
AcDb2dVertex
 10
1106.025372923025
 20
863.6193240165821
 30
0.0
 42
0.3809889264702219
  0
VERTEX
  5
B2
330
B0
100
AcDbEntity
  8
Make2D$可见线$普通线
100
AcDbVertex
100
AcDb2dVertex
 10
1105.035174991186
 20
864.4997132102857
 30
0.0
  0
VERTEX
  5
B3
330
B0
100
AcDbEntity
  8
Make2D$可见线$普通线
100
AcDbVertex
100
AcDb2dVertex
 10
1064.909165991243
 20
864.4997132102858
 30
0.0
 42
0.3970580778184163
  0
VERTEX
  5
B4
330
B0
100
AcDbEntity
  8
Make2D$可见线$普通线
100
AcDbVertex
100
AcDb2dVertex
 10
1063.91351312841
 20
863.5630181053626
 30
0.0
  0
SEQEND
  5
B5
330
B0
100
AcDbEntity
  8
Make2D$可见线$普通线
  0
POLYLINE
  5
B6
330
1F
100
AcDbEntity
  8
Make2D$可见线$普通线
100
AcDb2dPolyline
 66
     1
 10
0.0
 20
0.0
 30
0.0
  0
VERTEX
  5
B7
330
B6
100
AcDbEntity
  8
Make2D$可见线$普通线
100
AcDbVertex
100
AcDb2dVertex
 10
1063.915113652159
 20
905.4373166976259
 30
0.0
 42
0.3983128684000373
  0
VERTEX
  5
B8
330
B6
100
AcDbEntity
  8
Make2D$可见线$普通线
100
AcDbVertex
100
AcDb2dVertex
 10
1064.909165991243
 20
904.5002867897135
 30
0.0
  0
VERTEX
  5
B9
330
B6
100
AcDbEntity
  8
Make2D$可见线$普通线
100
AcDbVertex
100
AcDb2dVertex
 10
1105.035174991186
 20
904.5002867803175
 30
0.0
 42
0.3916000960852785
  0
VERTEX
  5
BA
330
B6
100
AcDbEntity
  8
Make2D$可见线$普通线
100
AcDbVertex
100
AcDb2dVertex
 10
1106.032202745076
 20
905.4237950263894
 30
0.0
  0
SEQEND
  5
BB
330
B6
100
AcDbEntity
  8
Make2D$可见线$普通线
  0
POLYLINE
  5
BC
330
1F
100
AcDbEntity
  8
Make2D$可见线$普通线
100
AcDb2dPolyline
 66
     1
 10
0.0
 20
0.0
 30
0.0
  0
VERTEX
  5
BD
330
BC
100
AcDbEntity
  8
Make2D$可见线$普通线
100
AcDbVertex
100
AcDb2dVertex
 10
1126.069617747513
 20
1120.439110460291
 30
0.0
  0
VERTEX
  5
BE
330
BC
100
AcDbEntity
  8
Make2D$可见线$普通线
100
AcDbVertex
100
AcDb2dVertex
 10
1126.062817570938
 20
1119.059214145078
 30
0.0
  0
VERTEX
  5
BF
330
BC
100
AcDbEntity
  8
Make2D$可见线$普通线
100
AcDbVertex
100
AcDb2dVertex
 10
1126.051233301315
 20
1119.493888617685
 30
0.0
  0
SEQEND
  5
C0
330
BC
100
AcDbEntity
  8
Make2D$可见线$普通线
  0
POLYLINE
  5
C1
330
1F
100
AcDbEntity
  8
Make2D$可见线$普通线
100
AcDb2dPolyline
 66
     1
 10
0.0
 20
0.0
 30
0.0
  0
VERTEX
  5
C2
330
C1
100
AcDbEntity
  8
Make2D$可见线$普通线
100
AcDbVertex
100
AcDb2dVertex
 10
1139.035174991185
 20
861.5000000000002
 30
0.0
  0
VERTEX
  5
C3
330
C1
100
AcDbEntity
  8
Make2D$可见线$普通线
100
AcDbVertex
100
AcDb2dVertex
 10
1139.035229324988
 20
776.5000000000002
 30
0.0
 42
-0.4142327249769002
  0
VERTEX
  5
C4
330
C1
100
AcDbEntity
  8
Make2D$可见线$普通线
100
AcDbVertex
100
AcDb2dVertex
 10
1137.035240191757
 20
774.5000000000003
 30
0.0
  0
SEQEND
  5
C5
330
C1
100
AcDbEntity
  8
Make2D$可见线$普通线
  0
POLYLINE
  5
C6
330
1F
100
AcDbEntity
  8
Make2D$可见线$普通线
100
AcDb2dPolyline
 66
     1
 10
0.0
 20
0.0
 30
0.0
  0
VERTEX
  5
C7
330
C6
100
AcDbEntity
  8
Make2D$可见线$普通线
100
AcDbVertex
100
AcDb2dVertex
 10
1103.662582072746
 20
959.0422182777794
 30
0.0
 42
0.0406516754125228
  0
VERTEX
  5
C8
330
C6
100
AcDbEntity
  8
Make2D$可见线$普通线
100
AcDbVertex
100
AcDb2dVertex
 10
1103.668228829409
 20
945.9372113358627
 30
0.0
 42
-0.2487900454438506
  0
VERTEX
  5
C9
330
C6
100
AcDbEntity
  8
Make2D$可见线$普通线
100
AcDbVertex
100
AcDb2dVertex
 10
1103.662582072746
 20
959.0422182777795
 30
0.0
  0
SEQEND
  5
CA
330
C6
100
AcDbEntity
  8
Make2D$可见线$普通线
  0
POLYLINE
  5
CB
330
1F
100
AcDbEntity
  8
Make2D$可见线$普通线
100
AcDb2dPolyline
 66
     1
 10
0.0
 20
0.0
 30
0.0
  0
VERTEX
  5
CC
330
CB
100
AcDbEntity
  8
Make2D$可见线$普通线
100
AcDbVertex
100
AcDb2dVertex
 10
1536.035174991185
 20
863.5000000000002
 30
0.0
  0
VERTEX
  5
CD
330
CB
100
AcDbEntity
  8
Make2D$可见线$普通线
100
AcDbVertex
100
AcDb2dVertex
 10
1536.035174991185
 20
862.4997132102319
 30
0.0
 42
-0.4142135407426934
  0
VERTEX
  5
CE
330
CB
100
AcDbEntity
  8
Make2D$可见线$普通线
100
AcDbVertex
100
AcDb2dVertex
 10
1535.035174991184
 20
861.4994264205405
 30
0.0
  0
SEQEND
  5
CF
330
CB
100
AcDbEntity
  8
Make2D$可见线$普通线
  0
POLYLINE
  5
D0
330
1F
100
AcDbEntity
  8
Make2D$可见线$普通线
100
AcDb2dPolyline
 66
     1
 10
0.0
 20
0.0
 30
0.0
  0
VERTEX
  5
D1
330
D0
100
AcDbEntity
  8
Make2D$可见线$普通线
100
AcDbVertex
100
AcDb2dVertex
 10
1134.035174991184
 20
774.5000000000002
 30
0.0
  0
VERTEX
  5
D2
330
D0
100
AcDbEntity
  8
Make2D$可见线$普通线
100
AcDbVertex
100
AcDb2dVertex
 10
1095.035174991185
 20
774.5000000000002
 30
0.0
  0
VERTEX
  5
D3
330
D0
100
AcDbEntity
  8
Make2D$可见线$普通线
100
AcDbVertex
100
AcDb2dVertex
 10
1095.035174991185
 20
773.5000000000002
 30
0.0
 42
0.4142135623730657
  0
VERTEX
  5
D4
330
D0
100
AcDbEntity
  8
Make2D$可见线$普通线
100
AcDbVertex
100
AcDb2dVertex
 10
1093.035174991185
 20
771.4999999999998
 30
0.0
  0
VERTEX
  5
D5
330
D0
100
AcDbEntity
  8
Make2D$可见线$普通线
100
AcDbVertex
100
AcDb2dVertex
 10
1093.035174991185
 20
729.0000000000002
 30
0.0
 42
0.4142135623731096
  0
VERTEX
  5
D6
330
D0
100
AcDbEntity
  8
Make2D$可见线$普通线
100
AcDbVertex
100
AcDb2dVertex
 10
1095.035174991185
 20
727.0000000000005
 30
0.0
  0
VERTEX
  5
D7
330
D0
100
AcDbEntity
  8
Make2D$可见线$普通线
100
AcDbVertex
100
AcDb2dVertex
 10
1137.035207591474
 20
727.0000000000001
 30
0.0
 42
0.4142375462635094
  0
VERTEX
  5
D8
330
D0
100
AcDbEntity
  8
Make2D$可见线$普通线
100
AcDbVertex
100
AcDb2dVertex
 10
1139.035229324987
 20
729.0000000000002
 30
0.0
  0
VERTEX
  5
D9
330
D0
100
AcDbEntity
  8
Make2D$可见线$普通线
100
AcDbVertex
100
AcDb2dVertex
 10
1139.035229324987
 20
771.5000000000002
 30
0.0
 42
0.4142374989797204
  0
VERTEX
  5
DA
330
D0
100
AcDbEntity
  8
Make2D$可见线$普通线
100
AcDbVertex
100
AcDb2dVertex
 10
1137.035207591471
 20
773.5000000000002
 30
0.0
  0
VERTEX
  5
DB
330
D0
100
AcDbEntity
  8
Make2D$可见线$普通线
100
AcDbVertex
100
AcDb2dVertex
 10
1137.035174991189
 20
774.5000000000002
 30
0.0
  0
VERTEX
  5
DC
330
D0
100
AcDbEntity
  8
Make2D$可见线$普通线
100
AcDbVertex
100
AcDb2dVertex
 10
1134.035174991184
 20
774.5000000000002
 30
0.0
  0
SEQEND
  5
DD
330
D0
100
AcDbEntity
  8
Make2D$可见线$普通线
  0
POLYLINE
  5
DE
330
1F
100
AcDbEntity
  8
Make2D$可见线$普通线
100
AcDb2dPolyline
 66
     1
 10
0.0
 20
0.0
 30
0.0
  0
VERTEX
  5
DF
330
DE
100
AcDbEntity
  8
Make2D$可见线$普通线
100
AcDbVertex
100
AcDb2dVertex
 10
1126.055315864405
 20
1042.0
 30
0.0
  0
VERTEX
  5
E0
330
DE
100
AcDbEntity
  8
Make2D$可见线$普通线
100
AcDbVertex
100
AcDb2dVertex
 10
1137.035207591474
 20
1042.0
 30
0.0
 42
-0.4142375462632688
  0
VERTEX
  5
E1
330
DE
100
AcDbEntity
  8
Make2D$可见线$普通线
100
AcDbVertex
100
AcDb2dVertex
 10
1139.035229324987
 20
1040.0
 30
0.0
  0
VERTEX
  5
E2
330
DE
100
AcDbEntity
  8
Make2D$可见线$普通线
100
AcDbVertex
100
AcDb2dVertex
 10
1139.035229324988
 20
997.5000000000002
 30
0.0
 42
-0.4142374989793921
  0
VERTEX
  5
E3
330
DE
100
AcDbEntity
  8
Make2D$可见线$普通线
100
AcDbVertex
100
AcDb2dVertex
 10
1137.035207591471
 20
995.5000000000001
 30
0.0
  0
VERTEX
  5
E4
330
DE
100
AcDbEntity
  8
Make2D$可见线$普通线
100
AcDbVertex
100
AcDb2dVertex
 10
1137.035174991185
 20
994.5000000000002
 30
0.0
  0
SEQEND
  5
E5
330
DE
100
AcDbEntity
  8
Make2D$可见线$普通线
  0
POLYLINE
  5
E6
330
1F
100
AcDbEntity
  8
Make2D$可见线$普通线
100
AcDb2dPolyline
 66
     1
 10
0.0
 20
0.0
 30
0.0
  0
VERTEX
  5
E7
330
E6
100
AcDbEntity
  8
Make2D$可见线$普通线
100
AcDbVertex
100
AcDb2dVertex
 10
1093.035174991185
 20
1020.5
 30
0.0
  0
VERTEX
  5
E8
330
E6
100
AcDbEntity
  8
Make2D$可见线$普通线
100
AcDbVertex
100
AcDb2dVertex
 10
1090.035174991185
 20
1020.499945666199
 30
0.0
 42
-0.4142327249754354
  0
VERTEX
  5
E9
330
E6
100
AcDbEntity
  8
Make2D$可见线$普通线
100
AcDbVertex
100
AcDb2dVertex
 10
1088.035174991185
 20
1022.499934799434
 30
0.0
  0
VERTEX
  5
EA
330
E6
100
AcDbEntity
  8
Make2D$可见线$普通线
100
AcDbVertex
100
AcDb2dVertex
 10
1088.035174991185
 20
1028.500032600283
 30
0.0
 42
-0.414237496390258
  0
VERTEX
  5
EB
330
E6
100
AcDbEntity
  8
Make2D$可见线$普通线
100
AcDbVertex
100
AcDb2dVertex
 10
1090.035174991185
 20
1030.500054333804
 30
0.0
  0
VERTEX
  5
EC
330
E6
100
AcDbEntity
  8
Make2D$可见线$普通线
100
AcDbVertex
100
AcDb2dVertex
 10
1093.035174991185
 20
1030.5
 30
0.0
  0
SEQEND
  5
ED
330
E6
100
AcDbEntity
  8
Make2D$可见线$普通线
  0
POLYLINE
  5
EE
330
1F
100
AcDbEntity
  8
Make2D$可见线$普通线
100
AcDb2dPolyline
 66
     1
 10
0.0
 20
0.0
 30
0.0
  0
VERTEX
  5
EF
330
EE
100
AcDbEntity
  8
Make2D$可见线$普通线
100
AcDbVertex
100
AcDb2dVertex
 10
1535.035174991184
 20
907.5005735793941
 30
0.0
 42
-0.4142135407423348
  0
VERTEX
  5
F0
330
EE
100
AcDbEntity
  8
Make2D$可见线$普通线
100
AcDbVertex
100
AcDb2dVertex
 10
1536.035174991185
 20
906.5002867897358
 30
0.0
  0
VERTEX
  5
F1
330
EE
100
AcDbEntity
  8
Make2D$可见线$普通线
100
AcDbVertex
100
AcDb2dVertex
 10
1536.035174991184
 20
905.5000000000005
 30
0.0
  0
SEQEND
  5
F2
330
EE
100
AcDbEntity
  8
Make2D$可见线$普通线
  0
POLYLINE
  5
F3
330
1F
100
AcDbEntity
  8
Make2D$可见线$普通线
100
AcDb2dPolyline
 66
     1
 10
0.0
 20
0.0
 30
0.0
  0
VERTEX
  5
F4
330
F3
100
AcDbEntity
  8
Make2D$可见线$普通线
100
AcDbVertex
100
AcDb2dVertex
 10
1093.035174991185
 20
738.5000000000002
 30
0.0
  0
VERTEX
  5
F5
330
F3
100
AcDbEntity
  8
Make2D$可见线$普通线
100
AcDbVertex
100
AcDb2dVertex
 10
1090.035174991185
 20
738.499945666196
 30
0.0
 42
-0.4142327249770135
  0
VERTEX
  5
F6
330
F3
100
AcDbEntity
  8
Make2D$可见线$普通线
100
AcDbVertex
100
AcDb2dVertex
 10
1088.035174991185
 20
740.4999347994366
 30
0.0
  0
VERTEX
  5
F7
330
F3
100
AcDbEntity
  8
Make2D$可见线$普通线
100
AcDbVertex
100
AcDb2dVertex
 10
1088.035174991185
 20
746.5000652005663
 30
0.0
 42
-0.4142327249757944
  0
VERTEX
  5
F8
330
F3
100
AcDbEntity
  8
Make2D$可见线$普通线
100
AcDbVertex
100
AcDb2dVertex
 10
1090.035174991185
 20
748.5000543338017
 30
0.0
  0
VERTEX
  5
F9
330
F3
100
AcDbEntity
  8
Make2D$可见线$普通线
100
AcDbVertex
100
AcDb2dVertex
 10
1093.035174991185
 20
748.5000000000002
 30
0.0
  0
SEQEND
  5
FA
330
F3
100
AcDbEntity
  8
Make2D$可见线$普通线
  0
POLYLINE
  5
FB
330
1F
100
AcDbEntity
  8
Make2D$可见线$普通线
100
AcDb2dPolyline
 66
     1
 10
0.0
 20
0.0
 30
0.0
  0
VERTEX
  5
FC
330
FB
100
AcDbEntity
  8
Make2D$可见线$普通线
100
AcDbVertex
100
AcDb2dVertex
 10
1056.909165991243
 20
835.4999999999995
 30
0.0
  0
VERTEX
  5
FD
330
FB
100
AcDbEntity
  8
Make2D$可见线$普通线
100
AcDbVertex
100
AcDb2dVertex
 10
1056.909165991243
 20
781.4999347994283
 30
0.0
 42
-0.4142327249769858
  0
VERTEX
  5
FE
330
FB
100
AcDbEntity
  8
Make2D$可见线$普通线
100
AcDbVertex
100
AcDb2dVertex
 10
1054.909165991244
 20
779.4999456661976
 30
0.0
  0
VERTEX
  5
FF
330
FB
100
AcDbEntity
  8
Make2D$可见线$普通线
100
AcDbVertex
100
AcDb2dVertex
 10
1025.909165991243
 20
779.4999456661978
 30
0.0
 42
-0.4142327249764077
  0
VERTEX
  5
100
330
FB
100
AcDbEntity
  8
Make2D$可见线$普通线
100
AcDbVertex
100
AcDb2dVertex
 10
1023.909165991243
 20
781.4999347994283
 30
0.0
  0
VERTEX
  5
101
330
FB
100
AcDbEntity
  8
Make2D$可见线$普通线
100
AcDbVertex
100
AcDb2dVertex
 10
1023.909165991243
 20
838.500065200572
 30
0.0
 42
-0.4142327249764737
  0
VERTEX
  5
102
330
FB
100
AcDbEntity
  8
Make2D$可见线$普通线
100
AcDbVertex
100
AcDb2dVertex
 10
1025.909165991243
 20
840.5000543338025
 30
0.0
  0
VERTEX
  5
103
330
FB
100
AcDbEntity
  8
Make2D$可见线$普通线
100
AcDbVertex
100
AcDb2dVertex
 10
1054.909165991243
 20
840.5000543338024
 30
0.0
 42
-0.4142327722661958
  0
VERTEX
  5
104
330
FB
100
AcDbEntity
  8
Make2D$可见线$普通线
100
AcDbVertex
100
AcDb2dVertex
 10
1056.909165991244
 20
838.500065200572
 30
0.0
  0
VERTEX
  5
105
330
FB
100
AcDbEntity
  8
Make2D$可见线$普通线
100
AcDbVertex
100
AcDb2dVertex
 10
1056.909165991243
 20
835.4999999999995
 30
0.0
  0
SEQEND
  5
106
330
FB
100
AcDbEntity
  8
Make2D$可见线$普通线
  0
POLYLINE
  5
107
330
1F
100
AcDbEntity
  8
Make2D$可见线$普通线
100
AcDb2dPolyline
 66
     1
 10
0.0
 20
0.0
 30
0.0
  0
VERTEX
  5
108
330
107
100
AcDbEntity
  8
Make2D$可见线$普通线
100
AcDbVertex
100
AcDb2dVertex
 10
1105.035174991185
 20
780.7000000000003
 30
0.0
  0
VERTEX
  5
109
330
107
100
AcDbEntity
  8
Make2D$可见线$普通线
100
AcDbVertex
100
AcDb2dVertex
 10
1105.035174991185
 20
778.7000000000003
 30
0.0
  0
VERTEX
  5
10A
330
107
100
AcDbEntity
  8
Make2D$可见线$普通线
100
AcDbVertex
100
AcDb2dVertex
 10
1104.435174991185
 20
778.7000000000003
 30
0.0
  0
VERTEX
  5
10B
330
107
100
AcDbEntity
  8
Make2D$可见线$普通线
100
AcDbVertex
100
AcDb2dVertex
 10
1104.435174991185
 20
780.7000000000003
 30
0.0
  0
VERTEX
  5
10C
330
107
100
AcDbEntity
  8
Make2D$可见线$普通线
100
AcDbVertex
100
AcDb2dVertex
 10
1102.435174991185
 20
780.7000000000003
 30
0.0
  0
VERTEX
  5
10D
330
107
100
AcDbEntity
  8
Make2D$可见线$普通线
100
AcDbVertex
100
AcDb2dVertex
 10
1102.435174991185
 20
781.3000000000002
 30
0.0
  0
VERTEX
  5
10E
330
107
100
AcDbEntity
  8
Make2D$可见线$普通线
100
AcDbVertex
100
AcDb2dVertex
 10
1104.435174991185
 20
781.3000000000002
 30
0.0
  0
VERTEX
  5
10F
330
107
100
AcDbEntity
  8
Make2D$可见线$普通线
100
AcDbVertex
100
AcDb2dVertex
 10
1104.435174991185
 20
783.3000000000002
 30
0.0
  0
VERTEX
  5
110
330
107
100
AcDbEntity
  8
Make2D$可见线$普通线
100
AcDbVertex
100
AcDb2dVertex
 10
1105.035174991185
 20
783.3000000000002
 30
0.0
  0
VERTEX
  5
111
330
107
100
AcDbEntity
  8
Make2D$可见线$普通线
100
AcDbVertex
100
AcDb2dVertex
 10
1105.035174991185
 20
781.3000000000002
 30
0.0
  0
VERTEX
  5
112
330
107
100
AcDbEntity
  8
Make2D$可见线$普通线
100
AcDbVertex
100
AcDb2dVertex
 10
1107.035174991185
 20
781.3000000000002
 30
0.0
  0
VERTEX
  5
113
330
107
100
AcDbEntity
  8
Make2D$可见线$普通线
100
AcDbVertex
100
AcDb2dVertex
 10
1107.035174991185
 20
780.7000000000003
 30
0.0
  0
VERTEX
  5
114
330
107
100
AcDbEntity
  8
Make2D$可见线$普通线
100
AcDbVertex
100
AcDb2dVertex
 10
1105.035174991185
 20
780.7000000000003
 30
0.0
  0
SEQEND
  5
115
330
107
100
AcDbEntity
  8
Make2D$可见线$普通线
  0
POLYLINE
  5
116
330
1F
100
AcDbEntity
  8
Make2D$可见线$普通线
100
AcDb2dPolyline
 66
     1
 10
0.0
 20
0.0
 30
0.0
  0
VERTEX
  5
117
330
116
100
AcDbEntity
  8
Make2D$可见线$普通线
100
AcDbVertex
100
AcDb2dVertex
 10
1107.235174991185
 20
780.5000000000002
 30
0.0
  0
VERTEX
  5
118
330
116
100
AcDbEntity
  8
Make2D$可见线$普通线
100
AcDbVertex
100
AcDb2dVertex
 10
1105.235174991185
 20
780.5000000000002
 30
0.0
  0
VERTEX
  5
119
330
116
100
AcDbEntity
  8
Make2D$可见线$普通线
100
AcDbVertex
100
AcDb2dVertex
 10
1105.235174991185
 20
778.5000000000002
 30
0.0
  0
VERTEX
  5
11A
330
116
100
AcDbEntity
  8
Make2D$可见线$普通线
100
AcDbVertex
100
AcDb2dVertex
 10
1104.235174991185
 20
778.5000000000002
 30
0.0
  0
VERTEX
  5
11B
330
116
100
AcDbEntity
  8
Make2D$可见线$普通线
100
AcDbVertex
100
AcDb2dVertex
 10
1104.235174991185
 20
780.5000000000002
 30
0.0
  0
VERTEX
  5
11C
330
116
100
AcDbEntity
  8
Make2D$可见线$普通线
100
AcDbVertex
100
AcDb2dVertex
 10
1102.235174991185
 20
780.5000000000002
 30
0.0
  0
VERTEX
  5
11D
330
116
100
AcDbEntity
  8
Make2D$可见线$普通线
100
AcDbVertex
100
AcDb2dVertex
 10
1102.235174991185
 20
781.5000000000002
 30
0.0
  0
VERTEX
  5
11E
330
116
100
AcDbEntity
  8
Make2D$可见线$普通线
100
AcDbVertex
100
AcDb2dVertex
 10
1104.235174991185
 20
781.5000000000002
 30
0.0
  0
VERTEX
  5
11F
330
116
100
AcDbEntity
  8
Make2D$可见线$普通线
100
AcDbVertex
100
AcDb2dVertex
 10
1104.235174991185
 20
783.5000000000002
 30
0.0
  0
VERTEX
  5
120
330
116
100
AcDbEntity
  8
Make2D$可见线$普通线
100
AcDbVertex
100
AcDb2dVertex
 10
1105.235174991185
 20
783.5000000000002
 30
0.0
  0
VERTEX
  5
121
330
116
100
AcDbEntity
  8
Make2D$可见线$普通线
100
AcDbVertex
100
AcDb2dVertex
 10
1105.235174991185
 20
781.5000000000002
 30
0.0
  0
VERTEX
  5
122
330
116
100
AcDbEntity
  8
Make2D$可见线$普通线
100
AcDbVertex
100
AcDb2dVertex
 10
1107.235174991185
 20
781.5000000000002
 30
0.0
  0
VERTEX
  5
123
330
116
100
AcDbEntity
  8
Make2D$可见线$普通线
100
AcDbVertex
100
AcDb2dVertex
 10
1107.235174991185
 20
780.5000000000002
 30
0.0
  0
SEQEND
  5
124
330
116
100
AcDbEntity
  8
Make2D$可见线$普通线
  0
POLYLINE
  5
125
330
1F
100
AcDbEntity
  8
Make2D$可见线$普通线
100
AcDb2dPolyline
 66
     1
 10
0.0
 20
0.0
 30
0.0
  0
VERTEX
  5
126
330
125
100
AcDbEntity
  8
Make2D$可见线$普通线
100
AcDbVertex
100
AcDb2dVertex
 10
1130.035174991185
 20
778.7000000000003
 30
0.0
  0
VERTEX
  5
127
330
125
100
AcDbEntity
  8
Make2D$可见线$普通线
100
AcDbVertex
100
AcDb2dVertex
 10
1129.435174991185
 20
778.7000000000003
 30
0.0
  0
VERTEX
  5
128
330
125
100
AcDbEntity
  8
Make2D$可见线$普通线
100
AcDbVertex
100
AcDb2dVertex
 10
1129.435174991185
 20
783.3000000000002
 30
0.0
  0
VERTEX
  5
129
330
125
100
AcDbEntity
  8
Make2D$可见线$普通线
100
AcDbVertex
100
AcDb2dVertex
 10
1130.035174991185
 20
783.3000000000002
 30
0.0
  0
VERTEX
  5
12A
330
125
100
AcDbEntity
  8
Make2D$可见线$普通线
100
AcDbVertex
100
AcDb2dVertex
 10
1130.035174991185
 20
778.7000000000003
 30
0.0
  0
SEQEND
  5
12B
330
125
100
AcDbEntity
  8
Make2D$可见线$普通线
  0
POLYLINE
  5
12C
330
1F
100
AcDbEntity
  8
Make2D$可见线$普通线
100
AcDb2dPolyline
 66
     1
 10
0.0
 20
0.0
 30
0.0
  0
VERTEX
  5
12D
330
12C
100
AcDbEntity
  8
Make2D$可见线$普通线
100
AcDbVertex
100
AcDb2dVertex
 10
1130.235174991185
 20
783.5000000000002
 30
0.0
  0
VERTEX
  5
12E
330
12C
100
AcDbEntity
  8
Make2D$可见线$普通线
100
AcDbVertex
100
AcDb2dVertex
 10
1130.235174991185
 20
778.5000000000002
 30
0.0
  0
VERTEX
  5
12F
330
12C
100
AcDbEntity
  8
Make2D$可见线$普通线
100
AcDbVertex
100
AcDb2dVertex
 10
1129.235174991185
 20
778.5000000000002
 30
0.0
  0
VERTEX
  5
130
330
12C
100
AcDbEntity
  8
Make2D$可见线$普通线
100
AcDbVertex
100
AcDb2dVertex
 10
1129.235174991185
 20
783.5000000000002
 30
0.0
  0
VERTEX
  5
131
330
12C
100
AcDbEntity
  8
Make2D$可见线$普通线
100
AcDbVertex
100
AcDb2dVertex
 10
1130.235174991185
 20
783.5000000000002
 30
0.0
  0
SEQEND
  5
132
330
12C
100
AcDbEntity
  8
Make2D$可见线$普通线
  0
POLYLINE
  5
133
330
1F
100
AcDbEntity
  8
Make2D$可见线$普通线
100
AcDb2dPolyline
 66
     1
 10
0.0
 20
0.0
 30
0.0
  0
VERTEX
  5
134
330
133
100
AcDbEntity
  8
Make2D$可见线$普通线
100
AcDbVertex
100
AcDb2dVertex
 10
1114.735174991185
 20
779.2651459968367
 30
0.0
  0
VERTEX
  5
135
330
133
100
AcDbEntity
  8
Make2D$可见线$普通线
100
AcDbVertex
100
AcDb2dVertex
 10
1120.807164002257
 20
781.0000000000002
 30
0.0
  0
VERTEX
  5
136
330
133
100
AcDbEntity
  8
Make2D$可见线$普通线
100
AcDbVertex
100
AcDb2dVertex
 10
1114.735174991185
 20
782.7348540031637
 30
0.0
  0
VERTEX
  5
137
330
133
100
AcDbEntity
  8
Make2D$可见线$普通线
100
AcDbVertex
100
AcDb2dVertex
 10
1114.735174991185
 20
779.2651459968367
 30
0.0
  0
SEQEND
  5
138
330
133
100
AcDbEntity
  8
Make2D$可见线$普通线
  0
POLYLINE
  5
139
330
1F
100
AcDbEntity
  8
Make2D$可见线$普通线
100
AcDb2dPolyline
 66
     1
 10
0.0
 20
0.0
 30
0.0
  0
VERTEX
  5
13A
330
139
100
AcDbEntity
  8
Make2D$可见线$普通线
100
AcDbVertex
100
AcDb2dVertex
 10
1121.535174991185
 20
781.0000000000002
 30
0.0
  0
VERTEX
  5
13B
330
139
100
AcDbEntity
  8
Make2D$可见线$普通线
100
AcDbVertex
100
AcDb2dVertex
 10
1114.535174991185
 20
783.0000000000002
 30
0.0
  0
VERTEX
  5
13C
330
139
100
AcDbEntity
  8
Make2D$可见线$普通线
100
AcDbVertex
100
AcDb2dVertex
 10
1114.535174991185
 20
779.0000000000002
 30
0.0
  0
VERTEX
  5
13D
330
139
100
AcDbEntity
  8
Make2D$可见线$普通线
100
AcDbVertex
100
AcDb2dVertex
 10
1121.535174991185
 20
781.0000000000002
 30
0.0
  0
SEQEND
  5
13E
330
139
100
AcDbEntity
  8
Make2D$可见线$普通线
  0
POLYLINE
  5
13F
330
1F
100
AcDbEntity
  8
Make2D$可见线$普通线
100
AcDb2dPolyline
 66
     1
 10
0.0
 20
0.0
 30
0.0
  0
VERTEX
  5
140
330
13F
100
AcDbEntity
  8
Make2D$可见线$普通线
100
AcDbVertex
100
AcDb2dVertex
 10
1116.735174991185
 20
780.5908759810197
 30
0.0
  0
VERTEX
  5
141
330
13F
100
AcDbEntity
  8
Make2D$可见线$普通线
100
AcDbVertex
100
AcDb2dVertex
 10
1118.167109057617
 20
781.0000000000002
 30
0.0
  0
VERTEX
  5
142
330
13F
100
AcDbEntity
  8
Make2D$可见线$普通线
100
AcDbVertex
100
AcDb2dVertex
 10
1116.735174991185
 20
781.4091240189807
 30
0.0
  0
VERTEX
  5
143
330
13F
100
AcDbEntity
  8
Make2D$可见线$普通线
100
AcDbVertex
100
AcDb2dVertex
 10
1116.735174991185
 20
780.5908759810197
 30
0.0
  0
SEQEND
  5
144
330
13F
100
AcDbEntity
  8
Make2D$可见线$普通线
  0
POLYLINE
  5
145
330
1F
100
AcDbEntity
  8
Make2D$可见线$普通线
100
AcDb2dPolyline
 66
     1
 10
0.0
 20
0.0
 30
0.0
  0
VERTEX
  5
146
330
145
100
AcDbEntity
  8
Make2D$可见线$普通线
100
AcDbVertex
100
AcDb2dVertex
 10
1118.895120046545
 20
781.0000000000002
 30
0.0
  0
VERTEX
  5
147
330
145
100
AcDbEntity
  8
Make2D$可见线$普通线
100
AcDbVertex
100
AcDb2dVertex
 10
1116.535174991185
 20
781.6742700158172
 30
0.0
  0
VERTEX
  5
148
330
145
100
AcDbEntity
  8
Make2D$可见线$普通线
100
AcDbVertex
100
AcDb2dVertex
 10
1116.535174991185
 20
780.3257299841832
 30
0.0
  0
VERTEX
  5
149
330
145
100
AcDbEntity
  8
Make2D$可见线$普通线
100
AcDbVertex
100
AcDb2dVertex
 10
1118.895120046545
 20
781.0000000000002
 30
0.0
  0
SEQEND
  5
14A
330
145
100
AcDbEntity
  8
Make2D$可见线$普通线
  0
POLYLINE
  5
14B
330
1F
100
AcDbEntity
  8
Make2D$可见线$普通线
100
AcDb2dPolyline
 66
     1
 10
0.0
 20
0.0
 30
0.0
  0
VERTEX
  5
14C
330
14B
100
AcDbEntity
  8
Make2D$可见线$普通线
100
AcDbVertex
100
AcDb2dVertex
 10
1056.917761476253
 20
828.8642187466883
 30
0.0
 42
0.3957357589770184
  0
VERTEX
  5
14D
330
14B
100
AcDbEntity
  8
Make2D$可见线$普通线
100
AcDbVertex
100
AcDb2dVertex
 10
1058.909165991243
 20
827.0001847349322
 30
0.0
  0
VERTEX
  5
14E
330
14B
100
AcDbEntity
  8
Make2D$可见线$普通线
100
AcDbVertex
100
AcDb2dVertex
 10
1066.035174991185
 20
826.9970626337065
 30
0.0
  0
VERTEX
  5
14F
330
14B
100
AcDbEntity
  8
Make2D$可见线$普通线
100
AcDbVertex
100
AcDb2dVertex
 10
1066.035174991185
 20
825.5000000000002
 30
0.0
  0
VERTEX
  5
150
330
14B
100
AcDbEntity
  8
Make2D$可见线$普通线
100
AcDbVertex
100
AcDb2dVertex
 10
1074.075383801967
 20
825.4999347004756
 30
0.0
 42
-0.4141989783153582
  0
VERTEX
  5
151
330
14B
100
AcDbEntity
  8
Make2D$可见线$普通线
100
AcDbVertex
100
AcDb2dVertex
 10
1076.075383801967
 20
823.5000000000211
 30
0.0
  0
VERTEX
  5
152
330
14B
100
AcDbEntity
  8
Make2D$可见线$普通线
100
AcDbVertex
100
AcDb2dVertex
 10
1076.075383801967
 20
816.5736085639178
 30
0.0
  0
SEQEND
  5
153
330
14B
100
AcDbEntity
  8
Make2D$可见线$普通线
  0
POLYLINE
  5
154
330
1F
100
AcDbEntity
  8
Make2D$可见线$普通线
100
AcDb2dPolyline
 66
     1
 10
0.0
 20
0.0
 30
0.0
  0
VERTEX
  5
155
330
154
100
AcDbEntity
  8
Make2D$可见线$普通线
100
AcDbVertex
100
AcDb2dVertex
 10
1127.035174991185
 20
988.5000000000002
 30
0.0
  0
VERTEX
  5
156
330
154
100
AcDbEntity
  8
Make2D$可见线$普通线
100
AcDbVertex
100
AcDb2dVertex
 10
1129.035174991185
 20
988.5000000000002
 30
0.0
  0
VERTEX
  5
157
330
154
100
AcDbEntity
  8
Make2D$可见线$普通线
100
AcDbVertex
100
AcDb2dVertex
 10
1129.035174991185
 20
990.5000000000002
 30
0.0
  0
VERTEX
  5
158
330
154
100
AcDbEntity
  8
Make2D$可见线$普通线
100
AcDbVertex
100
AcDb2dVertex
 10
1130.035174991185
 20
990.5000000000002
 30
0.0
  0
VERTEX
  5
159
330
154
100
AcDbEntity
  8
Make2D$可见线$普通线
100
AcDbVertex
100
AcDb2dVertex
 10
1130.035174991185
 20
988.5000000000002
 30
0.0
  0
VERTEX
  5
15A
330
154
100
AcDbEntity
  8
Make2D$可见线$普通线
100
AcDbVertex
100
AcDb2dVertex
 10
1132.035174991185
 20
988.5000000000002
 30
0.0
  0
VERTEX
  5
15B
330
154
100
AcDbEntity
  8
Make2D$可见线$普通线
100
AcDbVertex
100
AcDb2dVertex
 10
1132.035174991185
 20
987.5000000000002
 30
0.0
  0
VERTEX
  5
15C
330
154
100
AcDbEntity
  8
Make2D$可见线$普通线
100
AcDbVertex
100
AcDb2dVertex
 10
1130.035174991185
 20
987.5000000000002
 30
0.0
  0
VERTEX
  5
15D
330
154
100
AcDbEntity
  8
Make2D$可见线$普通线
100
AcDbVertex
100
AcDb2dVertex
 10
1130.035174991185
 20
985.5000000000002
 30
0.0
  0
VERTEX
  5
15E
330
154
100
AcDbEntity
  8
Make2D$可见线$普通线
100
AcDbVertex
100
AcDb2dVertex
 10
1129.035174991185
 20
985.5000000000002
 30
0.0
  0
VERTEX
  5
15F
330
154
100
AcDbEntity
  8
Make2D$可见线$普通线
100
AcDbVertex
100
AcDb2dVertex
 10
1129.035174991185
 20
987.5000000000002
 30
0.0
  0
VERTEX
  5
160
330
154
100
AcDbEntity
  8
Make2D$可见线$普通线
100
AcDbVertex
100
AcDb2dVertex
 10
1127.035174991185
 20
987.5000000000002
 30
0.0
  0
VERTEX
  5
161
330
154
100
AcDbEntity
  8
Make2D$可见线$普通线
100
AcDbVertex
100
AcDb2dVertex
 10
1127.035174991185
 20
988.5000000000002
 30
0.0
  0
SEQEND
  5
162
330
154
100
AcDbEntity
  8
Make2D$可见线$普通线
  0
POLYLINE
  5
163
330
1F
100
AcDbEntity
  8
Make2D$可见线$普通线
100
AcDb2dPolyline
 66
     1
 10
0.0
 20
0.0
 30
0.0
  0
VERTEX
  5
164
330
163
100
AcDbEntity
  8
Make2D$可见线$普通线
100
AcDbVertex
100
AcDb2dVertex
 10
1023.897512386935
 20
823.3205534206941
 30
0.0
 42
-0.3893550599229502
  0
VERTEX
  5
165
330
163
100
AcDbEntity
  8
Make2D$可见线$普通线
100
AcDbVertex
100
AcDb2dVertex
 10
1021.909165991243
 20
821.5000745575012
 30
0.0
  0
VERTEX
  5
166
330
163
100
AcDbEntity
  8
Make2D$可见线$普通线
100
AcDbVertex
100
AcDb2dVertex
 10
1009.035174991185
 20
821.5000000000002
 30
0.0
  0
VERTEX
  5
167
330
163
100
AcDbEntity
  8
Make2D$可见线$普通线
100
AcDbVertex
100
AcDb2dVertex
 10
1009.035174991185
 20
798.5000000000002
 30
0.0
  0
VERTEX
  5
168
330
163
100
AcDbEntity
  8
Make2D$可见线$普通线
100
AcDbVertex
100
AcDb2dVertex
 10
1021.909165991243
 20
798.4967968232231
 30
0.0
 42
-0.387489901042765
  0
VERTEX
  5
169
330
163
100
AcDbEntity
  8
Make2D$可见线$普通线
100
AcDbVertex
100
AcDb2dVertex
 10
1023.901108333626
 20
796.6719274068015
 30
0.0
  0
SEQEND
  5
16A
330
163
100
AcDbEntity
  8
Make2D$可见线$普通线
  0
POLYLINE
  5
16B
330
1F
100
AcDbEntity
  8
Make2D$可见线$普通线
100
AcDb2dPolyline
 66
     1
 10
0.0
 20
0.0
 30
0.0
  0
VERTEX
  5
16C
330
16B
100
AcDbEntity
  8
Make2D$可见线$普通线
100
AcDbVertex
100
AcDb2dVertex
 10
1009.029458379742
 20
821.4942833885574
 30
0.0
  0
VERTEX
  5
16D
330
16B
100
AcDbEntity
  8
Make2D$可见线$普通线
100
AcDbVertex
100
AcDb2dVertex
 10
1008.035174991185
 20
820.5000000000002
 30
0.0
  0
VERTEX
  5
16E
330
16B
100
AcDbEntity
  8
Make2D$可见线$普通线
100
AcDbVertex
100
AcDb2dVertex
 10
1008.035174991185
 20
799.5000000000002
 30
0.0
  0
VERTEX
  5
16F
330
16B
100
AcDbEntity
  8
Make2D$可见线$普通线
100
AcDbVertex
100
AcDb2dVertex
 10
1009.029458379743
 20
798.5057166114428
 30
0.0
  0
SEQEND
  5
170
330
16B
100
AcDbEntity
  8
Make2D$可见线$普通线
  0
POLYLINE
  5
171
330
1F
100
AcDbEntity
  8
Make2D$可见线$普通线
100
AcDb2dPolyline
 66
     1
 10
0.0
 20
0.0
 30
0.0
  0
VERTEX
  5
172
330
171
100
AcDbEntity
  8
Make2D$可见线$普通线
100
AcDbVertex
100
AcDb2dVertex
 10
1076.075383801967
 20
803.426391436082
 30
0.0
  0
VERTEX
  5
173
330
171
100
AcDbEntity
  8
Make2D$可见线$普通线
100
AcDbVertex
100
AcDb2dVertex
 10
1076.075383801967
 20
796.4999999999791
 30
0.0
 42
-0.4142220658203586
  0
VERTEX
  5
174
330
171
100
AcDbEntity
  8
Make2D$可见线$普通线
100
AcDbVertex
100
AcDb2dVertex
 10
1074.075383801967
 20
794.5001305990495
 30
0.0
  0
VERTEX
  5
175
330
171
100
AcDbEntity
  8
Make2D$可见线$普通线
100
AcDbVertex
100
AcDb2dVertex
 10
1066.035174991185
 20
794.5000000000002
 30
0.0
  0
VERTEX
  5
176
330
171
100
AcDbEntity
  8
Make2D$可见线$普通线
100
AcDbVertex
100
AcDb2dVertex
 10
1066.035174991185
 20
793.0000000000002
 30
0.0
  0
VERTEX
  5
177
330
171
100
AcDbEntity
  8
Make2D$可见线$普通线
100
AcDbVertex
100
AcDb2dVertex
 10
1058.909165991243
 20
792.9998152650684
 30
0.0
 42
0.3893410199305242
  0
VERTEX
  5
178
330
171
100
AcDbEntity
  8
Make2D$可见线$普通线
100
AcDbVertex
100
AcDb2dVertex
 10
1056.920815104361
 20
791.1791492461956
 30
0.0
  0
SEQEND
  5
179
330
171
100
AcDbEntity
  8
Make2D$可见线$普通线
  0
POLYLINE
  5
17A
330
1F
100
AcDbEntity
  8
Make2D$可见线$普通线
100
AcDb2dPolyline
 66
     1
 10
0.0
 20
0.0
 30
0.0
  0
VERTEX
  5
17B
330
17A
100
AcDbEntity
  8
Make2D$可见线$普通线
100
AcDbVertex
100
AcDb2dVertex
 10
1074.075383801967
 20
816.982061056513
 30
0.0
  0
VERTEX
  5
17C
330
17A
100
AcDbEntity
  8
Make2D$可见线$普通线
100
AcDbVertex
100
AcDb2dVertex
 10
1066.035174991185
 20
816.9821200218846
 30
0.0
  0
VERTEX
  5
17D
330
17A
100
AcDbEntity
  8
Make2D$可见线$普通线
100
AcDbVertex
100
AcDb2dVertex
 10
1066.035174991185
 20
803.0178799781156
 30
0.0
  0
VERTEX
  5
17E
330
17A
100
AcDbEntity
  8
Make2D$可见线$普通线
100
AcDbVertex
100
AcDb2dVertex
 10
1074.075383801967
 20
803.0179389434873
 30
0.0
  0
VERTEX
  5
17F
330
17A
100
AcDbEntity
  8
Make2D$可见线$普通线
100
AcDbVertex
100
AcDb2dVertex
 10
1074.434171684932
 20
803.0264029022935
 30
0.0
  0
VERTEX
  5
180
330
17A
100
AcDbEntity
  8
Make2D$可见线$普通线
100
AcDbVertex
100
AcDb2dVertex
 10
1074.613527081336
 20
803.0350114511261
 30
0.0
  0
VERTEX
  5
181
330
17A
100
AcDbEntity
  8
Make2D$可见线$普通线
100
AcDbVertex
100
AcDb2dVertex
 10
1074.792613155352
 20
803.0474660742585
 30
0.0
  0
VERTEX
  5
182
330
17A
100
AcDbEntity
  8
Make2D$可见线$普通线
100
AcDbVertex
100
AcDb2dVertex
 10
1074.971247187727
 20
803.0644630427007
 30
0.0
  0
VERTEX
  5
183
330
17A
100
AcDbEntity
  8
Make2D$可见线$普通线
100
AcDbVertex
100
AcDb2dVertex
 10
1075.149246459211
 20
803.0866986274627
 30
0.0
  0
VERTEX
  5
184
330
17A
100
AcDbEntity
  8
Make2D$可见线$普通线
100
AcDbVertex
100
AcDb2dVertex
 10
1075.237950959852
 20
803.0999984856543
 30
0.0
  0
VERTEX
  5
185
330
17A
100
AcDbEntity
  8
Make2D$可见线$普通线
100
AcDbVertex
100
AcDb2dVertex
 10
1075.32642825055
 20
803.1148690995544
 30
0.0
  0
VERTEX
  5
186
330
17A
100
AcDbEntity
  8
Make2D$可见线$普通线
100
AcDbVertex
100
AcDb2dVertex
 10
1075.4146554914
 20
803.1313975030397
 30
0.0
  0
VERTEX
  5
187
330
17A
100
AcDbEntity
  8
Make2D$可见线$普通线
100
AcDbVertex
100
AcDb2dVertex
 10
1075.502609842493
 20
803.1496707299862
 30
0.0
  0
VERTEX
  5
188
330
17A
100
AcDbEntity
  8
Make2D$可见线$普通线
100
AcDbVertex
100
AcDb2dVertex
 10
1075.557587844646
 20
803.1621009778193
 30
0.0
  0
VERTEX
  5
189
330
17A
100
AcDbEntity
  8
Make2D$可见线$普通线
100
AcDbVertex
100
AcDb2dVertex
 10
1075.612311633528
 20
803.1755345416898
 30
0.0
  0
VERTEX
  5
18A
330
17A
100
AcDbEntity
  8
Make2D$可见线$普通线
100
AcDbVertex
100
AcDb2dVertex
 10
1075.666643264535
 20
803.1902545271455
 30
0.0
  0
VERTEX
  5
18B
330
17A
100
AcDbEntity
  8
Make2D$可见线$普通线
100
AcDbVertex
100
AcDb2dVertex
 10
1075.72044479306
 20
803.2065440397334
 30
0.0
  0
VERTEX
  5
18C
330
17A
100
AcDbEntity
  8
Make2D$可见线$普通线
100
AcDbVertex
100
AcDb2dVertex
 10
1075.747103661203
 20
803.2153658391857
 30
0.0
  0
VERTEX
  5
18D
330
17A
100
AcDbEntity
  8
Make2D$可见线$普通线
100
AcDbVertex
100
AcDb2dVertex
 10
1075.773578274498
 20
803.2246861850011
 30
0.0
  0
VERTEX
  5
18E
330
17A
100
AcDbEntity
  8
Make2D$可见线$普通线
100
AcDbVertex
100
AcDb2dVertex
 10
1075.79985138987
 20
803.2345404653734
 30
0.0
  0
VERTEX
  5
18F
330
17A
100
AcDbEntity
  8
Make2D$可见线$普通线
100
AcDbVertex
100
AcDb2dVertex
 10
1075.825905764243
 20
803.2449640684961
 30
0.0
  0
VERTEX
  5
190
330
17A
100
AcDbEntity
  8
Make2D$可见线$普通线
100
AcDbVertex
100
AcDb2dVertex
 10
1075.851724154541
 20
803.2559923825621
 30
0.0
  0
VERTEX
  5
191
330
17A
100
AcDbEntity
  8
Make2D$可见线$普通线
100
AcDbVertex
100
AcDb2dVertex
 10
1075.877289317689
 20
803.2676607957653
 30
0.0
  0
VERTEX
  5
192
330
17A
100
AcDbEntity
  8
Make2D$可见线$普通线
100
AcDbVertex
100
AcDb2dVertex
 10
1075.90258401061
 20
803.2800046962991
 30
0.0
  0
VERTEX
  5
193
330
17A
100
AcDbEntity
  8
Make2D$可见线$普通线
100
AcDbVertex
100
AcDb2dVertex
 10
1075.927590990229
 20
803.2930594723567
 30
0.0
  0
VERTEX
  5
194
330
17A
100
AcDbEntity
  8
Make2D$可见线$普通线
100
AcDbVertex
100
AcDb2dVertex
 10
1075.942653498958
 20
803.3013837375936
 30
0.0
  0
VERTEX
  5
195
330
17A
100
AcDbEntity
  8
Make2D$可见线$普通线
100
AcDbVertex
100
AcDb2dVertex
 10
1075.957508843198
 20
803.3100673554491
 30
0.0
  0
VERTEX
  5
196
330
17A
100
AcDbEntity
  8
Make2D$可见线$普通线
100
AcDbVertex
100
AcDb2dVertex
 10
1075.972062909866
 20
803.3191930286098
 30
0.0
  0
VERTEX
  5
197
330
17A
100
AcDbEntity
  8
Make2D$可见线$普通线
100
AcDbVertex
100
AcDb2dVertex
 10
1075.979197553771
 20
803.3239474805193
 30
0.0
  0
VERTEX
  5
198
330
17A
100
AcDbEntity
  8
Make2D$可见线$普通线
100
AcDbVertex
100
AcDb2dVertex
 10
1075.986221585877
 20
803.3288434597628
 30
0.0
  0
VERTEX
  5
199
330
17A
100
AcDbEntity
  8
Make2D$可见线$普通线
100
AcDbVertex
100
AcDb2dVertex
 10
1075.993123242047
 20
803.333891304176
 30
0.0
  0
VERTEX
  5
19A
330
17A
100
AcDbEntity
  8
Make2D$可见线$普通线
100
AcDbVertex
100
AcDb2dVertex
 10
1075.999890758147
 20
803.3391013515948
 30
0.0
  0
VERTEX
  5
19B
330
17A
100
AcDbEntity
  8
Make2D$可见线$普通线
100
AcDbVertex
100
AcDb2dVertex
 10
1076.00651237004
 20
803.3444839398551
 30
0.0
  0
VERTEX
  5
19C
330
17A
100
AcDbEntity
  8
Make2D$可见线$普通线
100
AcDbVertex
100
AcDb2dVertex
 10
1076.012976313592
 20
803.3500494067926
 30
0.0
  0
VERTEX
  5
19D
330
17A
100
AcDbEntity
  8
Make2D$可见线$普通线
100
AcDbVertex
100
AcDb2dVertex
 10
1076.019270824666
 20
803.3558080902433
 30
0.0
  0
VERTEX
  5
19E
330
17A
100
AcDbEntity
  8
Make2D$可见线$普通线
100
AcDbVertex
100
AcDb2dVertex
 10
1076.025384139127
 20
803.3617703280429
 30
0.0
  0
VERTEX
  5
19F
330
17A
100
AcDbEntity
  8
Make2D$可见线$普通线
100
AcDbVertex
100
AcDb2dVertex
 10
1076.03130449284
 20
803.3679464580273
 30
0.0
  0
VERTEX
  5
1A0
330
17A
100
AcDbEntity
  8
Make2D$可见线$普通线
100
AcDbVertex
100
AcDb2dVertex
 10
1076.034188633124
 20
803.3711179631625
 30
0.0
  0
VERTEX
  5
1A1
330
17A
100
AcDbEntity
  8
Make2D$可见线$普通线
100
AcDbVertex
100
AcDb2dVertex
 10
1076.03702012167
 20
803.3743468180326
 30
0.0
  0
VERTEX
  5
1A2
330
17A
100
AcDbEntity
  8
Make2D$可见线$普通线
100
AcDbVertex
100
AcDb2dVertex
 10
1076.04101364161
 20
803.3791155781269
 30
0.0
  0
VERTEX
  5
1A3
330
17A
100
AcDbEntity
  8
Make2D$可见线$普通线
100
AcDbVertex
100
AcDb2dVertex
 10
1076.04487653788
 20
803.38400398453
 30
0.0
  0
VERTEX
  5
1A4
330
17A
100
AcDbEntity
  8
Make2D$可见线$普通线
100
AcDbVertex
100
AcDb2dVertex
 10
1076.048591207268
 20
803.3890092248372
 30
0.0
  0
VERTEX
  5
1A5
330
17A
100
AcDbEntity
  8
Make2D$可见线$普通线
100
AcDbVertex
100
AcDb2dVertex
 10
1076.052140046563
 20
803.3941284866434
 30
0.0
  0
VERTEX
  5
1A6
330
17A
100
AcDbEntity
  8
Make2D$可见线$普通线
100
AcDbVertex
100
AcDb2dVertex
 10
1076.053846778922
 20
803.3967299967319
 30
0.0
  0
VERTEX
  5
1A7
330
17A
100
AcDbEntity
  8
Make2D$可见线$普通线
100
AcDbVertex
100
AcDb2dVertex
 10
1076.055505452553
 20
803.3993589575434
 30
0.0
  0
VERTEX
  5
1A8
330
17A
100
AcDbEntity
  8
Make2D$可见线$普通线
100
AcDbVertex
100
AcDb2dVertex
 10
1076.057113867056
 20
803.4020150175271
 30
0.0
  0
VERTEX
  5
1A9
330
17A
100
AcDbEntity
  8
Make2D$可见线$普通线
100
AcDbVertex
100
AcDb2dVertex
 10
1076.058669822029
 20
803.4046978251324
 30
0.0
  0
VERTEX
  5
1AA
330
17A
100
AcDbEntity
  8
Make2D$可见线$普通线
100
AcDbVertex
100
AcDb2dVertex
 10
1076.060171117069
 20
803.4074070288086
 30
0.0
  0
VERTEX
  5
1AB
330
17A
100
AcDbEntity
  8
Make2D$可见线$普通线
100
AcDbVertex
100
AcDb2dVertex
 10
1076.061615551777
 20
803.4101422770052
 30
0.0
  0
VERTEX
  5
1AC
330
17A
100
AcDbEntity
  8
Make2D$可见线$普通线
100
AcDbVertex
100
AcDb2dVertex
 10
1076.06300092575
 20
803.4129032181714
 30
0.0
  0
VERTEX
  5
1AD
330
17A
100
AcDbEntity
  8
Make2D$可见线$普通线
100
AcDbVertex
100
AcDb2dVertex
 10
1076.064325038587
 20
803.4156895007568
 30
0.0
  0
VERTEX
  5
1AE
330
17A
100
AcDbEntity
  8
Make2D$可见线$普通线
100
AcDbVertex
100
AcDb2dVertex
 10
1076.065585689887
 20
803.4185007732106
 30
0.0
  0
VERTEX
  5
1AF
330
17A
100
AcDbEntity
  8
Make2D$可见线$普通线
100
AcDbVertex
100
AcDb2dVertex
 10
1076.066780679249
 20
803.4213366839821
 30
0.0
  0
VERTEX
  5
1B0
330
17A
100
AcDbEntity
  8
Make2D$可见线$普通线
100
AcDbVertex
100
AcDb2dVertex
 10
1076.06790780627
 20
803.4241968815209
 30
0.0
  0
VERTEX
  5
1B1
330
17A
100
AcDbEntity
  8
Make2D$可见线$普通线
100
AcDbVertex
100
AcDb2dVertex
 10
1076.06896487055
 20
803.427081014276
 30
0.0
  0
VERTEX
  5
1B2
330
17A
100
AcDbEntity
  8
Make2D$可见线$普通线
100
AcDbVertex
100
AcDb2dVertex
 10
1076.069949671687
 20
803.4299887306971
 30
0.0
  0
VERTEX
  5
1B3
330
17A
100
AcDbEntity
  8
Make2D$可见线$普通线
100
AcDbVertex
100
AcDb2dVertex
 10
1076.07086000928
 20
803.4329196792335
 30
0.0
  0
VERTEX
  5
1B4
330
17A
100
AcDbEntity
  8
Make2D$可见线$普通线
100
AcDbVertex
100
AcDb2dVertex
 10
1076.071693682927
 20
803.4358735083345
 30
0.0
  0
VERTEX
  5
1B5
330
17A
100
AcDbEntity
  8
Make2D$可见线$普通线
100
AcDbVertex
100
AcDb2dVertex
 10
1076.072448492228
 20
803.4388498664496
 30
0.0
  0
VERTEX
  5
1B6
330
17A
100
AcDbEntity
  8
Make2D$可见线$普通线
100
AcDbVertex
100
AcDb2dVertex
 10
1076.073122236779
 20
803.441848402028
 30
0.0
  0
VERTEX
  5
1B7
330
17A
100
AcDbEntity
  8
Make2D$可见线$普通线
100
AcDbVertex
100
AcDb2dVertex
 10
1076.073712716181
 20
803.4448687635191
 30
0.0
  0
VERTEX
  5
1B8
330
17A
100
AcDbEntity
  8
Make2D$可见线$普通线
100
AcDbVertex
100
AcDb2dVertex
 10
1076.074217730031
 20
803.4479105993724
 30
0.0
  0
VERTEX
  5
1B9
330
17A
100
AcDbEntity
  8
Make2D$可见线$普通线
100
AcDbVertex
100
AcDb2dVertex
 10
1076.07463507793
 20
803.4509735580372
 30
0.0
  0
VERTEX
  5
1BA
330
17A
100
AcDbEntity
  8
Make2D$可见线$普通线
100
AcDbVertex
100
AcDb2dVertex
 10
1076.074962559474
 20
803.4540572879628
 30
0.0
  0
VERTEX
  5
1BB
330
17A
100
AcDbEntity
  8
Make2D$可见线$普通线
100
AcDbVertex
100
AcDb2dVertex
 10
1076.075197974262
 20
803.4571614375984
 30
0.0
  0
VERTEX
  5
1BC
330
17A
100
AcDbEntity
  8
Make2D$可见线$普通线
100
AcDbVertex
100
AcDb2dVertex
 10
1076.075339121894
 20
803.4602856553938
 30
0.0
  0
VERTEX
  5
1BD
330
17A
100
AcDbEntity
  8
Make2D$可见线$普通线
100
AcDbVertex
100
AcDb2dVertex
 10
1076.075383801967
 20
803.4634295897981
 30
0.0
  0
VERTEX
  5
1BE
330
17A
100
AcDbEntity
  8
Make2D$可见线$普通线
100
AcDbVertex
100
AcDb2dVertex
 10
1076.075383801967
 20
816.5365704102023
 30
0.0
  0
VERTEX
  5
1BF
330
17A
100
AcDbEntity
  8
Make2D$可见线$普通线
100
AcDbVertex
100
AcDb2dVertex
 10
1076.075338502584
 20
816.5397004657573
 30
0.0
  0
VERTEX
  5
1C0
330
17A
100
AcDbEntity
  8
Make2D$可见线$普通线
100
AcDbVertex
100
AcDb2dVertex
 10
1076.075196821706
 20
816.542812746668
 30
0.0
  0
VERTEX
  5
1C1
330
17A
100
AcDbEntity
  8
Make2D$可见线$普通线
100
AcDbVertex
100
AcDb2dVertex
 10
1076.074960955913
 20
816.5459068143742
 30
0.0
  0
VERTEX
  5
1C2
330
17A
100
AcDbEntity
  8
Make2D$可见线$普通线
100
AcDbVertex
100
AcDb2dVertex
 10
1076.074633101784
 20
816.5489822303157
 30
0.0
  0
VERTEX
  5
1C3
330
17A
100
AcDbEntity
  8
Make2D$可见线$普通线
100
AcDbVertex
100
AcDb2dVertex
 10
1076.074215455901
 20
816.5520385559323
 30
0.0
  0
VERTEX
  5
1C4
330
17A
100
AcDbEntity
  8
Make2D$可见线$普通线
100
AcDbVertex
100
AcDb2dVertex
 10
1076.073710214843
 20
816.5550753526638
 30
0.0
  0
VERTEX
  5
1C5
330
17A
100
AcDbEntity
  8
Make2D$可见线$普通线
100
AcDbVertex
100
AcDb2dVertex
 10
1076.073119575189
 20
816.5580921819502
 30
0.0
  0
VERTEX
  5
1C6
330
17A
100
AcDbEntity
  8
Make2D$可见线$普通线
100
AcDbVertex
100
AcDb2dVertex
 10
1076.072445733521
 20
816.5610886052308
 30
0.0
  0
VERTEX
  5
1C7
330
17A
100
AcDbEntity
  8
Make2D$可见线$普通线
100
AcDbVertex
100
AcDb2dVertex
 10
1076.071690886417
 20
816.5640641839458
 30
0.0
  0
VERTEX
  5
1C8
330
17A
100
AcDbEntity
  8
Make2D$可见线$普通线
100
AcDbVertex
100
AcDb2dVertex
 10
1076.070857230457
 20
816.5670184795349
 30
0.0
  0
VERTEX
  5
1C9
330
17A
100
AcDbEntity
  8
Make2D$可见线$普通线
100
AcDbVertex
100
AcDb2dVertex
 10
1076.069946962223
 20
816.569951053438
 30
0.0
  0
VERTEX
  5
1CA
330
17A
100
AcDbEntity
  8
Make2D$可见线$普通线
100
AcDbVertex
100
AcDb2dVertex
 10
1076.068962278292
 20
816.5728614670946
 30
0.0
  0
VERTEX
  5
1CB
330
17A
100
AcDbEntity
  8
Make2D$可见线$普通线
100
AcDbVertex
100
AcDb2dVertex
 10
1076.067905375246
 20
816.5757492819449
 30
0.0
  0
VERTEX
  5
1CC
330
17A
100
AcDbEntity
  8
Make2D$可见线$普通线
100
AcDbVertex
100
AcDb2dVertex
 10
1076.066778449665
 20
816.5786140594284
 30
0.0
  0
VERTEX
  5
1CD
330
17A
100
AcDbEntity
  8
Make2D$可见线$普通线
100
AcDbVertex
100
AcDb2dVertex
 10
1076.065583698128
 20
816.581455360985
 30
0.0
  0
VERTEX
  5
1CE
330
17A
100
AcDbEntity
  8
Make2D$可见线$普通线
100
AcDbVertex
100
AcDb2dVertex
 10
1076.064323317215
 20
816.5842727480547
 30
0.0
  0
VERTEX
  5
1CF
330
17A
100
AcDbEntity
  8
Make2D$可见线$普通线
100
AcDbVertex
100
AcDb2dVertex
 10
1076.062999503506
 20
816.5870657820769
 30
0.0
  0
VERTEX
  5
1D0
330
17A
100
AcDbEntity
  8
Make2D$可见线$普通线
100
AcDbVertex
100
AcDb2dVertex
 10
1076.061614453582
 20
816.5898340244917
 30
0.0
  0
VERTEX
  5
1D1
330
17A
100
AcDbEntity
  8
Make2D$可见线$普通线
100
AcDbVertex
100
AcDb2dVertex
 10
1076.060170364021
 20
816.5925770367387
 30
0.0
  0
VERTEX
  5
1D2
330
17A
100
AcDbEntity
  8
Make2D$可见线$普通线
100
AcDbVertex
100
AcDb2dVertex
 10
1076.058669431404
 20
816.5952943802579
 30
0.0
  0
VERTEX
  5
1D3
330
17A
100
AcDbEntity
  8
Make2D$可见线$普通线
100
AcDbVertex
100
AcDb2dVertex
 10
1076.057113852312
 20
816.597985616489
 30
0.0
  0
VERTEX
  5
1D4
330
17A
100
AcDbEntity
  8
Make2D$可见线$普通线
100
AcDbVertex
100
AcDb2dVertex
 10
1076.055505823323
 20
816.6006503068718
 30
0.0
  0
VERTEX
  5
1D5
330
17A
100
AcDbEntity
  8
Make2D$可见线$普通线
100
AcDbVertex
100
AcDb2dVertex
 10
1076.053847541018
 20
816.6032880128462
 30
0.0
  0
VERTEX
  5
1D6
330
17A
100
AcDbEntity
  8
Make2D$可见线$普通线
100
AcDbVertex
100
AcDb2dVertex
 10
1076.052141201976
 20
816.6058982958518
 30
0.0
  0
VERTEX
  5
1D7
330
17A
100
AcDbEntity
  8
Make2D$可见线$普通线
100
AcDbVertex
100
AcDb2dVertex
 10
1076.048593140004
 20
816.6110348387163
 30
0.0
  0
VERTEX
  5
1D8
330
17A
100
AcDbEntity
  8
Make2D$可见线$普通线
100
AcDbVertex
100
AcDb2dVertex
 10
1076.044879210045
 20
816.6160564269835
 30
0.0
  0
VERTEX
  5
1D9
330
17A
100
AcDbEntity
  8
Make2D$可见线$普通线
100
AcDbVertex
100
AcDb2dVertex
 10
1076.04101698474
 20
816.620959552172
 30
0.0
  0
VERTEX
  5
1DA
330
17A
100
AcDbEntity
  8
Make2D$可见线$普通线
100
AcDbVertex
100
AcDb2dVertex
 10
1076.037024036728
 20
816.6257407058004
 30
0.0
  0
VERTEX
  5
1DB
330
17A
100
AcDbEntity
  8
Make2D$可见线$普通线
100
AcDbVertex
100
AcDb2dVertex
 10
1076.034192872009
 20
816.6289764583664
 30
0.0
  0
VERTEX
  5
1DC
330
17A
100
AcDbEntity
  8
Make2D$可见线$普通线
100
AcDbVertex
100
AcDb2dVertex
 10
1076.031308995894
 20
816.6321534733174
 30
0.0
  0
VERTEX
  5
1DD
330
17A
100
AcDbEntity
  8
Make2D$可见线$普通线
100
AcDbVertex
100
AcDb2dVertex
 10
1076.025389001169
 20
816.6383366950796
 30
0.0
  0
VERTEX
  5
1DE
330
17A
100
AcDbEntity
  8
Make2D$可见线$普通线
100
AcDbVertex
100
AcDb2dVertex
 10
1076.019275835944
 20
816.6443011804973
 30
0.0
  0
VERTEX
  5
1DF
330
17A
100
AcDbEntity
  8
Make2D$可见线$普通线
100
AcDbVertex
100
AcDb2dVertex
 10
1076.01298128361
 20
816.6500577389813
 30
0.0
  0
VERTEX
  5
1E0
330
17A
100
AcDbEntity
  8
Make2D$可见线$普通线
100
AcDbVertex
100
AcDb2dVertex
 10
1076.006517127558
 20
816.6556171799418
 30
0.0
  0
VERTEX
  5
1E1
330
17A
100
AcDbEntity
  8
Make2D$可见线$普通线
100
AcDbVertex
100
AcDb2dVertex
 10
1075.99989515118
 20
816.6609903127894
 30
0.0
  0
VERTEX
  5
1E2
330
17A
100
AcDbEntity
  8
Make2D$可见线$普通线
100
AcDbVertex
100
AcDb2dVertex
 10
1075.993127137865
 20
816.6661879469345
 30
0.0
  0
VERTEX
  5
1E3
330
17A
100
AcDbEntity
  8
Make2D$可见线$普通线
100
AcDbVertex
100
AcDb2dVertex
 10
1075.986224871006
 20
816.6712208917875
 30
0.0
  0
VERTEX
  5
1E4
330
17A
100
AcDbEntity
  8
Make2D$可见线$普通线
100
AcDbVertex
100
AcDb2dVertex
 10
1075.979200133993
 20
816.6760999567589
 30
0.0
  0
VERTEX
  5
1E5
330
17A
100
AcDbEntity
  8
Make2D$可见线$普通线
100
AcDbVertex
100
AcDb2dVertex
 10
1075.972064710218
 20
816.680835951259
 30
0.0
  0
VERTEX
  5
1E6
330
17A
100
AcDbEntity
  8
Make2D$可见线$普通线
100
AcDbVertex
100
AcDb2dVertex
 10
1075.957508935943
 20
816.6899219664879
 30
0.0
  0
VERTEX
  5
1E7
330
17A
100
AcDbEntity
  8
Make2D$可见线$普通线
100
AcDbVertex
100
AcDb2dVertex
 10
1075.942651815309
 20
816.6985654127573
 30
0.0
  0
VERTEX
  5
1E8
330
17A
100
AcDbEntity
  8
Make2D$可见线$普通线
100
AcDbVertex
100
AcDb2dVertex
 10
1075.927587615446
 20
816.7068527653512
 30
0.0
  0
VERTEX
  5
1E9
330
17A
100
AcDbEntity
  8
Make2D$可见线$普通线
100
AcDbVertex
100
AcDb2dVertex
 10
1075.902578328239
 20
816.7198608479512
 30
0.0
  0
VERTEX
  5
1EA
330
17A
100
AcDbEntity
  8
Make2D$可见线$普通线
100
AcDbVertex
100
AcDb2dVertex
 10
1075.877281930271
 20
816.7321752628596
 30
0.0
  0
VERTEX
  5
1EB
330
17A
100
AcDbEntity
  8
Make2D$可见线$普通线
100
AcDbVertex
100
AcDb2dVertex
 10
1075.851715621639
 20
816.7438296385105
 30
0.0
  0
VERTEX
  5
1EC
330
17A
100
AcDbEntity
  8
Make2D$可见线$普通线
100
AcDbVertex
100
AcDb2dVertex
 10
1075.825896602442
 20
816.7548576033377
 30
0.0
  0
VERTEX
  5
1ED
330
17A
100
AcDbEntity
  8
Make2D$可见线$普通线
100
AcDbVertex
100
AcDb2dVertex
 10
1075.799842072775
 20
816.765292785775
 30
0.0
  0
VERTEX
  5
1EE
330
17A
100
AcDbEntity
  8
Make2D$可见线$普通线
100
AcDbVertex
100
AcDb2dVertex
 10
1075.773569232738
 20
816.7751688142566
 30
0.0
  0
VERTEX
  5
1EF
330
17A
100
AcDbEntity
  8
Make2D$可见线$普通线
100
AcDbVertex
100
AcDb2dVertex
 10
1075.747095282427
 20
816.7845193172164
 30
0.0
  0
VERTEX
  5
1F0
330
17A
100
AcDbEntity
  8
Make2D$可见线$普通线
100
AcDbVertex
100
AcDb2dVertex
 10
1075.720437421941
 20
816.7933779230883
 30
0.0
  0
VERTEX
  5
1F1
330
17A
100
AcDbEntity
  8
Make2D$可见线$普通线
100
AcDbVertex
100
AcDb2dVertex
 10
1075.666638770832
 20
816.8097539573042
 30
0.0
  0
VERTEX
  5
1F2
330
17A
100
AcDbEntity
  8
Make2D$可见线$普通线
100
AcDbVertex
100
AcDb2dVertex
 10
1075.612310880193
 20
816.824565944376
 30
0.0
  0
VERTEX
  5
1F3
330
17A
100
AcDbEntity
  8
Make2D$可见线$普通线
100
AcDbVertex
100
AcDb2dVertex
 10
1075.557591350804
 20
816.8380829117752
 30
0.0
  0
VERTEX
  5
1F4
330
17A
100
AcDbEntity
  8
Make2D$可见线$普通线
100
AcDbVertex
100
AcDb2dVertex
 10
1075.502617783447
 20
816.8505738869735
 30
0.0
  0
VERTEX
  5
1F5
330
17A
100
AcDbEntity
  8
Make2D$可见线$普通线
100
AcDbVertex
100
AcDb2dVertex
 10
1075.423239670103
 20
816.8671760414775
 30
0.0
  0
VERTEX
  5
1F6
330
17A
100
AcDbEntity
  8
Make2D$可见线$普通线
100
AcDbVertex
100
AcDb2dVertex
 10
1075.343636235035
 20
816.882288956269
 30
0.0
  0
VERTEX
  5
1F7
330
17A
100
AcDbEntity
  8
Make2D$可见线$普通线
100
AcDbVertex
100
AcDb2dVertex
 10
1075.183817434372
 20
816.9083657177457
 30
0.0
  0
VERTEX
  5
1F8
330
17A
100
AcDbEntity
  8
Make2D$可见线$普通线
100
AcDbVertex
100
AcDb2dVertex
 10
1075.023289450754
 20
816.9294414734673
 30
0.0
  0
VERTEX
  5
1F9
330
17A
100
AcDbEntity
  8
Make2D$可见线$普通线
100
AcDbVertex
100
AcDb2dVertex
 10
1074.862180353476
 20
816.9461535254973
 30
0.0
  0
VERTEX
  5
1FA
330
17A
100
AcDbEntity
  8
Make2D$可见线$普通线
100
AcDbVertex
100
AcDb2dVertex
 10
1074.672307785352
 20
816.9610557961327
 30
0.0
  0
VERTEX
  5
1FB
330
17A
100
AcDbEntity
  8
Make2D$可见线$普通线
100
AcDbVertex
100
AcDb2dVertex
 10
1074.482150414429
 20
816.9717159189083
 30
0.0
  0
VERTEX
  5
1FC
330
17A
100
AcDbEntity
  8
Make2D$可见线$普通线
100
AcDbVertex
100
AcDb2dVertex
 10
1074.278864793363
 20
816.9791421775633
 30
0.0
  0
VERTEX
  5
1FD
330
17A
100
AcDbEntity
  8
Make2D$可见线$普通线
100
AcDbVertex
100
AcDb2dVertex
 10
1074.075383801967
 20
816.982061056513
 30
0.0
  0
SEQEND
  5
1FE
330
17A
100
AcDbEntity
  8
Make2D$可见线$普通线
  0
POLYLINE
  5
1FF
330
1F
100
AcDbEntity
  8
Make2D$可见线$普通线
100
AcDb2dPolyline
 66
     1
 10
0.0
 20
0.0
 30
0.0
  0
VERTEX
  5
200
330
1FF
100
AcDbEntity
  8
Make2D$可见线$普通线
100
AcDbVertex
100
AcDb2dVertex
 10
1076.075383801967
 20
952.4263914360827
 30
0.0
  0
VERTEX
  5
201
330
1FF
100
AcDbEntity
  8
Make2D$可见线$普通线
100
AcDbVertex
100
AcDb2dVertex
 10
1076.075383801967
 20
945.4999999999793
 30
0.0
 42
-0.4141989783155213
  0
VERTEX
  5
202
330
1FF
100
AcDbEntity
  8
Make2D$可见线$普通线
100
AcDbVertex
100
AcDb2dVertex
 10
1074.075383801967
 20
943.5000652995249
 30
0.0
  0
VERTEX
  5
203
330
1FF
100
AcDbEntity
  8
Make2D$可见线$普通线
100
AcDbVertex
100
AcDb2dVertex
 10
1066.035174991185
 20
943.5000000000002
 30
0.0
  0
VERTEX
  5
204
330
1FF
100
AcDbEntity
  8
Make2D$可见线$普通线
100
AcDbVertex
100
AcDb2dVertex
 10
1066.035174991185
 20
942.0029373662938
 30
0.0
  0
VERTEX
  5
205
330
1FF
100
AcDbEntity
  8
Make2D$可见线$普通线
100
AcDbVertex
100
AcDb2dVertex
 10
1058.909165991243
 20
941.9998152650683
 30
0.0
 42
0.3936479230055186
  0
VERTEX
  5
206
330
1FF
100
AcDbEntity
  8
Make2D$可见线$普通线
100
AcDbVertex
100
AcDb2dVertex
 10
1056.918072536025
 20
940.1485766986304
 30
0.0
  0
SEQEND
  5
207
330
1FF
100
AcDbEntity
  8
Make2D$可见线$普通线
  0
POLYLINE
  5
208
330
1F
100
AcDbEntity
  8
Make2D$可见线$普通线
100
AcDb2dPolyline
 66
     1
 10
0.0
 20
0.0
 30
0.0
  0
VERTEX
  5
209
330
208
100
AcDbEntity
  8
Make2D$可见线$普通线
100
AcDbVertex
100
AcDb2dVertex
 10
1129.235174991185
 20
988.3000000000002
 30
0.0
  0
VERTEX
  5
20A
330
208
100
AcDbEntity
  8
Make2D$可见线$普通线
100
AcDbVertex
100
AcDb2dVertex
 10
1129.235174991185
 20
990.3000000000002
 30
0.0
  0
VERTEX
  5
20B
330
208
100
AcDbEntity
  8
Make2D$可见线$普通线
100
AcDbVertex
100
AcDb2dVertex
 10
1129.835174991185
 20
990.3000000000002
 30
0.0
  0
VERTEX
  5
20C
330
208
100
AcDbEntity
  8
Make2D$可见线$普通线
100
AcDbVertex
100
AcDb2dVertex
 10
1129.835174991185
 20
988.3000000000002
 30
0.0
  0
VERTEX
  5
20D
330
208
100
AcDbEntity
  8
Make2D$可见线$普通线
100
AcDbVertex
100
AcDb2dVertex
 10
1131.835174991185
 20
988.3000000000002
 30
0.0
  0
VERTEX
  5
20E
330
208
100
AcDbEntity
  8
Make2D$可见线$普通线
100
AcDbVertex
100
AcDb2dVertex
 10
1131.835174991185
 20
987.7000000000003
 30
0.0
  0
VERTEX
  5
20F
330
208
100
AcDbEntity
  8
Make2D$可见线$普通线
100
AcDbVertex
100
AcDb2dVertex
 10
1129.835174991185
 20
987.7000000000003
 30
0.0
  0
VERTEX
  5
210
330
208
100
AcDbEntity
  8
Make2D$可见线$普通线
100
AcDbVertex
100
AcDb2dVertex
 10
1129.835174991185
 20
985.7000000000003
 30
0.0
  0
VERTEX
  5
211
330
208
100
AcDbEntity
  8
Make2D$可见线$普通线
100
AcDbVertex
100
AcDb2dVertex
 10
1129.235174991185
 20
985.7000000000003
 30
0.0
  0
VERTEX
  5
212
330
208
100
AcDbEntity
  8
Make2D$可见线$普通线
100
AcDbVertex
100
AcDb2dVertex
 10
1129.235174991185
 20
987.7000000000003
 30
0.0
  0
VERTEX
  5
213
330
208
100
AcDbEntity
  8
Make2D$可见线$普通线
100
AcDbVertex
100
AcDb2dVertex
 10
1127.235174991185
 20
987.7000000000003
 30
0.0
  0
VERTEX
  5
214
330
208
100
AcDbEntity
  8
Make2D$可见线$普通线
100
AcDbVertex
100
AcDb2dVertex
 10
1127.235174991185
 20
988.3000000000002
 30
0.0
  0
VERTEX
  5
215
330
208
100
AcDbEntity
  8
Make2D$可见线$普通线
100
AcDbVertex
100
AcDb2dVertex
 10
1129.235174991185
 20
988.3000000000002
 30
0.0
  0
SEQEND
  5
216
330
208
100
AcDbEntity
  8
Make2D$可见线$普通线
  0
POLYLINE
  5
217
330
1F
100
AcDbEntity
  8
Make2D$可见线$普通线
100
AcDb2dPolyline
 66
     1
 10
0.0
 20
0.0
 30
0.0
  0
VERTEX
  5
218
330
217
100
AcDbEntity
  8
Make2D$可见线$普通线
100
AcDbVertex
100
AcDb2dVertex
 10
1056.909165991243
 20
984.4999999999995
 30
0.0
  0
VERTEX
  5
219
330
217
100
AcDbEntity
  8
Make2D$可见线$普通线
100
AcDbVertex
100
AcDb2dVertex
 10
1056.909165991243
 20
930.4999673997108
 30
0.0
 42
-0.4142375462624702
  0
VERTEX
  5
21A
330
217
100
AcDbEntity
  8
Make2D$可见线$普通线
100
AcDbVertex
100
AcDb2dVertex
 10
1054.909165991244
 20
928.4999456661977
 30
0.0
  0
VERTEX
  5
21B
330
217
100
AcDbEntity
  8
Make2D$可见线$普通线
100
AcDbVertex
100
AcDb2dVertex
 10
1025.909165991243
 20
928.4999456661978
 30
0.0
 42
-0.4142327249768934
  0
VERTEX
  5
21C
330
217
100
AcDbEntity
  8
Make2D$可见线$普通线
100
AcDbVertex
100
AcDb2dVertex
 10
1023.909165991243
 20
930.4999347994284
 30
0.0
  0
VERTEX
  5
21D
330
217
100
AcDbEntity
  8
Make2D$可见线$普通线
100
AcDbVertex
100
AcDb2dVertex
 10
1023.909165991243
 20
987.5000652005722
 30
0.0
 42
-0.4142327249767088
  0
VERTEX
  5
21E
330
217
100
AcDbEntity
  8
Make2D$可见线$普通线
100
AcDbVertex
100
AcDb2dVertex
 10
1025.909165991243
 20
989.5000543338024
 30
0.0
  0
VERTEX
  5
21F
330
217
100
AcDbEntity
  8
Make2D$可见线$普通线
100
AcDbVertex
100
AcDb2dVertex
 10
1054.909165991243
 20
989.5000543338026
 30
0.0
 42
-0.4142327249768581
  0
VERTEX
  5
220
330
217
100
AcDbEntity
  8
Make2D$可见线$普通线
100
AcDbVertex
100
AcDb2dVertex
 10
1056.909165991243
 20
987.5000652005723
 30
0.0
  0
VERTEX
  5
221
330
217
100
AcDbEntity
  8
Make2D$可见线$普通线
100
AcDbVertex
100
AcDb2dVertex
 10
1056.909165991243
 20
984.4999999999995
 30
0.0
  0
SEQEND
  5
222
330
217
100
AcDbEntity
  8
Make2D$可见线$普通线
  0
POLYLINE
  5
223
330
1F
100
AcDbEntity
  8
Make2D$可见线$普通线
100
AcDb2dPolyline
 66
     1
 10
0.0
 20
0.0
 30
0.0
  0
VERTEX
  5
224
330
223
100
AcDbEntity
  8
Make2D$可见线$普通线
100
AcDbVertex
100
AcDb2dVertex
 10
1023.897512386935
 20
945.679446579306
 30
0.0
 42
0.3893550599231054
  0
VERTEX
  5
225
330
223
100
AcDbEntity
  8
Make2D$可见线$普通线
100
AcDbVertex
100
AcDb2dVertex
 10
1021.909165991243
 20
947.4999254424994
 30
0.0
  0
VERTEX
  5
226
330
223
100
AcDbEntity
  8
Make2D$可见线$普通线
100
AcDbVertex
100
AcDb2dVertex
 10
1009.035174991185
 20
947.5000000000002
 30
0.0
  0
VERTEX
  5
227
330
223
100
AcDbEntity
  8
Make2D$可见线$普通线
100
AcDbVertex
100
AcDb2dVertex
 10
1009.035174991185
 20
970.5000000000002
 30
0.0
  0
VERTEX
  5
228
330
223
100
AcDbEntity
  8
Make2D$可见线$普通线
100
AcDbVertex
100
AcDb2dVertex
 10
1021.909165991243
 20
970.5032031767773
 30
0.0
 42
0.3874899010432619
  0
VERTEX
  5
229
330
223
100
AcDbEntity
  8
Make2D$可见线$普通线
100
AcDbVertex
100
AcDb2dVertex
 10
1023.901108333627
 20
972.3280725931994
 30
0.0
  0
SEQEND
  5
22A
330
223
100
AcDbEntity
  8
Make2D$可见线$普通线
  0
POLYLINE
  5
22B
330
1F
100
AcDbEntity
  8
Make2D$可见线$普通线
100
AcDb2dPolyline
 66
     1
 10
0.0
 20
0.0
 30
0.0
  0
VERTEX
  5
22C
330
22B
100
AcDbEntity
  8
Make2D$可见线$普通线
100
AcDbVertex
100
AcDb2dVertex
 10
1104.035174991185
 20
985.5000000000002
 30
0.0
  0
VERTEX
  5
22D
330
22B
100
AcDbEntity
  8
Make2D$可见线$普通线
100
AcDbVertex
100
AcDb2dVertex
 10
1104.035174991185
 20
990.5000000000002
 30
0.0
  0
VERTEX
  5
22E
330
22B
100
AcDbEntity
  8
Make2D$可见线$普通线
100
AcDbVertex
100
AcDb2dVertex
 10
1105.035174991185
 20
990.5000000000002
 30
0.0
  0
VERTEX
  5
22F
330
22B
100
AcDbEntity
  8
Make2D$可见线$普通线
100
AcDbVertex
100
AcDb2dVertex
 10
1105.035174991185
 20
985.5000000000002
 30
0.0
  0
VERTEX
  5
230
330
22B
100
AcDbEntity
  8
Make2D$可见线$普通线
100
AcDbVertex
100
AcDb2dVertex
 10
1104.035174991185
 20
985.5000000000002
 30
0.0
  0
SEQEND
  5
231
330
22B
100
AcDbEntity
  8
Make2D$可见线$普通线
  0
POLYLINE
  5
232
330
1F
100
AcDbEntity
  8
Make2D$可见线$普通线
100
AcDb2dPolyline
 66
     1
 10
0.0
 20
0.0
 30
0.0
  0
VERTEX
  5
233
330
232
100
AcDbEntity
  8
Make2D$可见线$普通线
100
AcDbVertex
100
AcDb2dVertex
 10
1009.029458379743
 20
947.5057166114427
 30
0.0
  0
VERTEX
  5
234
330
232
100
AcDbEntity
  8
Make2D$可见线$普通线
100
AcDbVertex
100
AcDb2dVertex
 10
1008.035174991185
 20
948.5000000000002
 30
0.0
  0
VERTEX
  5
235
330
232
100
AcDbEntity
  8
Make2D$可见线$普通线
100
AcDbVertex
100
AcDb2dVertex
 10
1008.035174991185
 20
969.5000000000002
 30
0.0
  0
VERTEX
  5
236
330
232
100
AcDbEntity
  8
Make2D$可见线$普通线
100
AcDbVertex
100
AcDb2dVertex
 10
1009.029458379742
 20
970.4942833885575
 30
0.0
  0
SEQEND
  5
237
330
232
100
AcDbEntity
  8
Make2D$可见线$普通线
  0
POLYLINE
  5
238
330
1F
100
AcDbEntity
  8
Make2D$可见线$普通线
100
AcDb2dPolyline
 66
     1
 10
0.0
 20
0.0
 30
0.0
  0
VERTEX
  5
239
330
238
100
AcDbEntity
  8
Make2D$可见线$普通线
100
AcDbVertex
100
AcDb2dVertex
 10
1076.075383801967
 20
965.5736085639187
 30
0.0
  0
VERTEX
  5
23A
330
238
100
AcDbEntity
  8
Make2D$可见线$普通线
100
AcDbVertex
100
AcDb2dVertex
 10
1076.075383801967
 20
972.5000000000211
 30
0.0
 42
0.4142220658203586
  0
VERTEX
  5
23B
330
238
100
AcDbEntity
  8
Make2D$可见线$普通线
100
AcDbVertex
100
AcDb2dVertex
 10
1074.075383801967
 20
974.4998694009506
 30
0.0
  0
VERTEX
  5
23C
330
238
100
AcDbEntity
  8
Make2D$可见线$普通线
100
AcDbVertex
100
AcDb2dVertex
 10
1066.035174991185
 20
974.5000000000002
 30
0.0
  0
VERTEX
  5
23D
330
238
100
AcDbEntity
  8
Make2D$可见线$普通线
100
AcDbVertex
100
AcDb2dVertex
 10
1066.035174991185
 20
976.0000000000002
 30
0.0
  0
VERTEX
  5
23E
330
238
100
AcDbEntity
  8
Make2D$可见线$普通线
100
AcDbVertex
100
AcDb2dVertex
 10
1058.909165991243
 20
976.0001847349321
 30
0.0
 42
-0.3852690474593208
  0
VERTEX
  5
23F
330
238
100
AcDbEntity
  8
Make2D$可见线$普通线
100
AcDbVertex
100
AcDb2dVertex
 10
1056.919097674384
 20
977.801340546129
 30
0.0
  0
SEQEND
  5
240
330
238
100
AcDbEntity
  8
Make2D$可见线$普通线
  0
POLYLINE
  5
241
330
1F
100
AcDbEntity
  8
Make2D$可见线$普通线
100
AcDb2dPolyline
 66
     1
 10
0.0
 20
0.0
 30
0.0
  0
VERTEX
  5
242
330
241
100
AcDbEntity
  8
Make2D$可见线$普通线
100
AcDbVertex
100
AcDb2dVertex
 10
1074.075383801967
 20
952.0179389434875
 30
0.0
  0
VERTEX
  5
243
330
241
100
AcDbEntity
  8
Make2D$可见线$普通线
100
AcDbVertex
100
AcDb2dVertex
 10
1066.035174991185
 20
952.0178799781158
 30
0.0
  0
VERTEX
  5
244
330
241
100
AcDbEntity
  8
Make2D$可见线$普通线
100
AcDbVertex
100
AcDb2dVertex
 10
1066.035174991185
 20
965.9821200218846
 30
0.0
  0
VERTEX
  5
245
330
241
100
AcDbEntity
  8
Make2D$可见线$普通线
100
AcDbVertex
100
AcDb2dVertex
 10
1074.075383801967
 20
965.982061056513
 30
0.0
  0
VERTEX
  5
246
330
241
100
AcDbEntity
  8
Make2D$可见线$普通线
100
AcDbVertex
100
AcDb2dVertex
 10
1074.434171684933
 20
965.9735970977069
 30
0.0
  0
VERTEX
  5
247
330
241
100
AcDbEntity
  8
Make2D$可见线$普通线
100
AcDbVertex
100
AcDb2dVertex
 10
1074.613527081338
 20
965.9649885488743
 30
0.0
  0
VERTEX
  5
248
330
241
100
AcDbEntity
  8
Make2D$可见线$普通线
100
AcDbVertex
100
AcDb2dVertex
 10
1074.792613155353
 20
965.952533925742
 30
0.0
  0
VERTEX
  5
249
330
241
100
AcDbEntity
  8
Make2D$可见线$普通线
100
AcDbVertex
100
AcDb2dVertex
 10
1074.971247187729
 20
965.9355369572999
 30
0.0
  0
VERTEX
  5
24A
330
241
100
AcDbEntity
  8
Make2D$可见线$普通线
100
AcDbVertex
100
AcDb2dVertex
 10
1075.149246459212
 20
965.913301372538
 30
0.0
  0
VERTEX
  5
24B
330
241
100
AcDbEntity
  8
Make2D$可见线$普通线
100
AcDbVertex
100
AcDb2dVertex
 10
1075.237950959853
 20
965.9000015143464
 30
0.0
  0
VERTEX
  5
24C
330
241
100
AcDbEntity
  8
Make2D$可见线$普通线
100
AcDbVertex
100
AcDb2dVertex
 10
1075.326428250552
 20
965.8851309004461
 30
0.0
  0
VERTEX
  5
24D
330
241
100
AcDbEntity
  8
Make2D$可见线$普通线
100
AcDbVertex
100
AcDb2dVertex
 10
1075.414655491401
 20
965.8686024969608
 30
0.0
  0
VERTEX
  5
24E
330
241
100
AcDbEntity
  8
Make2D$可见线$普通线
100
AcDbVertex
100
AcDb2dVertex
 10
1075.502609842495
 20
965.8503292700144
 30
0.0
  0
VERTEX
  5
24F
330
241
100
AcDbEntity
  8
Make2D$可见线$普通线
100
AcDbVertex
100
AcDb2dVertex
 10
1075.557587844647
 20
965.8378990221813
 30
0.0
  0
VERTEX
  5
250
330
241
100
AcDbEntity
  8
Make2D$可见线$普通线
100
AcDbVertex
100
AcDb2dVertex
 10
1075.61231163353
 20
965.8244654583107
 30
0.0
  0
VERTEX
  5
251
330
241
100
AcDbEntity
  8
Make2D$可见线$普通线
100
AcDbVertex
100
AcDb2dVertex
 10
1075.666643264536
 20
965.8097454728552
 30
0.0
  0
VERTEX
  5
252
330
241
100
AcDbEntity
  8
Make2D$可见线$普通线
100
AcDbVertex
100
AcDb2dVertex
 10
1075.720444793062
 20
965.7934559602672
 30
0.0
  0
VERTEX
  5
253
330
241
100
AcDbEntity
  8
Make2D$可见线$普通线
100
AcDbVertex
100
AcDb2dVertex
 10
1075.747103661204
 20
965.784634160815
 30
0.0
  0
VERTEX
  5
254
330
241
100
AcDbEntity
  8
Make2D$可见线$普通线
100
AcDbVertex
100
AcDb2dVertex
 10
1075.773578274499
 20
965.7753138149995
 30
0.0
  0
VERTEX
  5
255
330
241
100
AcDbEntity
  8
Make2D$可见线$普通线
100
AcDbVertex
100
AcDb2dVertex
 10
1075.799851389871
 20
965.7654595346273
 30
0.0
  0
VERTEX
  5
256
330
241
100
AcDbEntity
  8
Make2D$可见线$普通线
100
AcDbVertex
100
AcDb2dVertex
 10
1075.825905764244
 20
965.7550359315046
 30
0.0
  0
VERTEX
  5
257
330
241
100
AcDbEntity
  8
Make2D$可见线$普通线
100
AcDbVertex
100
AcDb2dVertex
 10
1075.851724154542
 20
965.7440076174386
 30
0.0
  0
VERTEX
  5
258
330
241
100
AcDbEntity
  8
Make2D$可见线$普通线
100
AcDbVertex
100
AcDb2dVertex
 10
1075.877289317689
 20
965.7323392042354
 30
0.0
  0
VERTEX
  5
259
330
241
100
AcDbEntity
  8
Make2D$可见线$普通线
100
AcDbVertex
100
AcDb2dVertex
 10
1075.902584010611
 20
965.7199953037017
 30
0.0
  0
VERTEX
  5
25A
330
241
100
AcDbEntity
  8
Make2D$可见线$普通线
100
AcDbVertex
100
AcDb2dVertex
 10
1075.92759099023
 20
965.7069405276441
 30
0.0
  0
VERTEX
  5
25B
330
241
100
AcDbEntity
  8
Make2D$可见线$普通线
100
AcDbVertex
100
AcDb2dVertex
 10
1075.942653498958
 20
965.6986162624071
 30
0.0
  0
VERTEX
  5
25C
330
241
100
AcDbEntity
  8
Make2D$可见线$普通线
100
AcDbVertex
100
AcDb2dVertex
 10
1075.957508843198
 20
965.6899326445516
 30
0.0
  0
VERTEX
  5
25D
330
241
100
AcDbEntity
  8
Make2D$可见线$普通线
100
AcDbVertex
100
AcDb2dVertex
 10
1075.972062909866
 20
965.6808069713909
 30
0.0
  0
VERTEX
  5
25E
330
241
100
AcDbEntity
  8
Make2D$可见线$普通线
100
AcDbVertex
100
AcDb2dVertex
 10
1075.979197553771
 20
965.6760525194813
 30
0.0
  0
VERTEX
  5
25F
330
241
100
AcDbEntity
  8
Make2D$可见线$普通线
100
AcDbVertex
100
AcDb2dVertex
 10
1075.986221585877
 20
965.6711565402379
 30
0.0
  0
VERTEX
  5
260
330
241
100
AcDbEntity
  8
Make2D$可见线$普通线
100
AcDbVertex
100
AcDb2dVertex
 10
1075.993123242047
 20
965.6661086958247
 30
0.0
  0
VERTEX
  5
261
330
241
100
AcDbEntity
  8
Make2D$可见线$普通线
100
AcDbVertex
100
AcDb2dVertex
 10
1075.999890758147
 20
965.6608986484059
 30
0.0
  0
VERTEX
  5
262
330
241
100
AcDbEntity
  8
Make2D$可见线$普通线
100
AcDbVertex
100
AcDb2dVertex
 10
1076.00651237004
 20
965.6555160601458
 30
0.0
  0
VERTEX
  5
263
330
241
100
AcDbEntity
  8
Make2D$可见线$普通线
100
AcDbVertex
100
AcDb2dVertex
 10
1076.012976313592
 20
965.6499505932082
 30
0.0
  0
VERTEX
  5
264
330
241
100
AcDbEntity
  8
Make2D$可见线$普通线
100
AcDbVertex
100
AcDb2dVertex
 10
1076.019270824666
 20
965.6441919097574
 30
0.0
  0
VERTEX
  5
265
330
241
100
AcDbEntity
  8
Make2D$可见线$普通线
100
AcDbVertex
100
AcDb2dVertex
 10
1076.025384139127
 20
965.6382296719578
 30
0.0
  0
VERTEX
  5
266
330
241
100
AcDbEntity
  8
Make2D$可见线$普通线
100
AcDbVertex
100
AcDb2dVertex
 10
1076.03130449284
 20
965.6320535419734
 30
0.0
  0
VERTEX
  5
267
330
241
100
AcDbEntity
  8
Make2D$可见线$普通线
100
AcDbVertex
100
AcDb2dVertex
 10
1076.034188633124
 20
965.6288820368381
 30
0.0
  0
VERTEX
  5
268
330
241
100
AcDbEntity
  8
Make2D$可见线$普通线
100
AcDbVertex
100
AcDb2dVertex
 10
1076.03702012167
 20
965.6256531819681
 30
0.0
  0
VERTEX
  5
269
330
241
100
AcDbEntity
  8
Make2D$可见线$普通线
100
AcDbVertex
100
AcDb2dVertex
 10
1076.04101364161
 20
965.6208844218738
 30
0.0
  0
VERTEX
  5
26A
330
241
100
AcDbEntity
  8
Make2D$可见线$普通线
100
AcDbVertex
100
AcDb2dVertex
 10
1076.04487653788
 20
965.6159960154707
 30
0.0
  0
VERTEX
  5
26B
330
241
100
AcDbEntity
  8
Make2D$可见线$普通线
100
AcDbVertex
100
AcDb2dVertex
 10
1076.048591207268
 20
965.6109907751635
 30
0.0
  0
VERTEX
  5
26C
330
241
100
AcDbEntity
  8
Make2D$可见线$普通线
100
AcDbVertex
100
AcDb2dVertex
 10
1076.052140046563
 20
965.6058715133572
 30
0.0
  0
VERTEX
  5
26D
330
241
100
AcDbEntity
  8
Make2D$可见线$普通线
100
AcDbVertex
100
AcDb2dVertex
 10
1076.053846778922
 20
965.6032700032686
 30
0.0
  0
VERTEX
  5
26E
330
241
100
AcDbEntity
  8
Make2D$可见线$普通线
100
AcDbVertex
100
AcDb2dVertex
 10
1076.055505452554
 20
965.600641042457
 30
0.0
  0
VERTEX
  5
26F
330
241
100
AcDbEntity
  8
Make2D$可见线$普通线
100
AcDbVertex
100
AcDb2dVertex
 10
1076.057113867057
 20
965.5979849824733
 30
0.0
  0
VERTEX
  5
270
330
241
100
AcDbEntity
  8
Make2D$可见线$普通线
100
AcDbVertex
100
AcDb2dVertex
 10
1076.058669822029
 20
965.595302174868
 30
0.0
  0
VERTEX
  5
271
330
241
100
AcDbEntity
  8
Make2D$可见线$普通线
100
AcDbVertex
100
AcDb2dVertex
 10
1076.06017111707
 20
965.5925929711918
 30
0.0
  0
VERTEX
  5
272
330
241
100
AcDbEntity
  8
Make2D$可见线$普通线
100
AcDbVertex
100
AcDb2dVertex
 10
1076.061615551778
 20
965.5898577229952
 30
0.0
  0
VERTEX
  5
273
330
241
100
AcDbEntity
  8
Make2D$可见线$普通线
100
AcDbVertex
100
AcDb2dVertex
 10
1076.063000925751
 20
965.587096781829
 30
0.0
  0
VERTEX
  5
274
330
241
100
AcDbEntity
  8
Make2D$可见线$普通线
100
AcDbVertex
100
AcDb2dVertex
 10
1076.064325038588
 20
965.5843104992437
 30
0.0
  0
VERTEX
  5
275
330
241
100
AcDbEntity
  8
Make2D$可见线$普通线
100
AcDbVertex
100
AcDb2dVertex
 10
1076.065585689888
 20
965.5814992267899
 30
0.0
  0
VERTEX
  5
276
330
241
100
AcDbEntity
  8
Make2D$可见线$普通线
100
AcDbVertex
100
AcDb2dVertex
 10
1076.06678067925
 20
965.5786633160184
 30
0.0
  0
VERTEX
  5
277
330
241
100
AcDbEntity
  8
Make2D$可见线$普通线
100
AcDbVertex
100
AcDb2dVertex
 10
1076.067907806271
 20
965.5758031184796
 30
0.0
  0
VERTEX
  5
278
330
241
100
AcDbEntity
  8
Make2D$可见线$普通线
100
AcDbVertex
100
AcDb2dVertex
 10
1076.068964870551
 20
965.5729189857244
 30
0.0
  0
VERTEX
  5
279
330
241
100
AcDbEntity
  8
Make2D$可见线$普通线
100
AcDbVertex
100
AcDb2dVertex
 10
1076.069949671688
 20
965.5700112693033
 30
0.0
  0
VERTEX
  5
27A
330
241
100
AcDbEntity
  8
Make2D$可见线$普通线
100
AcDbVertex
100
AcDb2dVertex
 10
1076.070860009281
 20
965.567080320767
 30
0.0
  0
VERTEX
  5
27B
330
241
100
AcDbEntity
  8
Make2D$可见线$普通线
100
AcDbVertex
100
AcDb2dVertex
 10
1076.071693682928
 20
965.564126491666
 30
0.0
  0
VERTEX
  5
27C
330
241
100
AcDbEntity
  8
Make2D$可见线$普通线
100
AcDbVertex
100
AcDb2dVertex
 10
1076.072448492228
 20
965.5611501335509
 30
0.0
  0
VERTEX
  5
27D
330
241
100
AcDbEntity
  8
Make2D$可见线$普通线
100
AcDbVertex
100
AcDb2dVertex
 10
1076.07312223678
 20
965.5581515979725
 30
0.0
  0
VERTEX
  5
27E
330
241
100
AcDbEntity
  8
Make2D$可见线$普通线
100
AcDbVertex
100
AcDb2dVertex
 10
1076.073712716182
 20
965.5551312364813
 30
0.0
  0
VERTEX
  5
27F
330
241
100
AcDbEntity
  8
Make2D$可见线$普通线
100
AcDbVertex
100
AcDb2dVertex
 10
1076.074217730032
 20
965.552089400628
 30
0.0
  0
VERTEX
  5
280
330
241
100
AcDbEntity
  8
Make2D$可见线$普通线
100
AcDbVertex
100
AcDb2dVertex
 10
1076.07463507793
 20
965.5490264419633
 30
0.0
  0
VERTEX
  5
281
330
241
100
AcDbEntity
  8
Make2D$可见线$普通线
100
AcDbVertex
100
AcDb2dVertex
 10
1076.074962559474
 20
965.5459427120377
 30
0.0
  0
VERTEX
  5
282
330
241
100
AcDbEntity
  8
Make2D$可见线$普通线
100
AcDbVertex
100
AcDb2dVertex
 10
1076.075197974262
 20
965.542838562402
 30
0.0
  0
VERTEX
  5
283
330
241
100
AcDbEntity
  8
Make2D$可见线$普通线
100
AcDbVertex
100
AcDb2dVertex
 10
1076.075339121894
 20
965.5397143446066
 30
0.0
  0
VERTEX
  5
284
330
241
100
AcDbEntity
  8
Make2D$可见线$普通线
100
AcDbVertex
100
AcDb2dVertex
 10
1076.075383801967
 20
965.5365704102023
 30
0.0
  0
VERTEX
  5
285
330
241
100
AcDbEntity
  8
Make2D$可见线$普通线
100
AcDbVertex
100
AcDb2dVertex
 10
1076.075383801967
 20
952.4634295897981
 30
0.0
  0
VERTEX
  5
286
330
241
100
AcDbEntity
  8
Make2D$可见线$普通线
100
AcDbVertex
100
AcDb2dVertex
 10
1076.075338502584
 20
952.4602995342432
 30
0.0
  0
VERTEX
  5
287
330
241
100
AcDbEntity
  8
Make2D$可见线$普通线
100
AcDbVertex
100
AcDb2dVertex
 10
1076.075196821706
 20
952.4571872533324
 30
0.0
  0
VERTEX
  5
288
330
241
100
AcDbEntity
  8
Make2D$可见线$普通线
100
AcDbVertex
100
AcDb2dVertex
 10
1076.074960955913
 20
952.4540931856262
 30
0.0
  0
VERTEX
  5
289
330
241
100
AcDbEntity
  8
Make2D$可见线$普通线
100
AcDbVertex
100
AcDb2dVertex
 10
1076.074633101784
 20
952.4510177696848
 30
0.0
  0
VERTEX
  5
28A
330
241
100
AcDbEntity
  8
Make2D$可见线$普通线
100
AcDbVertex
100
AcDb2dVertex
 10
1076.074215455901
 20
952.4479614440681
 30
0.0
  0
VERTEX
  5
28B
330
241
100
AcDbEntity
  8
Make2D$可见线$普通线
100
AcDbVertex
100
AcDb2dVertex
 10
1076.073710214843
 20
952.4449246473366
 30
0.0
  0
VERTEX
  5
28C
330
241
100
AcDbEntity
  8
Make2D$可见线$普通线
100
AcDbVertex
100
AcDb2dVertex
 10
1076.073119575189
 20
952.4419078180503
 30
0.0
  0
VERTEX
  5
28D
330
241
100
AcDbEntity
  8
Make2D$可见线$普通线
100
AcDbVertex
100
AcDb2dVertex
 10
1076.072445733521
 20
952.4389113947697
 30
0.0
  0
VERTEX
  5
28E
330
241
100
AcDbEntity
  8
Make2D$可见线$普通线
100
AcDbVertex
100
AcDb2dVertex
 10
1076.071690886417
 20
952.4359358160547
 30
0.0
  0
VERTEX
  5
28F
330
241
100
AcDbEntity
  8
Make2D$可见线$普通线
100
AcDbVertex
100
AcDb2dVertex
 10
1076.070857230457
 20
952.4329815204655
 30
0.0
  0
VERTEX
  5
290
330
241
100
AcDbEntity
  8
Make2D$可见线$普通线
100
AcDbVertex
100
AcDb2dVertex
 10
1076.069946962223
 20
952.4300489465625
 30
0.0
  0
VERTEX
  5
291
330
241
100
AcDbEntity
  8
Make2D$可见线$普通线
100
AcDbVertex
100
AcDb2dVertex
 10
1076.068962278292
 20
952.4271385329058
 30
0.0
  0
VERTEX
  5
292
330
241
100
AcDbEntity
  8
Make2D$可见线$普通线
100
AcDbVertex
100
AcDb2dVertex
 10
1076.067905375246
 20
952.4242507180555
 30
0.0
  0
VERTEX
  5
293
330
241
100
AcDbEntity
  8
Make2D$可见线$普通线
100
AcDbVertex
100
AcDb2dVertex
 10
1076.066778449665
 20
952.421385940572
 30
0.0
  0
VERTEX
  5
294
330
241
100
AcDbEntity
  8
Make2D$可见线$普通线
100
AcDbVertex
100
AcDb2dVertex
 10
1076.065583698128
 20
952.4185446390154
 30
0.0
  0
VERTEX
  5
295
330
241
100
AcDbEntity
  8
Make2D$可见线$普通线
100
AcDbVertex
100
AcDb2dVertex
 10
1076.064323317215
 20
952.4157272519458
 30
0.0
  0
VERTEX
  5
296
330
241
100
AcDbEntity
  8
Make2D$可见线$普通线
100
AcDbVertex
100
AcDb2dVertex
 10
1076.062999503506
 20
952.4129342179235
 30
0.0
  0
VERTEX
  5
297
330
241
100
AcDbEntity
  8
Make2D$可见线$普通线
100
AcDbVertex
100
AcDb2dVertex
 10
1076.061614453582
 20
952.4101659755088
 30
0.0
  0
VERTEX
  5
298
330
241
100
AcDbEntity
  8
Make2D$可见线$普通线
100
AcDbVertex
100
AcDb2dVertex
 10
1076.060170364021
 20
952.4074229632618
 30
0.0
  0
VERTEX
  5
299
330
241
100
AcDbEntity
  8
Make2D$可见线$普通线
100
AcDbVertex
100
AcDb2dVertex
 10
1076.058669431404
 20
952.4047056197426
 30
0.0
  0
VERTEX
  5
29A
330
241
100
AcDbEntity
  8
Make2D$可见线$普通线
100
AcDbVertex
100
AcDb2dVertex
 10
1076.057113852312
 20
952.4020143835115
 30
0.0
  0
VERTEX
  5
29B
330
241
100
AcDbEntity
  8
Make2D$可见线$普通线
100
AcDbVertex
100
AcDb2dVertex
 10
1076.055505823323
 20
952.3993496931287
 30
0.0
  0
VERTEX
  5
29C
330
241
100
AcDbEntity
  8
Make2D$可见线$普通线
100
AcDbVertex
100
AcDb2dVertex
 10
1076.053847541018
 20
952.3967119871545
 30
0.0
  0
VERTEX
  5
29D
330
241
100
AcDbEntity
  8
Make2D$可见线$普通线
100
AcDbVertex
100
AcDb2dVertex
 10
1076.052141201976
 20
952.3941017041489
 30
0.0
  0
VERTEX
  5
29E
330
241
100
AcDbEntity
  8
Make2D$可见线$普通线
100
AcDbVertex
100
AcDb2dVertex
 10
1076.048593140004
 20
952.3889651612844
 30
0.0
  0
VERTEX
  5
29F
330
241
100
AcDbEntity
  8
Make2D$可见线$普通线
100
AcDbVertex
100
AcDb2dVertex
 10
1076.044879210045
 20
952.3839435730172
 30
0.0
  0
VERTEX
  5
2A0
330
241
100
AcDbEntity
  8
Make2D$可见线$普通线
100
AcDbVertex
100
AcDb2dVertex
 10
1076.04101698474
 20
952.3790404478286
 30
0.0
  0
VERTEX
  5
2A1
330
241
100
AcDbEntity
  8
Make2D$可见线$普通线
100
AcDbVertex
100
AcDb2dVertex
 10
1076.037024036728
 20
952.3742592942003
 30
0.0
  0
VERTEX
  5
2A2
330
241
100
AcDbEntity
  8
Make2D$可见线$普通线
100
AcDbVertex
100
AcDb2dVertex
 10
1076.034192872009
 20
952.3710235416343
 30
0.0
  0
VERTEX
  5
2A3
330
241
100
AcDbEntity
  8
Make2D$可见线$普通线
100
AcDbVertex
100
AcDb2dVertex
 10
1076.031308995894
 20
952.3678465266834
 30
0.0
  0
VERTEX
  5
2A4
330
241
100
AcDbEntity
  8
Make2D$可见线$普通线
100
AcDbVertex
100
AcDb2dVertex
 10
1076.025389001169
 20
952.3616633049212
 30
0.0
  0
VERTEX
  5
2A5
330
241
100
AcDbEntity
  8
Make2D$可见线$普通线
100
AcDbVertex
100
AcDb2dVertex
 10
1076.019275835944
 20
952.3556988195033
 30
0.0
  0
VERTEX
  5
2A6
330
241
100
AcDbEntity
  8
Make2D$可见线$普通线
100
AcDbVertex
100
AcDb2dVertex
 10
1076.01298128361
 20
952.3499422610194
 30
0.0
  0
VERTEX
  5
2A7
330
241
100
AcDbEntity
  8
Make2D$可见线$普通线
100
AcDbVertex
100
AcDb2dVertex
 10
1076.006517127558
 20
952.3443828200589
 30
0.0
  0
VERTEX
  5
2A8
330
241
100
AcDbEntity
  8
Make2D$可见线$普通线
100
AcDbVertex
100
AcDb2dVertex
 10
1075.999895151179
 20
952.3390096872113
 30
0.0
  0
VERTEX
  5
2A9
330
241
100
AcDbEntity
  8
Make2D$可见线$普通线
100
AcDbVertex
100
AcDb2dVertex
 10
1075.993127137865
 20
952.3338120530661
 30
0.0
  0
VERTEX
  5
2AA
330
241
100
AcDbEntity
  8
Make2D$可见线$普通线
100
AcDbVertex
100
AcDb2dVertex
 10
1075.986224871006
 20
952.3287791082132
 30
0.0
  0
VERTEX
  5
2AB
330
241
100
AcDbEntity
  8
Make2D$可见线$普通线
100
AcDbVertex
100
AcDb2dVertex
 10
1075.979200133993
 20
952.3239000432418
 30
0.0
  0
VERTEX
  5
2AC
330
241
100
AcDbEntity
  8
Make2D$可见线$普通线
100
AcDbVertex
100
AcDb2dVertex
 10
1075.972064710217
 20
952.3191640487415
 30
0.0
  0
VERTEX
  5
2AD
330
241
100
AcDbEntity
  8
Make2D$可见线$普通线
100
AcDbVertex
100
AcDb2dVertex
 10
1075.957508935942
 20
952.3100780335128
 30
0.0
  0
VERTEX
  5
2AE
330
241
100
AcDbEntity
  8
Make2D$可见线$普通线
100
AcDbVertex
100
AcDb2dVertex
 10
1075.942651815309
 20
952.3014345872432
 30
0.0
  0
VERTEX
  5
2AF
330
241
100
AcDbEntity
  8
Make2D$可见线$普通线
100
AcDbVertex
100
AcDb2dVertex
 10
1075.927587615445
 20
952.2931472346493
 30
0.0
  0
VERTEX
  5
2B0
330
241
100
AcDbEntity
  8
Make2D$可见线$普通线
100
AcDbVertex
100
AcDb2dVertex
 10
1075.902578328239
 20
952.2801391520493
 30
0.0
  0
VERTEX
  5
2B1
330
241
100
AcDbEntity
  8
Make2D$可见线$普通线
100
AcDbVertex
100
AcDb2dVertex
 10
1075.877281930271
 20
952.2678247371407
 30
0.0
  0
VERTEX
  5
2B2
330
241
100
AcDbEntity
  8
Make2D$可见线$普通线
100
AcDbVertex
100
AcDb2dVertex
 10
1075.851715621639
 20
952.2561703614899
 30
0.0
  0
VERTEX
  5
2B3
330
241
100
AcDbEntity
  8
Make2D$可见线$普通线
100
AcDbVertex
100
AcDb2dVertex
 10
1075.82589660244
 20
952.2451423966627
 30
0.0
  0
VERTEX
  5
2B4
330
241
100
AcDbEntity
  8
Make2D$可见线$普通线
100
AcDbVertex
100
AcDb2dVertex
 10
1075.799842072774
 20
952.2347072142252
 30
0.0
  0
VERTEX
  5
2B5
330
241
100
AcDbEntity
  8
Make2D$可见线$普通线
100
AcDbVertex
100
AcDb2dVertex
 10
1075.773569232736
 20
952.2248311857436
 30
0.0
  0
VERTEX
  5
2B6
330
241
100
AcDbEntity
  8
Make2D$可见线$普通线
100
AcDbVertex
100
AcDb2dVertex
 10
1075.747095282426
 20
952.2154806827838
 30
0.0
  0
VERTEX
  5
2B7
330
241
100
AcDbEntity
  8
Make2D$可见线$普通线
100
AcDbVertex
100
AcDb2dVertex
 10
1075.720437421939
 20
952.2066220769119
 30
0.0
  0
VERTEX
  5
2B8
330
241
100
AcDbEntity
  8
Make2D$可见线$普通线
100
AcDbVertex
100
AcDb2dVertex
 10
1075.66663877083
 20
952.190246042696
 30
0.0
  0
VERTEX
  5
2B9
330
241
100
AcDbEntity
  8
Make2D$可见线$普通线
100
AcDbVertex
100
AcDb2dVertex
 10
1075.61231088019
 20
952.1754340556244
 30
0.0
  0
VERTEX
  5
2BA
330
241
100
AcDbEntity
  8
Make2D$可见线$普通线
100
AcDbVertex
100
AcDb2dVertex
 10
1075.557591350801
 20
952.1619170882252
 30
0.0
  0
VERTEX
  5
2BB
330
241
100
AcDbEntity
  8
Make2D$可见线$普通线
100
AcDbVertex
100
AcDb2dVertex
 10
1075.502617783444
 20
952.149426113027
 30
0.0
  0
VERTEX
  5
2BC
330
241
100
AcDbEntity
  8
Make2D$可见线$普通线
100
AcDbVertex
100
AcDb2dVertex
 10
1075.4232396701
 20
952.1328239585227
 30
0.0
  0
VERTEX
  5
2BD
330
241
100
AcDbEntity
  8
Make2D$可见线$普通线
100
AcDbVertex
100
AcDb2dVertex
 10
1075.343636235032
 20
952.1177110437313
 30
0.0
  0
VERTEX
  5
2BE
330
241
100
AcDbEntity
  8
Make2D$可见线$普通线
100
AcDbVertex
100
AcDb2dVertex
 10
1075.18381743437
 20
952.0916342822545
 30
0.0
  0
VERTEX
  5
2BF
330
241
100
AcDbEntity
  8
Make2D$可见线$普通线
100
AcDbVertex
100
AcDb2dVertex
 10
1075.023289450753
 20
952.070558526533
 30
0.0
  0
VERTEX
  5
2C0
330
241
100
AcDbEntity
  8
Make2D$可见线$普通线
100
AcDbVertex
100
AcDb2dVertex
 10
1074.862180353475
 20
952.053846474503
 30
0.0
  0
VERTEX
  5
2C1
330
241
100
AcDbEntity
  8
Make2D$可见线$普通线
100
AcDbVertex
100
AcDb2dVertex
 10
1074.67230778535
 20
952.0389442038673
 30
0.0
  0
VERTEX
  5
2C2
330
241
100
AcDbEntity
  8
Make2D$可见线$普通线
100
AcDbVertex
100
AcDb2dVertex
 10
1074.482150414426
 20
952.0282840810917
 30
0.0
  0
VERTEX
  5
2C3
330
241
100
AcDbEntity
  8
Make2D$可见线$普通线
100
AcDbVertex
100
AcDb2dVertex
 10
1074.278864793362
 20
952.0208578224372
 30
0.0
  0
VERTEX
  5
2C4
330
241
100
AcDbEntity
  8
Make2D$可见线$普通线
100
AcDbVertex
100
AcDb2dVertex
 10
1074.075383801967
 20
952.0179389434875
 30
0.0
  0
SEQEND
  5
2C5
330
241
100
AcDbEntity
  8
Make2D$可见线$普通线
  0
POLYLINE
  5
2C6
330
1F
100
AcDbEntity
  8
Make2D$可见线$普通线
100
AcDb2dPolyline
 66
     1
 10
0.0
 20
0.0
 30
0.0
  0
VERTEX
  5
2C7
330
2C6
100
AcDbEntity
  8
Make2D$可见线$普通线
100
AcDbVertex
100
AcDb2dVertex
 10
1104.235174991185
 20
990.3000000000002
 30
0.0
  0
VERTEX
  5
2C8
330
2C6
100
AcDbEntity
  8
Make2D$可见线$普通线
100
AcDbVertex
100
AcDb2dVertex
 10
1104.835174991185
 20
990.3000000000002
 30
0.0
  0
VERTEX
  5
2C9
330
2C6
100
AcDbEntity
  8
Make2D$可见线$普通线
100
AcDbVertex
100
AcDb2dVertex
 10
1104.835174991185
 20
985.7000000000003
 30
0.0
  0
VERTEX
  5
2CA
330
2C6
100
AcDbEntity
  8
Make2D$可见线$普通线
100
AcDbVertex
100
AcDb2dVertex
 10
1104.235174991185
 20
985.7000000000003
 30
0.0
  0
VERTEX
  5
2CB
330
2C6
100
AcDbEntity
  8
Make2D$可见线$普通线
100
AcDbVertex
100
AcDb2dVertex
 10
1104.235174991185
 20
990.3000000000002
 30
0.0
  0
SEQEND
  5
2CC
330
2C6
100
AcDbEntity
  8
Make2D$可见线$普通线
  0
POLYLINE
  5
2CD
330
1F
100
AcDbEntity
  8
Make2D$可见线$普通线
100
AcDb2dPolyline
 66
     1
 10
0.0
 20
0.0
 30
0.0
  0
VERTEX
  5
2CE
330
2CD
100
AcDbEntity
  8
Make2D$可见线$普通线
100
AcDbVertex
100
AcDb2dVertex
 10
1093.028317477431
 20
984.425968991181
 30
0.0
 42
-0.4053415543162214
  0
VERTEX
  5
2CF
330
2CD
100
AcDbEntity
  8
Make2D$可见线$普通线
100
AcDbVertex
100
AcDb2dVertex
 10
1091.035174991185
 20
982.5000205599159
 30
0.0
  0
VERTEX
  5
2D0
330
2CD
100
AcDbEntity
  8
Make2D$可见线$普通线
100
AcDbVertex
100
AcDb2dVertex
 10
1079.035174991185
 20
982.5000000000002
 30
0.0
 42
0.4142135623731305
  0
VERTEX
  5
2D1
330
2CD
100
AcDbEntity
  8
Make2D$可见线$普通线
100
AcDbVertex
100
AcDb2dVertex
 10
1077.035174991185
 20
980.5
 30
0.0
  0
VERTEX
  5
2D2
330
2CD
100
AcDbEntity
  8
Make2D$可见线$普通线
100
AcDbVertex
100
AcDb2dVertex
 10
1077.035174991185
 20
904.5000000000002
 30
0.0
  0
SEQEND
  5
2D3
330
2CD
100
AcDbEntity
  8
Make2D$可见线$普通线
  0
POLYLINE
  5
2D4
330
1F
100
AcDbEntity
  8
Make2D$可见线$普通线
100
AcDb2dPolyline
 66
     1
 10
0.0
 20
0.0
 30
0.0
  0
VERTEX
  5
2D5
330
2D4
100
AcDbEntity
  8
Make2D$可见线$普通线
100
AcDbVertex
100
AcDb2dVertex
 10
1077.035174991185
 20
864.5000000000002
 30
0.0
  0
VERTEX
  5
2D6
330
2D4
100
AcDbEntity
  8
Make2D$可见线$普通线
100
AcDbVertex
100
AcDb2dVertex
 10
1077.035174991185
 20
788.5000000000002
 30
0.0
 42
0.4142135623730739
  0
VERTEX
  5
2D7
330
2D4
100
AcDbEntity
  8
Make2D$可见线$普通线
100
AcDbVertex
100
AcDb2dVertex
 10
1079.035174991183
 20
786.5000000000003
 30
0.0
  0
VERTEX
  5
2D8
330
2D4
100
AcDbEntity
  8
Make2D$可见线$普通线
100
AcDbVertex
100
AcDb2dVertex
 10
1091.035174991185
 20
786.4999794400845
 30
0.0
 42
-0.4053415543158583
  0
VERTEX
  5
2D9
330
2D4
100
AcDbEntity
  8
Make2D$可见线$普通线
100
AcDbVertex
100
AcDb2dVertex
 10
1093.028317477431
 20
784.5740310088196
 30
0.0
  0
SEQEND
  5
2DA
330
2D4
100
AcDbEntity
  8
Make2D$可见线$普通线
  0
POLYLINE
  5
2DB
330
1F
100
AcDbEntity
  8
Make2D$可见线$普通线
100
AcDb2dPolyline
 66
     1
 10
0.0
 20
0.0
 30
0.0
  0
VERTEX
  5
2DC
330
2DB
100
AcDbEntity
  8
Make2D$可见线$普通线
100
AcDbVertex
100
AcDb2dVertex
 10
1106.035174991185
 20
863.5000000000002
 30
0.0
  0
VERTEX
  5
2DD
330
2DB
100
AcDbEntity
  8
Make2D$可见线$普通线
100
AcDbVertex
100
AcDb2dVertex
 10
1106.035174991185
 20
906.50028678034
 30
0.0
 42
-0.4144163311867817
  0
VERTEX
  5
2DE
330
2DB
100
AcDbEntity
  8
Make2D$可见线$普通线
100
AcDbVertex
100
AcDb2dVertex
 10
1107.035174991185
 20
907.5002867803014
 30
0.0
  0
VERTEX
  5
2DF
330
2DB
100
AcDbEntity
  8
Make2D$可见线$普通线
100
AcDbVertex
100
AcDb2dVertex
 10
1535.035174991184
 20
907.5000000000002
 30
0.0
  0
VERTEX
  5
2E0
330
2DB
100
AcDbEntity
  8
Make2D$可见线$普通线
100
AcDbVertex
100
AcDb2dVertex
 10
1535.035174991184
 20
905.5000000000002
 30
0.0
  0
VERTEX
  5
2E1
330
2DB
100
AcDbEntity
  8
Make2D$可见线$普通线
100
AcDbVertex
100
AcDb2dVertex
 10
1536.035174991184
 20
905.5000000000002
 30
0.0
  0
VERTEX
  5
2E2
330
2DB
100
AcDbEntity
  8
Make2D$可见线$普通线
100
AcDbVertex
100
AcDb2dVertex
 10
1536.035174991185
 20
863.5000000000002
 30
0.0
  0
VERTEX
  5
2E3
330
2DB
100
AcDbEntity
  8
Make2D$可见线$普通线
100
AcDbVertex
100
AcDb2dVertex
 10
1535.035174991184
 20
863.5000000000002
 30
0.0
  0
VERTEX
  5
2E4
330
2DB
100
AcDbEntity
  8
Make2D$可见线$普通线
100
AcDbVertex
100
AcDb2dVertex
 10
1535.035174991185
 20
861.5000000000002
 30
0.0
  0
VERTEX
  5
2E5
330
2DB
100
AcDbEntity
  8
Make2D$可见线$普通线
100
AcDbVertex
100
AcDb2dVertex
 10
1107.035174991185
 20
861.4997132103031
 30
0.0
 42
-0.4144163378292794
  0
VERTEX
  5
2E6
330
2DB
100
AcDbEntity
  8
Make2D$可见线$普通线
100
AcDbVertex
100
AcDb2dVertex
 10
1106.035174991185
 20
862.4997132102646
 30
0.0
  0
VERTEX
  5
2E7
330
2DB
100
AcDbEntity
  8
Make2D$可见线$普通线
100
AcDbVertex
100
AcDb2dVertex
 10
1106.035174991185
 20
863.5000000000002
 30
0.0
  0
SEQEND
  5
2E8
330
2DB
100
AcDbEntity
  8
Make2D$可见线$普通线
  0
POLYLINE
  5
2E9
330
1F
100
AcDbEntity
  8
Make2D$可见线$普通线
100
AcDb2dPolyline
 66
     1
 10
0.0
 20
0.0
 30
0.0
  0
VERTEX
  5
2EA
330
2E9
100
AcDbEntity
  8
Make2D$可见线$普通线
100
AcDbVertex
100
AcDb2dVertex
 10
1139.035174991185
 20
907.5000000000002
 30
0.0
  0
VERTEX
  5
2EB
330
2E9
100
AcDbEntity
  8
Make2D$可见线$普通线
100
AcDbVertex
100
AcDb2dVertex
 10
1139.035229324988
 20
992.5000000000003
 30
0.0
 42
0.4142327722641596
  0
VERTEX
  5
2EC
330
2E9
100
AcDbEntity
  8
Make2D$可见线$普通线
100
AcDbVertex
100
AcDb2dVertex
 10
1137.035240191758
 20
994.5
 30
0.0
  0
VERTEX
  5
2ED
330
2E9
100
AcDbEntity
  8
Make2D$可见线$普通线
100
AcDbVertex
100
AcDb2dVertex
 10
1126.064227975363
 20
994.5000000000002
 30
0.0
  0
SEQEND
  5
2EE
330
2E9
100
AcDbEntity
  8
Make2D$可见线$普通线
  0
POLYLINE
  5
2EF
330
1F
100
AcDbEntity
  8
Make2D$可见线$普通线
100
AcDb2dPolyline
 66
     1
 10
0.0
 20
0.0
 30
0.0
  0
VERTEX
  5
2F0
330
2EF
100
AcDbEntity
  8
Make2D$可见线$普通线
100
AcDbVertex
100
AcDb2dVertex
 10
1095.035174991185
 20
774.5000000000003
 30
0.0
 42
-0.4142135623732066
  0
VERTEX
  5
2F1
330
2EF
100
AcDbEntity
  8
Make2D$可见线$普通线
100
AcDbVertex
100
AcDb2dVertex
 10
1093.035174991185
 20
776.4999999999994
 30
0.0
  0
VERTEX
  5
2F2
330
2EF
100
AcDbEntity
  8
Make2D$可见线$普通线
100
AcDbVertex
100
AcDb2dVertex
 10
1093.035174991185
 20
864.5000000000002
 30
0.0
  0
SEQEND
  5
2F3
330
2EF
100
AcDbEntity
  8
Make2D$可见线$普通线
  0
POLYLINE
  5
2F4
330
1F
100
AcDbEntity
  8
Make2D$可见线$普通线
100
AcDb2dPolyline
 66
     1
 10
0.0
 20
0.0
 30
0.0
  0
VERTEX
  5
2F5
330
2F4
100
AcDbEntity
  8
Make2D$可见线$普通线
100
AcDbVertex
100
AcDb2dVertex
 10
1093.035174991185
 20
904.5000000000005
 30
0.0
  0
VERTEX
  5
2F6
330
2F4
100
AcDbEntity
  8
Make2D$可见线$普通线
100
AcDbVertex
100
AcDb2dVertex
 10
1093.035174991185
 20
992.5000000000002
 30
0.0
 42
-0.4142135623731096
  0
VERTEX
  5
2F7
330
2F4
100
AcDbEntity
  8
Make2D$可见线$普通线
100
AcDbVertex
100
AcDb2dVertex
 10
1095.035174991185
 20
994.5
 30
0.0
  0
SEQEND
  5
2F8
330
2F4
100
AcDbEntity
  8
Make2D$可见线$普通线
  0
LINE
  5
2F9
330
1F
100
AcDbEntity
  8
Make2D$可见线$普通线
100
AcDbLine
 10
1126.064043470629
 20
995.5000000000002
 30
0.0
 11
1137.030001425255
 21
995.5000000000002
 31
0.0
  0
POLYLINE
  5
2FA
330
1F
100
AcDbEntity
  8
Make2D$可见线$普通线
100
AcDb2dPolyline
 66
     1
 10
0.0
 20
0.0
 30
0.0
  0
VERTEX
  5
2FB
330
2FA
100
AcDbEntity
  8
Make2D$可见线$普通线
100
AcDbVertex
100
AcDb2dVertex
 10
1062.909165991244
 20
860.4999456661968
 30
0.0
  0
VERTEX
  5
2FC
330
2FA
100
AcDbEntity
  8
Make2D$可见线$普通线
100
AcDbVertex
100
AcDb2dVertex
 10
1024.909165991244
 20
860.4999456621822
 30
0.0
 42
-0.4142519859125214
  0
VERTEX
  5
2FD
330
2FA
100
AcDbEntity
  8
Make2D$可见线$普通线
100
AcDbVertex
100
AcDb2dVertex
 10
1023.909165991243
 20
861.499913059492
 30
0.0
  0
VERTEX
  5
2FE
330
2FA
100
AcDbEntity
  8
Make2D$可见线$普通线
100
AcDbVertex
100
AcDb2dVertex
 10
1023.909165991243
 20
907.5000869340859
 30
0.0
 42
-0.4142519830669928
  0
VERTEX
  5
2FF
330
2FA
100
AcDbEntity
  8
Make2D$可见线$普通线
100
AcDbVertex
100
AcDb2dVertex
 10
1024.909165991244
 20
908.500054333804
 30
0.0
  0
VERTEX
  5
300
330
2FA
100
AcDbEntity
  8
Make2D$可见线$普通线
100
AcDbVertex
100
AcDb2dVertex
 10
1062.909165991244
 20
908.500054333804
 30
0.0
 42
-0.4142647135356552
  0
VERTEX
  5
301
330
2FA
100
AcDbEntity
  8
Make2D$可见线$普通线
100
AcDbVertex
100
AcDb2dVertex
 10
1063.909165991244
 20
907.5000434670277
 30
0.0
  0
VERTEX
  5
302
330
2FA
100
AcDbEntity
  8
Make2D$可见线$普通线
100
AcDbVertex
100
AcDb2dVertex
 10
1063.909165991244
 20
861.4999130659148
 30
0.0
 42
-0.4142519830733676
  0
VERTEX
  5
303
330
2FA
100
AcDbEntity
  8
Make2D$可见线$普通线
100
AcDbVertex
100
AcDb2dVertex
 10
1062.909165991244
 20
860.4999456661968
 30
0.0
  0
SEQEND
  5
304
330
2FA
100
AcDbEntity
  8
Make2D$可见线$普通线
  0
POLYLINE
  5
305
330
1F
100
AcDbEntity
  8
Make2D$可见线$普通线
100
AcDb2dPolyline
 66
     1
 10
0.0
 20
0.0
 30
0.0
  0
VERTEX
  5
306
330
305
100
AcDbEntity
  8
Make2D$可见线$普通线
100
AcDbVertex
100
AcDb2dVertex
 10
1106.064228001113
 20
994.5000000000002
 30
0.0
  0
VERTEX
  5
307
330
305
100
AcDbEntity
  8
Make2D$可见线$普通线
100
AcDbVertex
100
AcDb2dVertex
 10
1095.035174991185
 20
994.5000000000002
 30
0.0
  0
VERTEX
  5
308
330
305
100
AcDbEntity
  8
Make2D$可见线$普通线
100
AcDbVertex
100
AcDb2dVertex
 10
1095.035174991185
 20
995.5000000000003
 30
0.0
 42
-0.414213562373087
  0
VERTEX
  5
309
330
305
100
AcDbEntity
  8
Make2D$可见线$普通线
100
AcDbVertex
100
AcDb2dVertex
 10
1093.035174991185
 20
997.4999999999994
 30
0.0
  0
VERTEX
  5
30A
330
305
100
AcDbEntity
  8
Make2D$可见线$普通线
100
AcDbVertex
100
AcDb2dVertex
 10
1093.035174991185
 20
1040.0
 30
0.0
 42
-0.4142135623730008
  0
VERTEX
  5
30B
330
305
100
AcDbEntity
  8
Make2D$可见线$普通线
100
AcDbVertex
100
AcDb2dVertex
 10
1095.035174991185
 20
1042.0
 30
0.0
  0
VERTEX
  5
30C
330
305
100
AcDbEntity
  8
Make2D$可见线$普通线
100
AcDbVertex
100
AcDb2dVertex
 10
1106.055315882837
 20
1042.0
 30
0.0
  0
SEQEND
  5
30D
330
305
100
AcDbEntity
  8
Make2D$可见线$普通线
  0
LINE
  5
30E
330
1F
100
AcDbEntity
  8
Make2D$可见线$普通线
100
AcDbLine
 10
1095.040348557621
 20
773.5000000000002
 30
0.0
 11
1137.030001425255
 21
773.5000000000002
 31
0.0
  0
POLYLINE
  5
30F
330
1F
100
AcDbEntity
  8
Make2D$可见线$普通线
100
AcDb2dPolyline
 66
     1
 10
0.0
 20
0.0
 30
0.0
  0
VERTEX
  5
310
330
30F
100
AcDbEntity
  8
Make2D$可见线$普通线
100
AcDbVertex
100
AcDb2dVertex
 10
1128.40212060581
 20
945.9372046425776
 30
0.0
 42
0.0406516953441953
  0
VERTEX
  5
311
330
30F
100
AcDbEntity
  8
Make2D$可见线$普通线
100
AcDbVertex
100
AcDb2dVertex
 10
1128.407767932398
 20
959.0422183167871
 30
0.0
 42
-0.1223540425059792
  0
VERTEX
  5
312
330
30F
100
AcDbEntity
  8
Make2D$可见线$普通线
100
AcDbVertex
100
AcDb2dVertex
 10
1130.035174992372
 20
952.4999994802185
 30
0.0
 42
-0.1223775853254849
  0
VERTEX
  5
313
330
30F
100
AcDbEntity
  8
Make2D$可见线$普通线
100
AcDbVertex
100
AcDb2dVertex
 10
1128.40212060581
 20
945.9372046425775
 30
0.0
  0
SEQEND
  5
314
330
30F
100
AcDbEntity
  8
Make2D$可见线$普通线
  0
POLYLINE
  5
315
330
1F
100
AcDbEntity
  8
Make2D$可见线$普通线
100
AcDb2dPolyline
 66
     1
 10
0.0
 20
0.0
 30
0.0
  0
VERTEX
  5
316
330
315
100
AcDbEntity
  8
Make2D$可见线$普通线
100
AcDbVertex
100
AcDb2dVertex
 10
1106.069440662212
 20
966.0000000000003
 30
0.0
  0
VERTEX
  5
317
330
315
100
AcDbEntity
  8
Make2D$可见线$普通线
100
AcDbVertex
100
AcDb2dVertex
 10
1106.045019609697
 20
1093.364189654819
 30
0.0
  0
VERTEX
  5
318
330
315
100
AcDbEntity
  8
Make2D$可见线$普通线
100
AcDbVertex
100
AcDb2dVertex
 10
1106.044805274292
 20
1094.349003117554
 30
0.0
  0
VERTEX
  5
319
330
315
100
AcDbEntity
  8
Make2D$可见线$普通线
100
AcDbVertex
100
AcDb2dVertex
 10
1106.044143947097
 20
1097.34626356727
 30
0.0
  0
VERTEX
  5
31A
330
315
100
AcDbEntity
  8
Make2D$可见线$普通线
100
AcDbVertex
100
AcDb2dVertex
 10
1106.043962962684
 20
1098.154571489144
 30
0.0
  0
VERTEX
  5
31B
330
315
100
AcDbEntity
  8
Make2D$可见线$普通线
100
AcDbVertex
100
AcDb2dVertex
 10
1106.043341327448
 20
1100.887011790363
 30
0.0
  0
VERTEX
  5
31C
330
315
100
AcDbEntity
  8
Make2D$可见线$普通线
100
AcDbVertex
100
AcDb2dVertex
 10
1106.043167267047
 20
1101.638941115682
 30
0.0
  0
VERTEX
  5
31D
330
315
100
AcDbEntity
  8
Make2D$可见线$普通线
100
AcDbVertex
100
AcDb2dVertex
 10
1106.042574494581
 20
1104.151239172728
 30
0.0
  0
VERTEX
  5
31E
330
315
100
AcDbEntity
  8
Make2D$可见线$普通线
100
AcDbVertex
100
AcDb2dVertex
 10
1106.042401139496
 20
1104.870615593578
 30
0.0
  0
VERTEX
  5
31F
330
315
100
AcDbEntity
  8
Make2D$可见线$普通线
100
AcDbVertex
100
AcDb2dVertex
 10
1106.041667782605
 20
1107.825918550417
 30
0.0
  0
VERTEX
  5
320
330
315
100
AcDbEntity
  8
Make2D$可见线$普通线
100
AcDbVertex
100
AcDb2dVertex
 10
1106.041516638791
 20
1108.415464431983
 30
0.0
  0
VERTEX
  5
321
330
315
100
AcDbEntity
  8
Make2D$可见线$普通线
100
AcDbVertex
100
AcDb2dVertex
 10
1106.037415012879
 20
1119.372863350209
 30
0.0
  0
VERTEX
  5
322
330
315
100
AcDbEntity
  8
Make2D$可见线$普通线
100
AcDbVertex
100
AcDb2dVertex
 10
1106.037334141422
 20
1119.394262450839
 30
0.0
  0
SEQEND
  5
323
330
315
100
AcDbEntity
  8
Make2D$可见线$普通线
  0
POLYLINE
  5
324
330
1F
100
AcDbEntity
  8
Make2D$可见线$普通线
100
AcDb2dPolyline
 66
     1
 10
0.0
 20
0.0
 30
0.0
  0
VERTEX
  5
325
330
324
100
AcDbEntity
  8
Make2D$可见线$普通线
100
AcDbVertex
100
AcDb2dVertex
 10
1104.876257278899
 20
966.0000000000002
 30
0.0
  0
VERTEX
  5
326
330
324
100
AcDbEntity
  8
Make2D$可见线$普通线
100
AcDbVertex
100
AcDb2dVertex
 10
1104.535174991185
 20
966.0000000000002
 30
0.0
  0
VERTEX
  5
327
330
324
100
AcDbEntity
  8
Make2D$可见线$普通线
100
AcDbVertex
100
AcDb2dVertex
 10
1104.635575008624
 20
965.8812217618637
 30
0.0
  0
SEQEND
  5
328
330
324
100
AcDbEntity
  8
Make2D$可见线$普通线
  0
POLYLINE
  5
329
330
1F
100
AcDbEntity
  8
Make2D$可见线$普通线
100
AcDb2dPolyline
 66
     1
 10
0.0
 20
0.0
 30
0.0
  0
VERTEX
  5
32A
330
329
100
AcDbEntity
  8
Make2D$可见线$普通线
100
AcDbVertex
100
AcDb2dVertex
 10
1127.434774973746
 20
965.8812217618638
 30
0.0
  0
VERTEX
  5
32B
330
329
100
AcDbEntity
  8
Make2D$可见线$普通线
100
AcDbVertex
100
AcDb2dVertex
 10
1127.535174991185
 20
966.0000000000002
 30
0.0
  0
VERTEX
  5
32C
330
329
100
AcDbEntity
  8
Make2D$可见线$普通线
100
AcDbVertex
100
AcDb2dVertex
 10
1127.194092703471
 20
966.0000000000002
 30
0.0
  0
SEQEND
  5
32D
330
329
100
AcDbEntity
  8
Make2D$可见线$普通线
  0
POLYLINE
  5
32E
330
1F
100
AcDbEntity
  8
Make2D$可见线$普通线
100
AcDb2dPolyline
 66
     1
 10
0.0
 20
0.0
 30
0.0
  0
VERTEX
  5
32F
330
32E
100
AcDbEntity
  8
Make2D$可见线$普通线
100
AcDbVertex
100
AcDb2dVertex
 10
1127.194092703471
 20
939.0000000000002
 30
0.0
  0
VERTEX
  5
330
330
32E
100
AcDbEntity
  8
Make2D$可见线$普通线
100
AcDbVertex
100
AcDb2dVertex
 10
1127.535174991185
 20
939.0000000000002
 30
0.0
  0
VERTEX
  5
331
330
32E
100
AcDbEntity
  8
Make2D$可见线$普通线
100
AcDbVertex
100
AcDb2dVertex
 10
1127.434774973904
 20
939.1187782382701
 30
0.0
  0
SEQEND
  5
332
330
32E
100
AcDbEntity
  8
Make2D$可见线$普通线
  0
POLYLINE
  5
333
330
1F
100
AcDbEntity
  8
Make2D$可见线$普通线
100
AcDb2dPolyline
 66
     1
 10
0.0
 20
0.0
 30
0.0
  0
VERTEX
  5
334
330
333
100
AcDbEntity
  8
Make2D$可见线$普通线
100
AcDbVertex
100
AcDb2dVertex
 10
1104.635575008624
 20
939.1187782381361
 30
0.0
  0
VERTEX
  5
335
330
333
100
AcDbEntity
  8
Make2D$可见线$普通线
100
AcDbVertex
100
AcDb2dVertex
 10
1104.535174991185
 20
939.0000000000002
 30
0.0
  0
VERTEX
  5
336
330
333
100
AcDbEntity
  8
Make2D$可见线$普通线
100
AcDbVertex
100
AcDb2dVertex
 10
1104.8762572789
 20
939.0000000000002
 30
0.0
  0
SEQEND
  5
337
330
333
100
AcDbEntity
  8
Make2D$可见线$普通线
  0
POLYLINE
  5
338
330
1F
100
AcDbEntity
  8
Make2D$可见线$普通线
100
AcDb2dPolyline
 66
     1
 10
0.0
 20
0.0
 30
0.0
  0
VERTEX
  5
339
330
338
100
AcDbEntity
  8
Make2D$可见线$普通线
100
AcDbVertex
100
AcDb2dVertex
 10
1381.035174991185
 20
861.5000000000002
 30
0.0
  0
VERTEX
  5
33A
330
338
100
AcDbEntity
  8
Make2D$可见线$普通线
100
AcDbVertex
100
AcDb2dVertex
 10
1381.035174991185
 20
760.4999938876902
 30
0.0
 42
0.4142135623731391
  0
VERTEX
  5
33B
330
338
100
AcDbEntity
  8
Make2D$可见线$普通线
100
AcDbVertex
100
AcDb2dVertex
 10
1382.035174991182
 20
759.4999938876902
 30
0.0
  0
VERTEX
  5
33C
330
338
100
AcDbEntity
  8
Make2D$可见线$普通线
100
AcDbVertex
100
AcDb2dVertex
 10
1630.035174991185
 20
759.49999388769
 30
0.0
 42
0.4142135623730526
  0
VERTEX
  5
33D
330
338
100
AcDbEntity
  8
Make2D$可见线$普通线
100
AcDbVertex
100
AcDb2dVertex
 10
1631.035174991185
 20
760.4999938876916
 30
0.0
  0
VERTEX
  5
33E
330
338
100
AcDbEntity
  8
Make2D$可见线$普通线
100
AcDbVertex
100
AcDb2dVertex
 10
1631.035174991184
 20
1008.49999388769
 30
0.0
 42
0.4142135623732151
  0
VERTEX
  5
33F
330
338
100
AcDbEntity
  8
Make2D$可见线$普通线
100
AcDbVertex
100
AcDb2dVertex
 10
1630.035174991183
 20
1009.49999388769
 30
0.0
  0
VERTEX
  5
340
330
338
100
AcDbEntity
  8
Make2D$可见线$普通线
100
AcDbVertex
100
AcDb2dVertex
 10
1382.035174991185
 20
1009.49999388769
 30
0.0
 42
0.4142135623731381
  0
VERTEX
  5
341
330
338
100
AcDbEntity
  8
Make2D$可见线$普通线
100
AcDbVertex
100
AcDb2dVertex
 10
1381.035174991184
 20
1008.499993887689
 30
0.0
  0
VERTEX
  5
342
330
338
100
AcDbEntity
  8
Make2D$可见线$普通线
100
AcDbVertex
100
AcDb2dVertex
 10
1381.035174991185
 20
907.5000000000002
 30
0.0
  0
SEQEND
  5
343
330
338
100
AcDbEntity
  8
Make2D$可见线$普通线
  0
POLYLINE
  5
345
330
1F
100
AcDbEntity
  8
E98321
100
AcDb2dPolyline
 66
     1
 10
0.0
 20
0.0
 30
0.0
  0
VERTEX
  5
346
330
345
100
AcDbEntity
  8
E98321
100
AcDbVertex
100
AcDb2dVertex
 10
1104.4655830618
 20
939.4195843705031
 30
0.0
  0
VERTEX
  5
347
330
345
100
AcDbEntity
  8
E98321
100
AcDbVertex
100
AcDb2dVertex
 10
1104.4655830618
 20
965.5804156294973
 30
0.0
 42
-0.3676367987302863
  0
VERTEX
  5
348
330
345
100
AcDbEntity
  8
E98321
100
AcDbVertex
100
AcDb2dVertex
 10
1104.959141547206
 20
966.0000000000006
 30
0.0
  0
VERTEX
  5
349
330
345
100
AcDbEntity
  8
E98321
100
AcDbVertex
100
AcDb2dVertex
 10
1127.111208435164
 20
966.0000000000001
 30
0.0
 42
-0.3676368863821469
  0
VERTEX
  5
34A
330
345
100
AcDbEntity
  8
E98321
100
AcDbVertex
100
AcDb2dVertex
 10
1127.60476692057
 20
965.5804156294973
 30
0.0
  0
VERTEX
  5
34B
330
345
100
AcDbEntity
  8
E98321
100
AcDbVertex
100
AcDb2dVertex
 10
1127.60476692057
 20
939.4195843705031
 30
0.0
 42
-0.3676368863826746
  0
VERTEX
  5
34C
330
345
100
AcDbEntity
  8
E98321
100
AcDbVertex
100
AcDb2dVertex
 10
1127.111208435164
 20
939.0000000000006
 30
0.0
  0
VERTEX
  5
34D
330
345
100
AcDbEntity
  8
E98321
100
AcDbVertex
100
AcDb2dVertex
 10
1104.959141547206
 20
939.0000000000002
 30
0.0
 42
-0.3676368863832013
  0
VERTEX
  5
34E
330
345
100
AcDbEntity
  8
E98321
100
AcDbVertex
100
AcDb2dVertex
 10
1104.4655830618
 20
939.4195843705031
 30
0.0
  0
SEQEND
  5
34F
330
345
100
AcDbEntity
  8
E98321
  0
POLYLINE
  5
350
330
1F
100
AcDbEntity
  8
E98321
100
AcDb2dPolyline
 66
     1
 10
0.0
 20
0.0
 30
0.0
  0
VERTEX
  5
351
330
350
100
AcDbEntity
  8
E98321
100
AcDbVertex
100
AcDb2dVertex
 10
1101.035174991186
 20
864.5000000000002
 30
0.0
  0
VERTEX
  5
352
330
350
100
AcDbEntity
  8
E98321
100
AcDbVertex
100
AcDb2dVertex
 10
1101.035174991186
 20
862.5000000000002
 30
0.0
  0
VERTEX
  5
353
330
350
100
AcDbEntity
  8
E98321
100
AcDbVertex
100
AcDb2dVertex
 10
1101.040057803686
 20
862.1923828125002
 30
0.0
  0
VERTEX
  5
354
330
350
100
AcDbEntity
  8
E98321
100
AcDbVertex
100
AcDb2dVertex
 10
1101.054706241186
 20
861.8945312500002
 30
0.0
  0
VERTEX
  5
355
330
350
100
AcDbEntity
  8
E98321
100
AcDbVertex
100
AcDb2dVertex
 10
1101.065692569311
 20
861.7492675781252
 30
0.0
  0
VERTEX
  5
356
330
350
100
AcDbEntity
  8
E98321
100
AcDbVertex
100
AcDb2dVertex
 10
1101.079120303686
 20
861.6064453125002
 30
0.0
  0
VERTEX
  5
357
330
350
100
AcDbEntity
  8
E98321
100
AcDbVertex
100
AcDb2dVertex
 10
1101.094989444311
 20
861.4660644531252
 30
0.0
  0
VERTEX
  5
358
330
350
100
AcDbEntity
  8
E98321
100
AcDbVertex
100
AcDb2dVertex
 10
1101.113299991186
 20
861.3281250000002
 30
0.0
  0
VERTEX
  5
359
330
350
100
AcDbEntity
  8
E98321
100
AcDbVertex
100
AcDb2dVertex
 10
1101.134051944311
 20
861.1926269531252
 30
0.0
  0
VERTEX
  5
35A
330
350
100
AcDbEntity
  8
E98321
100
AcDbVertex
100
AcDb2dVertex
 10
1101.157245303686
 20
861.0595703125002
 30
0.0
  0
VERTEX
  5
35B
330
350
100
AcDbEntity
  8
E98321
100
AcDbVertex
100
AcDb2dVertex
 10
1101.182880069311
 20
860.9289550781252
 30
0.0
  0
VERTEX
  5
35C
330
350
100
AcDbEntity
  8
E98321
100
AcDbVertex
100
AcDb2dVertex
 10
1101.210956241186
 20
860.8007812500002
 30
0.0
  0
VERTEX
  5
35D
330
350
100
AcDbEntity
  8
E98321
100
AcDbVertex
100
AcDb2dVertex
 10
1101.241473819311
 20
860.6750488281252
 30
0.0
  0
VERTEX
  5
35E
330
350
100
AcDbEntity
  8
E98321
100
AcDbVertex
100
AcDb2dVertex
 10
1101.274432803686
 20
860.5517578125002
 30
0.0
  0
VERTEX
  5
35F
330
350
100
AcDbEntity
  8
E98321
100
AcDbVertex
100
AcDb2dVertex
 10
1101.309833194311
 20
860.4309082031252
 30
0.0
  0
VERTEX
  5
360
330
350
100
AcDbEntity
  8
E98321
100
AcDbVertex
100
AcDb2dVertex
 10
1101.347674991186
 20
860.3125000000002
 30
0.0
  0
VERTEX
  5
361
330
350
100
AcDbEntity
  8
E98321
100
AcDbVertex
100
AcDb2dVertex
 10
1101.387958194311
 20
860.1965332031252
 30
0.0
  0
VERTEX
  5
362
330
350
100
AcDbEntity
  8
E98321
100
AcDbVertex
100
AcDb2dVertex
 10
1101.430682803686
 20
860.0830078125002
 30
0.0
  0
VERTEX
  5
363
330
350
100
AcDbEntity
  8
E98321
100
AcDbVertex
100
AcDb2dVertex
 10
1101.475848819311
 20
859.9719238281252
 30
0.0
  0
VERTEX
  5
364
330
350
100
AcDbEntity
  8
E98321
100
AcDbVertex
100
AcDb2dVertex
 10
1101.523456241186
 20
859.8632812500002
 30
0.0
  0
VERTEX
  5
365
330
350
100
AcDbEntity
  8
E98321
100
AcDbVertex
100
AcDb2dVertex
 10
1101.573505069311
 20
859.7570800781252
 30
0.0
  0
VERTEX
  5
366
330
350
100
AcDbEntity
  8
E98321
100
AcDbVertex
100
AcDb2dVertex
 10
1101.625995303686
 20
859.6533203125002
 30
0.0
  0
VERTEX
  5
367
330
350
100
AcDbEntity
  8
E98321
100
AcDbVertex
100
AcDb2dVertex
 10
1101.680926944311
 20
859.5520019531252
 30
0.0
  0
VERTEX
  5
368
330
350
100
AcDbEntity
  8
E98321
100
AcDbVertex
100
AcDb2dVertex
 10
1101.738299991186
 20
859.4531250000002
 30
0.0
  0
VERTEX
  5
369
330
350
100
AcDbEntity
  8
E98321
100
AcDbVertex
100
AcDb2dVertex
 10
1101.798114444311
 20
859.3566894531252
 30
0.0
  0
VERTEX
  5
36A
330
350
100
AcDbEntity
  8
E98321
100
AcDbVertex
100
AcDb2dVertex
 10
1101.860370303686
 20
859.2626953125002
 30
0.0
  0
VERTEX
  5
36B
330
350
100
AcDbEntity
  8
E98321
100
AcDbVertex
100
AcDb2dVertex
 10
1101.925067569311
 20
859.1711425781252
 30
0.0
  0
VERTEX
  5
36C
330
350
100
AcDbEntity
  8
E98321
100
AcDbVertex
100
AcDb2dVertex
 10
1101.992206241186
 20
859.0820312500002
 30
0.0
  0
VERTEX
  5
36D
330
350
100
AcDbEntity
  8
E98321
100
AcDbVertex
100
AcDb2dVertex
 10
1102.061786319311
 20
858.9953613281252
 30
0.0
  0
VERTEX
  5
36E
330
350
100
AcDbEntity
  8
E98321
100
AcDbVertex
100
AcDb2dVertex
 10
1102.133807803686
 20
858.9111328125002
 30
0.0
  0
VERTEX
  5
36F
330
350
100
AcDbEntity
  8
E98321
100
AcDbVertex
100
AcDb2dVertex
 10
1102.208270694311
 20
858.8293457031252
 30
0.0
  0
VERTEX
  5
370
330
350
100
AcDbEntity
  8
E98321
100
AcDbVertex
100
AcDb2dVertex
 10
1102.285174991186
 20
858.7500000000002
 30
0.0
  0
VERTEX
  5
371
330
350
100
AcDbEntity
  8
E98321
100
AcDbVertex
100
AcDb2dVertex
 10
1102.364520694311
 20
858.6730957031252
 30
0.0
  0
VERTEX
  5
372
330
350
100
AcDbEntity
  8
E98321
100
AcDbVertex
100
AcDb2dVertex
 10
1102.446307803686
 20
858.5986328125002
 30
0.0
  0
VERTEX
  5
373
330
350
100
AcDbEntity
  8
E98321
100
AcDbVertex
100
AcDb2dVertex
 10
1102.530536319311
 20
858.5266113281252
 30
0.0
  0
VERTEX
  5
374
330
350
100
AcDbEntity
  8
E98321
100
AcDbVertex
100
AcDb2dVertex
 10
1102.617206241186
 20
858.4570312500002
 30
0.0
  0
VERTEX
  5
375
330
350
100
AcDbEntity
  8
E98321
100
AcDbVertex
100
AcDb2dVertex
 10
1102.706317569311
 20
858.3898925781252
 30
0.0
  0
VERTEX
  5
376
330
350
100
AcDbEntity
  8
E98321
100
AcDbVertex
100
AcDb2dVertex
 10
1102.797870303686
 20
858.3251953125002
 30
0.0
  0
VERTEX
  5
377
330
350
100
AcDbEntity
  8
E98321
100
AcDbVertex
100
AcDb2dVertex
 10
1102.891864444311
 20
858.2629394531252
 30
0.0
  0
VERTEX
  5
378
330
350
100
AcDbEntity
  8
E98321
100
AcDbVertex
100
AcDb2dVertex
 10
1102.988299991186
 20
858.2031250000002
 30
0.0
  0
VERTEX
  5
379
330
350
100
AcDbEntity
  8
E98321
100
AcDbVertex
100
AcDb2dVertex
 10
1103.087176944311
 20
858.1457519531252
 30
0.0
  0
VERTEX
  5
37A
330
350
100
AcDbEntity
  8
E98321
100
AcDbVertex
100
AcDb2dVertex
 10
1103.188495303686
 20
858.0908203125002
 30
0.0
  0
VERTEX
  5
37B
330
350
100
AcDbEntity
  8
E98321
100
AcDbVertex
100
AcDb2dVertex
 10
1103.292255069311
 20
858.0383300781252
 30
0.0
  0
VERTEX
  5
37C
330
350
100
AcDbEntity
  8
E98321
100
AcDbVertex
100
AcDb2dVertex
 10
1103.398456241186
 20
857.9882812500002
 30
0.0
  0
VERTEX
  5
37D
330
350
100
AcDbEntity
  8
E98321
100
AcDbVertex
100
AcDb2dVertex
 10
1103.507098819311
 20
857.9406738281252
 30
0.0
  0
VERTEX
  5
37E
330
350
100
AcDbEntity
  8
E98321
100
AcDbVertex
100
AcDb2dVertex
 10
1103.618182803686
 20
857.8955078125002
 30
0.0
  0
VERTEX
  5
37F
330
350
100
AcDbEntity
  8
E98321
100
AcDbVertex
100
AcDb2dVertex
 10
1103.731708194311
 20
857.8527832031252
 30
0.0
  0
VERTEX
  5
380
330
350
100
AcDbEntity
  8
E98321
100
AcDbVertex
100
AcDb2dVertex
 10
1103.847674991186
 20
857.8125000000002
 30
0.0
  0
VERTEX
  5
381
330
350
100
AcDbEntity
  8
E98321
100
AcDbVertex
100
AcDb2dVertex
 10
1103.966083194311
 20
857.7746582031252
 30
0.0
  0
VERTEX
  5
382
330
350
100
AcDbEntity
  8
E98321
100
AcDbVertex
100
AcDb2dVertex
 10
1104.086932803686
 20
857.7392578125002
 30
0.0
  0
VERTEX
  5
383
330
350
100
AcDbEntity
  8
E98321
100
AcDbVertex
100
AcDb2dVertex
 10
1104.210223819311
 20
857.7062988281252
 30
0.0
  0
VERTEX
  5
384
330
350
100
AcDbEntity
  8
E98321
100
AcDbVertex
100
AcDb2dVertex
 10
1104.335956241186
 20
857.6757812500002
 30
0.0
  0
VERTEX
  5
385
330
350
100
AcDbEntity
  8
E98321
100
AcDbVertex
100
AcDb2dVertex
 10
1104.464130069311
 20
857.6477050781252
 30
0.0
  0
VERTEX
  5
386
330
350
100
AcDbEntity
  8
E98321
100
AcDbVertex
100
AcDb2dVertex
 10
1104.594745303686
 20
857.6220703125002
 30
0.0
  0
VERTEX
  5
387
330
350
100
AcDbEntity
  8
E98321
100
AcDbVertex
100
AcDb2dVertex
 10
1104.727801944311
 20
857.5988769531252
 30
0.0
  0
VERTEX
  5
388
330
350
100
AcDbEntity
  8
E98321
100
AcDbVertex
100
AcDb2dVertex
 10
1104.863299991186
 20
857.5781250000002
 30
0.0
  0
VERTEX
  5
389
330
350
100
AcDbEntity
  8
E98321
100
AcDbVertex
100
AcDb2dVertex
 10
1105.001239444311
 20
857.5598144531252
 30
0.0
  0
VERTEX
  5
38A
330
350
100
AcDbEntity
  8
E98321
100
AcDbVertex
100
AcDb2dVertex
 10
1105.141620303686
 20
857.5439453125002
 30
0.0
  0
VERTEX
  5
38B
330
350
100
AcDbEntity
  8
E98321
100
AcDbVertex
100
AcDb2dVertex
 10
1105.284442569311
 20
857.5305175781252
 30
0.0
  0
VERTEX
  5
38C
330
350
100
AcDbEntity
  8
E98321
100
AcDbVertex
100
AcDb2dVertex
 10
1105.429706241186
 20
857.5195312500002
 30
0.0
  0
VERTEX
  5
38D
330
350
100
AcDbEntity
  8
E98321
100
AcDbVertex
100
AcDb2dVertex
 10
1105.727557803686
 20
857.5048828125002
 30
0.0
  0
VERTEX
  5
38E
330
350
100
AcDbEntity
  8
E98321
100
AcDbVertex
100
AcDb2dVertex
 10
1106.035174991186
 20
857.5000000000002
 30
0.0
  0
VERTEX
  5
38F
330
350
100
AcDbEntity
  8
E98321
100
AcDbVertex
100
AcDb2dVertex
 10
1126.035174991186
 20
857.5000000000002
 30
0.0
  0
VERTEX
  5
390
330
350
100
AcDbEntity
  8
E98321
100
AcDbVertex
100
AcDb2dVertex
 10
1126.310777238373
 20
857.5039062500002
 30
0.0
  0
VERTEX
  5
391
330
350
100
AcDbEntity
  8
E98321
100
AcDbVertex
100
AcDb2dVertex
 10
1126.578566985561
 20
857.5156250000002
 30
0.0
  0
VERTEX
  5
392
330
350
100
AcDbEntity
  8
E98321
100
AcDbVertex
100
AcDb2dVertex
 10
1126.838544232748
 20
857.5351562500002
 30
0.0
  0
VERTEX
  5
393
330
350
100
AcDbEntity
  8
E98321
100
AcDbVertex
100
AcDb2dVertex
 10
1127.090708979936
 20
857.5625000000002
 30
0.0
  0
VERTEX
  5
394
330
350
100
AcDbEntity
  8
E98321
100
AcDbVertex
100
AcDb2dVertex
 10
1127.21386166603
 20
857.5791015625002
 30
0.0
  0
VERTEX
  5
395
330
350
100
AcDbEntity
  8
E98321
100
AcDbVertex
100
AcDb2dVertex
 10
1127.335061227123
 20
857.5976562500002
 30
0.0
  0
VERTEX
  5
396
330
350
100
AcDbEntity
  8
E98321
100
AcDbVertex
100
AcDb2dVertex
 10
1127.454307663217
 20
857.6181640625002
 30
0.0
  0
VERTEX
  5
397
330
350
100
AcDbEntity
  8
E98321
100
AcDbVertex
100
AcDb2dVertex
 10
1127.571600974311
 20
857.6406250000002
 30
0.0
  0
VERTEX
  5
398
330
350
100
AcDbEntity
  8
E98321
100
AcDbVertex
100
AcDb2dVertex
 10
1127.686941160404
 20
857.6650390625002
 30
0.0
  0
VERTEX
  5
399
330
350
100
AcDbEntity
  8
E98321
100
AcDbVertex
100
AcDb2dVertex
 10
1127.800328221498
 20
857.6914062500002
 30
0.0
  0
VERTEX
  5
39A
330
350
100
AcDbEntity
  8
E98321
100
AcDbVertex
100
AcDb2dVertex
 10
1127.911762157592
 20
857.7197265625002
 30
0.0
  0
VERTEX
  5
39B
330
350
100
AcDbEntity
  8
E98321
100
AcDbVertex
100
AcDb2dVertex
 10
1128.021242968686
 20
857.7500000000002
 30
0.0
  0
VERTEX
  5
39C
330
350
100
AcDbEntity
  8
E98321
100
AcDbVertex
100
AcDb2dVertex
 10
1128.128770654779
 20
857.7822265625002
 30
0.0
  0
VERTEX
  5
39D
330
350
100
AcDbEntity
  8
E98321
100
AcDbVertex
100
AcDb2dVertex
 10
1128.234345215873
 20
857.8164062500002
 30
0.0
  0
VERTEX
  5
39E
330
350
100
AcDbEntity
  8
E98321
100
AcDbVertex
100
AcDb2dVertex
 10
1128.337966651967
 20
857.8525390625002
 30
0.0
  0
VERTEX
  5
39F
330
350
100
AcDbEntity
  8
E98321
100
AcDbVertex
100
AcDb2dVertex
 10
1128.439634963061
 20
857.8906250000002
 30
0.0
  0
VERTEX
  5
3A0
330
350
100
AcDbEntity
  8
E98321
100
AcDbVertex
100
AcDb2dVertex
 10
1128.539350149154
 20
857.9306640625002
 30
0.0
  0
VERTEX
  5
3A1
330
350
100
AcDbEntity
  8
E98321
100
AcDbVertex
100
AcDb2dVertex
 10
1128.637112210248
 20
857.9726562500002
 30
0.0
  0
VERTEX
  5
3A2
330
350
100
AcDbEntity
  8
E98321
100
AcDbVertex
100
AcDb2dVertex
 10
1128.732921146342
 20
858.0166015625002
 30
0.0
  0
VERTEX
  5
3A3
330
350
100
AcDbEntity
  8
E98321
100
AcDbVertex
100
AcDb2dVertex
 10
1128.826776957435
 20
858.0625000000002
 30
0.0
  0
VERTEX
  5
3A4
330
350
100
AcDbEntity
  8
E98321
100
AcDbVertex
100
AcDb2dVertex
 10
1128.918679643529
 20
858.1103515625002
 30
0.0
  0
VERTEX
  5
3A5
330
350
100
AcDbEntity
  8
E98321
100
AcDbVertex
100
AcDb2dVertex
 10
1129.008629204623
 20
858.1601562500002
 30
0.0
  0
VERTEX
  5
3A6
330
350
100
AcDbEntity
  8
E98321
100
AcDbVertex
100
AcDb2dVertex
 10
1129.096625640717
 20
858.2119140625002
 30
0.0
  0
VERTEX
  5
3A7
330
350
100
AcDbEntity
  8
E98321
100
AcDbVertex
100
AcDb2dVertex
 10
1129.18266895181
 20
858.2656250000002
 30
0.0
  0
VERTEX
  5
3A8
330
350
100
AcDbEntity
  8
E98321
100
AcDbVertex
100
AcDb2dVertex
 10
1129.266759137904
 20
858.3212890625002
 30
0.0
  0
VERTEX
  5
3A9
330
350
100
AcDbEntity
  8
E98321
100
AcDbVertex
100
AcDb2dVertex
 10
1129.348896198998
 20
858.3789062500002
 30
0.0
  0
VERTEX
  5
3AA
330
350
100
AcDbEntity
  8
E98321
100
AcDbVertex
100
AcDb2dVertex
 10
1129.429080135092
 20
858.4384765625002
 30
0.0
  0
VERTEX
  5
3AB
330
350
100
AcDbEntity
  8
E98321
100
AcDbVertex
100
AcDb2dVertex
 10
1129.507310946185
 20
858.5000000000002
 30
0.0
  0
VERTEX
  5
3AC
330
350
100
AcDbEntity
  8
E98321
100
AcDbVertex
100
AcDb2dVertex
 10
1129.583588632279
 20
858.5634765625002
 30
0.0
  0
VERTEX
  5
3AD
330
350
100
AcDbEntity
  8
E98321
100
AcDbVertex
100
AcDb2dVertex
 10
1129.657913193373
 20
858.6289062500002
 30
0.0
  0
VERTEX
  5
3AE
330
350
100
AcDbEntity
  8
E98321
100
AcDbVertex
100
AcDb2dVertex
 10
1129.730284629466
 20
858.6962890625002
 30
0.0
  0
VERTEX
  5
3AF
330
350
100
AcDbEntity
  8
E98321
100
AcDbVertex
100
AcDb2dVertex
 10
1129.80070294056
 20
858.7656250000002
 30
0.0
  0
VERTEX
  5
3B0
330
350
100
AcDbEntity
  8
E98321
100
AcDbVertex
100
AcDb2dVertex
 10
1129.869168126654
 20
858.8369140625002
 30
0.0
  0
VERTEX
  5
3B1
330
350
100
AcDbEntity
  8
E98321
100
AcDbVertex
100
AcDb2dVertex
 10
1129.935680187748
 20
858.9101562500002
 30
0.0
  0
VERTEX
  5
3B2
330
350
100
AcDbEntity
  8
E98321
100
AcDbVertex
100
AcDb2dVertex
 10
1130.000239123842
 20
858.9853515625002
 30
0.0
  0
VERTEX
  5
3B3
330
350
100
AcDbEntity
  8
E98321
100
AcDbVertex
100
AcDb2dVertex
 10
1130.062844934935
 20
859.0625000000002
 30
0.0
  0
VERTEX
  5
3B4
330
350
100
AcDbEntity
  8
E98321
100
AcDbVertex
100
AcDb2dVertex
 10
1130.123497621029
 20
859.1416015625002
 30
0.0
  0
VERTEX
  5
3B5
330
350
100
AcDbEntity
  8
E98321
100
AcDbVertex
100
AcDb2dVertex
 10
1130.182197182123
 20
859.2226562500002
 30
0.0
  0
VERTEX
  5
3B6
330
350
100
AcDbEntity
  8
E98321
100
AcDbVertex
100
AcDb2dVertex
 10
1130.238943618217
 20
859.3056640625002
 30
0.0
  0
VERTEX
  5
3B7
330
350
100
AcDbEntity
  8
E98321
100
AcDbVertex
100
AcDb2dVertex
 10
1130.29373692931
 20
859.3906250000002
 30
0.0
  0
VERTEX
  5
3B8
330
350
100
AcDbEntity
  8
E98321
100
AcDbVertex
100
AcDb2dVertex
 10
1130.346577115404
 20
859.4775390625002
 30
0.0
  0
VERTEX
  5
3B9
330
350
100
AcDbEntity
  8
E98321
100
AcDbVertex
100
AcDb2dVertex
 10
1130.397464176498
 20
859.5664062500002
 30
0.0
  0
VERTEX
  5
3BA
330
350
100
AcDbEntity
  8
E98321
100
AcDbVertex
100
AcDb2dVertex
 10
1130.446398112591
 20
859.6572265625002
 30
0.0
  0
VERTEX
  5
3BB
330
350
100
AcDbEntity
  8
E98321
100
AcDbVertex
100
AcDb2dVertex
 10
1130.493378923685
 20
859.7500000000002
 30
0.0
  0
VERTEX
  5
3BC
330
350
100
AcDbEntity
  8
E98321
100
AcDbVertex
100
AcDb2dVertex
 10
1130.538406609779
 20
859.8447265625002
 30
0.0
  0
VERTEX
  5
3BD
330
350
100
AcDbEntity
  8
E98321
100
AcDbVertex
100
AcDb2dVertex
 10
1130.581481170873
 20
859.9414062500002
 30
0.0
  0
VERTEX
  5
3BE
330
350
100
AcDbEntity
  8
E98321
100
AcDbVertex
100
AcDb2dVertex
 10
1130.622602606966
 20
860.0400390625002
 30
0.0
  0
VERTEX
  5
3BF
330
350
100
AcDbEntity
  8
E98321
100
AcDbVertex
100
AcDb2dVertex
 10
1130.66177091806
 20
860.1406250000002
 30
0.0
  0
VERTEX
  5
3C0
330
350
100
AcDbEntity
  8
E98321
100
AcDbVertex
100
AcDb2dVertex
 10
1130.698986104154
 20
860.2431640625002
 30
0.0
  0
VERTEX
  5
3C1
330
350
100
AcDbEntity
  8
E98321
100
AcDbVertex
100
AcDb2dVertex
 10
1130.734248165248
 20
860.3476562500002
 30
0.0
  0
VERTEX
  5
3C2
330
350
100
AcDbEntity
  8
E98321
100
AcDbVertex
100
AcDb2dVertex
 10
1130.767557101341
 20
860.4541015625002
 30
0.0
  0
VERTEX
  5
3C3
330
350
100
AcDbEntity
  8
E98321
100
AcDbVertex
100
AcDb2dVertex
 10
1130.798912912435
 20
860.5625000000002
 30
0.0
  0
VERTEX
  5
3C4
330
350
100
AcDbEntity
  8
E98321
100
AcDbVertex
100
AcDb2dVertex
 10
1130.828315598529
 20
860.6728515625002
 30
0.0
  0
VERTEX
  5
3C5
330
350
100
AcDbEntity
  8
E98321
100
AcDbVertex
100
AcDb2dVertex
 10
1130.855765159622
 20
860.7851562500002
 30
0.0
  0
VERTEX
  5
3C6
330
350
100
AcDbEntity
  8
E98321
100
AcDbVertex
100
AcDb2dVertex
 10
1130.881261595716
 20
860.8994140625002
 30
0.0
  0
VERTEX
  5
3C7
330
350
100
AcDbEntity
  8
E98321
100
AcDbVertex
100
AcDb2dVertex
 10
1130.90480490681
 20
861.0156250000002
 30
0.0
  0
VERTEX
  5
3C8
330
350
100
AcDbEntity
  8
E98321
100
AcDbVertex
100
AcDb2dVertex
 10
1130.926395092904
 20
861.1337890625002
 30
0.0
  0
VERTEX
  5
3C9
330
350
100
AcDbEntity
  8
E98321
100
AcDbVertex
100
AcDb2dVertex
 10
1130.946032153998
 20
861.2539062500002
 30
0.0
  0
VERTEX
  5
3CA
330
350
100
AcDbEntity
  8
E98321
100
AcDbVertex
100
AcDb2dVertex
 10
1130.963716090091
 20
861.3759765625002
 30
0.0
  0
VERTEX
  5
3CB
330
350
100
AcDbEntity
  8
E98321
100
AcDbVertex
100
AcDb2dVertex
 10
1130.979446901185
 20
861.5000000000003
 30
0.0
  0
SEQEND
  5
3CC
330
350
100
AcDbEntity
  8
E98321
  0
POLYLINE
  5
3CD
330
1F
100
AcDbEntity
  8
E98321
100
AcDb2dPolyline
 66
     1
 10
0.0
 20
0.0
 30
0.0
  0
VERTEX
  5
3CE
330
3CD
100
AcDbEntity
  8
E98321
100
AcDbVertex
100
AcDb2dVertex
 10
1101.035174991186
 20
904.5000000000002
 30
0.0
  0
VERTEX
  5
3CF
330
3CD
100
AcDbEntity
  8
E98321
100
AcDbVertex
100
AcDb2dVertex
 10
1101.035174991186
 20
906.5000000000002
 30
0.0
  0
VERTEX
  5
3D0
330
3CD
100
AcDbEntity
  8
E98321
100
AcDbVertex
100
AcDb2dVertex
 10
1101.040057803686
 20
906.8076171875002
 30
0.0
  0
VERTEX
  5
3D1
330
3CD
100
AcDbEntity
  8
E98321
100
AcDbVertex
100
AcDb2dVertex
 10
1101.054706241186
 20
907.1054687500002
 30
0.0
  0
VERTEX
  5
3D2
330
3CD
100
AcDbEntity
  8
E98321
100
AcDbVertex
100
AcDb2dVertex
 10
1101.065692569311
 20
907.2507324218752
 30
0.0
  0
VERTEX
  5
3D3
330
3CD
100
AcDbEntity
  8
E98321
100
AcDbVertex
100
AcDb2dVertex
 10
1101.079120303686
 20
907.3935546875002
 30
0.0
  0
VERTEX
  5
3D4
330
3CD
100
AcDbEntity
  8
E98321
100
AcDbVertex
100
AcDb2dVertex
 10
1101.094989444311
 20
907.5339355468752
 30
0.0
  0
VERTEX
  5
3D5
330
3CD
100
AcDbEntity
  8
E98321
100
AcDbVertex
100
AcDb2dVertex
 10
1101.113299991186
 20
907.6718750000002
 30
0.0
  0
VERTEX
  5
3D6
330
3CD
100
AcDbEntity
  8
E98321
100
AcDbVertex
100
AcDb2dVertex
 10
1101.134051944311
 20
907.8073730468752
 30
0.0
  0
VERTEX
  5
3D7
330
3CD
100
AcDbEntity
  8
E98321
100
AcDbVertex
100
AcDb2dVertex
 10
1101.157245303686
 20
907.9404296875002
 30
0.0
  0
VERTEX
  5
3D8
330
3CD
100
AcDbEntity
  8
E98321
100
AcDbVertex
100
AcDb2dVertex
 10
1101.182880069311
 20
908.0710449218752
 30
0.0
  0
VERTEX
  5
3D9
330
3CD
100
AcDbEntity
  8
E98321
100
AcDbVertex
100
AcDb2dVertex
 10
1101.210956241186
 20
908.1992187500002
 30
0.0
  0
VERTEX
  5
3DA
330
3CD
100
AcDbEntity
  8
E98321
100
AcDbVertex
100
AcDb2dVertex
 10
1101.241473819311
 20
908.3249511718752
 30
0.0
  0
VERTEX
  5
3DB
330
3CD
100
AcDbEntity
  8
E98321
100
AcDbVertex
100
AcDb2dVertex
 10
1101.274432803686
 20
908.4482421875002
 30
0.0
  0
VERTEX
  5
3DC
330
3CD
100
AcDbEntity
  8
E98321
100
AcDbVertex
100
AcDb2dVertex
 10
1101.309833194311
 20
908.5690917968752
 30
0.0
  0
VERTEX
  5
3DD
330
3CD
100
AcDbEntity
  8
E98321
100
AcDbVertex
100
AcDb2dVertex
 10
1101.347674991186
 20
908.6875000000002
 30
0.0
  0
VERTEX
  5
3DE
330
3CD
100
AcDbEntity
  8
E98321
100
AcDbVertex
100
AcDb2dVertex
 10
1101.387958194311
 20
908.8034667968752
 30
0.0
  0
VERTEX
  5
3DF
330
3CD
100
AcDbEntity
  8
E98321
100
AcDbVertex
100
AcDb2dVertex
 10
1101.430682803686
 20
908.9169921875002
 30
0.0
  0
VERTEX
  5
3E0
330
3CD
100
AcDbEntity
  8
E98321
100
AcDbVertex
100
AcDb2dVertex
 10
1101.475848819311
 20
909.0280761718752
 30
0.0
  0
VERTEX
  5
3E1
330
3CD
100
AcDbEntity
  8
E98321
100
AcDbVertex
100
AcDb2dVertex
 10
1101.523456241186
 20
909.1367187500002
 30
0.0
  0
VERTEX
  5
3E2
330
3CD
100
AcDbEntity
  8
E98321
100
AcDbVertex
100
AcDb2dVertex
 10
1101.573505069311
 20
909.2429199218752
 30
0.0
  0
VERTEX
  5
3E3
330
3CD
100
AcDbEntity
  8
E98321
100
AcDbVertex
100
AcDb2dVertex
 10
1101.625995303686
 20
909.3466796875002
 30
0.0
  0
VERTEX
  5
3E4
330
3CD
100
AcDbEntity
  8
E98321
100
AcDbVertex
100
AcDb2dVertex
 10
1101.680926944311
 20
909.4479980468752
 30
0.0
  0
VERTEX
  5
3E5
330
3CD
100
AcDbEntity
  8
E98321
100
AcDbVertex
100
AcDb2dVertex
 10
1101.738299991186
 20
909.5468750000002
 30
0.0
  0
VERTEX
  5
3E6
330
3CD
100
AcDbEntity
  8
E98321
100
AcDbVertex
100
AcDb2dVertex
 10
1101.798114444311
 20
909.6433105468752
 30
0.0
  0
VERTEX
  5
3E7
330
3CD
100
AcDbEntity
  8
E98321
100
AcDbVertex
100
AcDb2dVertex
 10
1101.860370303686
 20
909.7373046875002
 30
0.0
  0
VERTEX
  5
3E8
330
3CD
100
AcDbEntity
  8
E98321
100
AcDbVertex
100
AcDb2dVertex
 10
1101.925067569311
 20
909.8288574218752
 30
0.0
  0
VERTEX
  5
3E9
330
3CD
100
AcDbEntity
  8
E98321
100
AcDbVertex
100
AcDb2dVertex
 10
1101.992206241186
 20
909.9179687500002
 30
0.0
  0
VERTEX
  5
3EA
330
3CD
100
AcDbEntity
  8
E98321
100
AcDbVertex
100
AcDb2dVertex
 10
1102.061786319311
 20
910.0046386718752
 30
0.0
  0
VERTEX
  5
3EB
330
3CD
100
AcDbEntity
  8
E98321
100
AcDbVertex
100
AcDb2dVertex
 10
1102.133807803686
 20
910.0888671875002
 30
0.0
  0
VERTEX
  5
3EC
330
3CD
100
AcDbEntity
  8
E98321
100
AcDbVertex
100
AcDb2dVertex
 10
1102.208270694311
 20
910.1706542968752
 30
0.0
  0
VERTEX
  5
3ED
330
3CD
100
AcDbEntity
  8
E98321
100
AcDbVertex
100
AcDb2dVertex
 10
1102.285174991186
 20
910.2500000000002
 30
0.0
  0
VERTEX
  5
3EE
330
3CD
100
AcDbEntity
  8
E98321
100
AcDbVertex
100
AcDb2dVertex
 10
1102.364520694311
 20
910.3269042968752
 30
0.0
  0
VERTEX
  5
3EF
330
3CD
100
AcDbEntity
  8
E98321
100
AcDbVertex
100
AcDb2dVertex
 10
1102.446307803686
 20
910.4013671875002
 30
0.0
  0
VERTEX
  5
3F0
330
3CD
100
AcDbEntity
  8
E98321
100
AcDbVertex
100
AcDb2dVertex
 10
1102.530536319311
 20
910.4733886718752
 30
0.0
  0
VERTEX
  5
3F1
330
3CD
100
AcDbEntity
  8
E98321
100
AcDbVertex
100
AcDb2dVertex
 10
1102.617206241186
 20
910.5429687500002
 30
0.0
  0
VERTEX
  5
3F2
330
3CD
100
AcDbEntity
  8
E98321
100
AcDbVertex
100
AcDb2dVertex
 10
1102.706317569311
 20
910.6101074218752
 30
0.0
  0
VERTEX
  5
3F3
330
3CD
100
AcDbEntity
  8
E98321
100
AcDbVertex
100
AcDb2dVertex
 10
1102.797870303686
 20
910.6748046875002
 30
0.0
  0
VERTEX
  5
3F4
330
3CD
100
AcDbEntity
  8
E98321
100
AcDbVertex
100
AcDb2dVertex
 10
1102.891864444311
 20
910.7370605468752
 30
0.0
  0
VERTEX
  5
3F5
330
3CD
100
AcDbEntity
  8
E98321
100
AcDbVertex
100
AcDb2dVertex
 10
1102.988299991186
 20
910.7968750000002
 30
0.0
  0
VERTEX
  5
3F6
330
3CD
100
AcDbEntity
  8
E98321
100
AcDbVertex
100
AcDb2dVertex
 10
1103.087176944311
 20
910.8542480468752
 30
0.0
  0
VERTEX
  5
3F7
330
3CD
100
AcDbEntity
  8
E98321
100
AcDbVertex
100
AcDb2dVertex
 10
1103.188495303686
 20
910.9091796875002
 30
0.0
  0
VERTEX
  5
3F8
330
3CD
100
AcDbEntity
  8
E98321
100
AcDbVertex
100
AcDb2dVertex
 10
1103.292255069311
 20
910.9616699218752
 30
0.0
  0
VERTEX
  5
3F9
330
3CD
100
AcDbEntity
  8
E98321
100
AcDbVertex
100
AcDb2dVertex
 10
1103.398456241186
 20
911.0117187500002
 30
0.0
  0
VERTEX
  5
3FA
330
3CD
100
AcDbEntity
  8
E98321
100
AcDbVertex
100
AcDb2dVertex
 10
1103.507098819311
 20
911.0593261718752
 30
0.0
  0
VERTEX
  5
3FB
330
3CD
100
AcDbEntity
  8
E98321
100
AcDbVertex
100
AcDb2dVertex
 10
1103.618182803686
 20
911.1044921875002
 30
0.0
  0
VERTEX
  5
3FC
330
3CD
100
AcDbEntity
  8
E98321
100
AcDbVertex
100
AcDb2dVertex
 10
1103.731708194311
 20
911.1472167968752
 30
0.0
  0
VERTEX
  5
3FD
330
3CD
100
AcDbEntity
  8
E98321
100
AcDbVertex
100
AcDb2dVertex
 10
1103.847674991186
 20
911.1875000000002
 30
0.0
  0
VERTEX
  5
3FE
330
3CD
100
AcDbEntity
  8
E98321
100
AcDbVertex
100
AcDb2dVertex
 10
1103.966083194311
 20
911.2253417968752
 30
0.0
  0
VERTEX
  5
3FF
330
3CD
100
AcDbEntity
  8
E98321
100
AcDbVertex
100
AcDb2dVertex
 10
1104.086932803686
 20
911.2607421875002
 30
0.0
  0
VERTEX
  5
400
330
3CD
100
AcDbEntity
  8
E98321
100
AcDbVertex
100
AcDb2dVertex
 10
1104.210223819311
 20
911.2937011718752
 30
0.0
  0
VERTEX
  5
401
330
3CD
100
AcDbEntity
  8
E98321
100
AcDbVertex
100
AcDb2dVertex
 10
1104.335956241186
 20
911.3242187500002
 30
0.0
  0
VERTEX
  5
402
330
3CD
100
AcDbEntity
  8
E98321
100
AcDbVertex
100
AcDb2dVertex
 10
1104.464130069311
 20
911.3522949218752
 30
0.0
  0
VERTEX
  5
403
330
3CD
100
AcDbEntity
  8
E98321
100
AcDbVertex
100
AcDb2dVertex
 10
1104.594745303686
 20
911.3779296875002
 30
0.0
  0
VERTEX
  5
404
330
3CD
100
AcDbEntity
  8
E98321
100
AcDbVertex
100
AcDb2dVertex
 10
1104.727801944311
 20
911.4011230468752
 30
0.0
  0
VERTEX
  5
405
330
3CD
100
AcDbEntity
  8
E98321
100
AcDbVertex
100
AcDb2dVertex
 10
1104.863299991186
 20
911.4218750000002
 30
0.0
  0
VERTEX
  5
406
330
3CD
100
AcDbEntity
  8
E98321
100
AcDbVertex
100
AcDb2dVertex
 10
1105.001239444311
 20
911.4401855468752
 30
0.0
  0
VERTEX
  5
407
330
3CD
100
AcDbEntity
  8
E98321
100
AcDbVertex
100
AcDb2dVertex
 10
1105.141620303686
 20
911.4560546875002
 30
0.0
  0
VERTEX
  5
408
330
3CD
100
AcDbEntity
  8
E98321
100
AcDbVertex
100
AcDb2dVertex
 10
1105.284442569311
 20
911.4694824218752
 30
0.0
  0
VERTEX
  5
409
330
3CD
100
AcDbEntity
  8
E98321
100
AcDbVertex
100
AcDb2dVertex
 10
1105.429706241186
 20
911.4804687500002
 30
0.0
  0
VERTEX
  5
40A
330
3CD
100
AcDbEntity
  8
E98321
100
AcDbVertex
100
AcDb2dVertex
 10
1105.727557803686
 20
911.4951171875002
 30
0.0
  0
VERTEX
  5
40B
330
3CD
100
AcDbEntity
  8
E98321
100
AcDbVertex
100
AcDb2dVertex
 10
1106.035174991186
 20
911.5000000000002
 30
0.0
  0
VERTEX
  5
40C
330
3CD
100
AcDbEntity
  8
E98321
100
AcDbVertex
100
AcDb2dVertex
 10
1107.035174991186
 20
911.5000000000002
 30
0.0
  0
VERTEX
  5
40D
330
3CD
100
AcDbEntity
  8
E98321
100
AcDbVertex
100
AcDb2dVertex
 10
1107.235174991185
 20
911.3000000000002
 30
0.0
  0
SEQEND
  5
40E
330
3CD
100
AcDbEntity
  8
E98321
  0
POLYLINE
  5
40F
330
1F
100
AcDbEntity
  8
E98321
100
AcDb2dPolyline
 66
     1
 10
0.0
 20
0.0
 30
0.0
  0
VERTEX
  5
410
330
40F
100
AcDbEntity
  8
E98321
100
AcDbVertex
100
AcDb2dVertex
 10
1124.835174991185
 20
911.3000000000002
 30
0.0
  0
VERTEX
  5
411
330
40F
100
AcDbEntity
  8
E98321
100
AcDbVertex
100
AcDb2dVertex
 10
1125.035174991186
 20
911.5000000000002
 30
0.0
  0
VERTEX
  5
412
330
40F
100
AcDbEntity
  8
E98321
100
AcDbVertex
100
AcDb2dVertex
 10
1126.035174991186
 20
911.5000000000002
 30
0.0
  0
VERTEX
  5
413
330
40F
100
AcDbEntity
  8
E98321
100
AcDbVertex
100
AcDb2dVertex
 10
1126.310777238373
 20
911.4960937500002
 30
0.0
  0
VERTEX
  5
414
330
40F
100
AcDbEntity
  8
E98321
100
AcDbVertex
100
AcDb2dVertex
 10
1126.57856698556
 20
911.4843750000002
 30
0.0
  0
VERTEX
  5
415
330
40F
100
AcDbEntity
  8
E98321
100
AcDbVertex
100
AcDb2dVertex
 10
1126.838544232748
 20
911.4648437500002
 30
0.0
  0
VERTEX
  5
416
330
40F
100
AcDbEntity
  8
E98321
100
AcDbVertex
100
AcDb2dVertex
 10
1127.090708979935
 20
911.4375000000002
 30
0.0
  0
VERTEX
  5
417
330
40F
100
AcDbEntity
  8
E98321
100
AcDbVertex
100
AcDb2dVertex
 10
1127.213861666029
 20
911.4208984375002
 30
0.0
  0
VERTEX
  5
418
330
40F
100
AcDbEntity
  8
E98321
100
AcDbVertex
100
AcDb2dVertex
 10
1127.335061227123
 20
911.4023437500002
 30
0.0
  0
VERTEX
  5
419
330
40F
100
AcDbEntity
  8
E98321
100
AcDbVertex
100
AcDb2dVertex
 10
1127.454307663217
 20
911.3818359375002
 30
0.0
  0
VERTEX
  5
41A
330
40F
100
AcDbEntity
  8
E98321
100
AcDbVertex
100
AcDb2dVertex
 10
1127.571600974311
 20
911.3593750000002
 30
0.0
  0
VERTEX
  5
41B
330
40F
100
AcDbEntity
  8
E98321
100
AcDbVertex
100
AcDb2dVertex
 10
1127.686941160404
 20
911.3349609375002
 30
0.0
  0
VERTEX
  5
41C
330
40F
100
AcDbEntity
  8
E98321
100
AcDbVertex
100
AcDb2dVertex
 10
1127.800328221498
 20
911.3085937500002
 30
0.0
  0
VERTEX
  5
41D
330
40F
100
AcDbEntity
  8
E98321
100
AcDbVertex
100
AcDb2dVertex
 10
1127.911762157592
 20
911.2802734375002
 30
0.0
  0
VERTEX
  5
41E
330
40F
100
AcDbEntity
  8
E98321
100
AcDbVertex
100
AcDb2dVertex
 10
1128.021242968685
 20
911.2500000000002
 30
0.0
  0
VERTEX
  5
41F
330
40F
100
AcDbEntity
  8
E98321
100
AcDbVertex
100
AcDb2dVertex
 10
1128.128770654779
 20
911.2177734375002
 30
0.0
  0
VERTEX
  5
420
330
40F
100
AcDbEntity
  8
E98321
100
AcDbVertex
100
AcDb2dVertex
 10
1128.234345215873
 20
911.1835937500002
 30
0.0
  0
VERTEX
  5
421
330
40F
100
AcDbEntity
  8
E98321
100
AcDbVertex
100
AcDb2dVertex
 10
1128.337966651966
 20
911.1474609375002
 30
0.0
  0
VERTEX
  5
422
330
40F
100
AcDbEntity
  8
E98321
100
AcDbVertex
100
AcDb2dVertex
 10
1128.43963496306
 20
911.1093750000002
 30
0.0
  0
VERTEX
  5
423
330
40F
100
AcDbEntity
  8
E98321
100
AcDbVertex
100
AcDb2dVertex
 10
1128.539350149154
 20
911.0693359375002
 30
0.0
  0
VERTEX
  5
424
330
40F
100
AcDbEntity
  8
E98321
100
AcDbVertex
100
AcDb2dVertex
 10
1128.637112210248
 20
911.0273437500002
 30
0.0
  0
VERTEX
  5
425
330
40F
100
AcDbEntity
  8
E98321
100
AcDbVertex
100
AcDb2dVertex
 10
1128.732921146342
 20
910.9833984375002
 30
0.0
  0
VERTEX
  5
426
330
40F
100
AcDbEntity
  8
E98321
100
AcDbVertex
100
AcDb2dVertex
 10
1128.826776957435
 20
910.9375000000002
 30
0.0
  0
VERTEX
  5
427
330
40F
100
AcDbEntity
  8
E98321
100
AcDbVertex
100
AcDb2dVertex
 10
1128.918679643529
 20
910.8896484375002
 30
0.0
  0
VERTEX
  5
428
330
40F
100
AcDbEntity
  8
E98321
100
AcDbVertex
100
AcDb2dVertex
 10
1129.008629204623
 20
910.8398437500002
 30
0.0
  0
VERTEX
  5
429
330
40F
100
AcDbEntity
  8
E98321
100
AcDbVertex
100
AcDb2dVertex
 10
1129.096625640716
 20
910.7880859375002
 30
0.0
  0
VERTEX
  5
42A
330
40F
100
AcDbEntity
  8
E98321
100
AcDbVertex
100
AcDb2dVertex
 10
1129.18266895181
 20
910.7343750000002
 30
0.0
  0
VERTEX
  5
42B
330
40F
100
AcDbEntity
  8
E98321
100
AcDbVertex
100
AcDb2dVertex
 10
1129.266759137904
 20
910.6787109375002
 30
0.0
  0
VERTEX
  5
42C
330
40F
100
AcDbEntity
  8
E98321
100
AcDbVertex
100
AcDb2dVertex
 10
1129.348896198998
 20
910.6210937500002
 30
0.0
  0
VERTEX
  5
42D
330
40F
100
AcDbEntity
  8
E98321
100
AcDbVertex
100
AcDb2dVertex
 10
1129.429080135091
 20
910.5615234375002
 30
0.0
  0
VERTEX
  5
42E
330
40F
100
AcDbEntity
  8
E98321
100
AcDbVertex
100
AcDb2dVertex
 10
1129.507310946185
 20
910.5000000000002
 30
0.0
  0
VERTEX
  5
42F
330
40F
100
AcDbEntity
  8
E98321
100
AcDbVertex
100
AcDb2dVertex
 10
1129.583588632279
 20
910.4365234375002
 30
0.0
  0
VERTEX
  5
430
330
40F
100
AcDbEntity
  8
E98321
100
AcDbVertex
100
AcDb2dVertex
 10
1129.657913193373
 20
910.3710937500002
 30
0.0
  0
VERTEX
  5
431
330
40F
100
AcDbEntity
  8
E98321
100
AcDbVertex
100
AcDb2dVertex
 10
1129.730284629466
 20
910.3037109375002
 30
0.0
  0
VERTEX
  5
432
330
40F
100
AcDbEntity
  8
E98321
100
AcDbVertex
100
AcDb2dVertex
 10
1129.80070294056
 20
910.2343750000002
 30
0.0
  0
VERTEX
  5
433
330
40F
100
AcDbEntity
  8
E98321
100
AcDbVertex
100
AcDb2dVertex
 10
1129.869168126654
 20
910.1630859375002
 30
0.0
  0
VERTEX
  5
434
330
40F
100
AcDbEntity
  8
E98321
100
AcDbVertex
100
AcDb2dVertex
 10
1129.935680187747
 20
910.0898437500002
 30
0.0
  0
VERTEX
  5
435
330
40F
100
AcDbEntity
  8
E98321
100
AcDbVertex
100
AcDb2dVertex
 10
1130.000239123841
 20
910.0146484375002
 30
0.0
  0
VERTEX
  5
436
330
40F
100
AcDbEntity
  8
E98321
100
AcDbVertex
100
AcDb2dVertex
 10
1130.062844934935
 20
909.9375000000002
 30
0.0
  0
VERTEX
  5
437
330
40F
100
AcDbEntity
  8
E98321
100
AcDbVertex
100
AcDb2dVertex
 10
1130.123497621029
 20
909.8583984375002
 30
0.0
  0
VERTEX
  5
438
330
40F
100
AcDbEntity
  8
E98321
100
AcDbVertex
100
AcDb2dVertex
 10
1130.182197182123
 20
909.7773437500002
 30
0.0
  0
VERTEX
  5
439
330
40F
100
AcDbEntity
  8
E98321
100
AcDbVertex
100
AcDb2dVertex
 10
1130.238943618216
 20
909.6943359375002
 30
0.0
  0
VERTEX
  5
43A
330
40F
100
AcDbEntity
  8
E98321
100
AcDbVertex
100
AcDb2dVertex
 10
1130.29373692931
 20
909.6093750000002
 30
0.0
  0
VERTEX
  5
43B
330
40F
100
AcDbEntity
  8
E98321
100
AcDbVertex
100
AcDb2dVertex
 10
1130.346577115404
 20
909.5224609375002
 30
0.0
  0
VERTEX
  5
43C
330
40F
100
AcDbEntity
  8
E98321
100
AcDbVertex
100
AcDb2dVertex
 10
1130.397464176498
 20
909.4335937500002
 30
0.0
  0
VERTEX
  5
43D
330
40F
100
AcDbEntity
  8
E98321
100
AcDbVertex
100
AcDb2dVertex
 10
1130.446398112591
 20
909.3427734375002
 30
0.0
  0
VERTEX
  5
43E
330
40F
100
AcDbEntity
  8
E98321
100
AcDbVertex
100
AcDb2dVertex
 10
1130.493378923685
 20
909.2500000000002
 30
0.0
  0
VERTEX
  5
43F
330
40F
100
AcDbEntity
  8
E98321
100
AcDbVertex
100
AcDb2dVertex
 10
1130.538406609779
 20
909.1552734375002
 30
0.0
  0
VERTEX
  5
440
330
40F
100
AcDbEntity
  8
E98321
100
AcDbVertex
100
AcDb2dVertex
 10
1130.581481170872
 20
909.0585937500002
 30
0.0
  0
VERTEX
  5
441
330
40F
100
AcDbEntity
  8
E98321
100
AcDbVertex
100
AcDb2dVertex
 10
1130.622602606966
 20
908.9599609375002
 30
0.0
  0
VERTEX
  5
442
330
40F
100
AcDbEntity
  8
E98321
100
AcDbVertex
100
AcDb2dVertex
 10
1130.66177091806
 20
908.8593750000002
 30
0.0
  0
VERTEX
  5
443
330
40F
100
AcDbEntity
  8
E98321
100
AcDbVertex
100
AcDb2dVertex
 10
1130.698986104154
 20
908.7568359375002
 30
0.0
  0
VERTEX
  5
444
330
40F
100
AcDbEntity
  8
E98321
100
AcDbVertex
100
AcDb2dVertex
 10
1130.734248165247
 20
908.6523437500002
 30
0.0
  0
VERTEX
  5
445
330
40F
100
AcDbEntity
  8
E98321
100
AcDbVertex
100
AcDb2dVertex
 10
1130.767557101341
 20
908.5458984375002
 30
0.0
  0
VERTEX
  5
446
330
40F
100
AcDbEntity
  8
E98321
100
AcDbVertex
100
AcDb2dVertex
 10
1130.798912912435
 20
908.4375000000002
 30
0.0
  0
VERTEX
  5
447
330
40F
100
AcDbEntity
  8
E98321
100
AcDbVertex
100
AcDb2dVertex
 10
1130.828315598529
 20
908.3271484375002
 30
0.0
  0
VERTEX
  5
448
330
40F
100
AcDbEntity
  8
E98321
100
AcDbVertex
100
AcDb2dVertex
 10
1130.855765159622
 20
908.2148437500002
 30
0.0
  0
VERTEX
  5
449
330
40F
100
AcDbEntity
  8
E98321
100
AcDbVertex
100
AcDb2dVertex
 10
1130.881261595716
 20
908.1005859375002
 30
0.0
  0
VERTEX
  5
44A
330
40F
100
AcDbEntity
  8
E98321
100
AcDbVertex
100
AcDb2dVertex
 10
1130.90480490681
 20
907.9843750000002
 30
0.0
  0
VERTEX
  5
44B
330
40F
100
AcDbEntity
  8
E98321
100
AcDbVertex
100
AcDb2dVertex
 10
1130.926395092903
 20
907.8662109375002
 30
0.0
  0
VERTEX
  5
44C
330
40F
100
AcDbEntity
  8
E98321
100
AcDbVertex
100
AcDb2dVertex
 10
1130.946032153997
 20
907.7460937500002
 30
0.0
  0
VERTEX
  5
44D
330
40F
100
AcDbEntity
  8
E98321
100
AcDbVertex
100
AcDb2dVertex
 10
1130.963716090091
 20
907.6240234375002
 30
0.0
  0
VERTEX
  5
44E
330
40F
100
AcDbEntity
  8
E98321
100
AcDbVertex
100
AcDb2dVertex
 10
1130.979446901185
 20
907.5000000000001
 30
0.0
  0
SEQEND
  5
44F
330
40F
100
AcDbEntity
  8
E98321
  0
CIRCLE
  5
450
330
1F
100
AcDbEntity
  8
Make2D$可见线$普通线
100
AcDbCircle
 10
1116.035174991185
 20
767.5000000000002
 30
0.0
 40
2.0
  0
ENDSEC
  0
SECTION
  2
OBJECTS
  0
DICTIONARY
  5
C
330
0
100
AcDbDictionary
281
     1
  3
ACAD_GROUP
350
D
  3
ACAD_LAYOUT
350
1A
  3
ACAD_MATERIAL
350
3B
  3
ACAD_MLEADERSTYLE
350
47B
  3
ACAD_MLINESTYLE
350
17
  3
ACAD_PLOTSETTINGS
350
19
  3
ACAD_PLOTSTYLENAME
350
E
  3
ACAD_SCALELIST
350
3F
  3
ACAD_TABLESTYLE
350
47A
  3
ACAD_VISUALSTYLE
350
2A
  3
AcDbVariableDictionary
350
451
  0
DICTIONARY
  5
D
102
{ACAD_REACTORS
330
C
102
}
330
C
100
AcDbDictionary
281
     1
  0
DICTIONARY
  5
1A
102
{ACAD_REACTORS
330
C
102
}
330
C
100
AcDbDictionary
281
     1
  3
Layout1
350
1E
  3
Layout2
350
26
  3
Model
350
22
  0
DICTIONARY
  5
3B
102
{ACAD_REACTORS
330
C
102
}
330
C
100
AcDbDictionary
281
     1
  3
ByBlock
350
3D
  3
ByLayer
350
3C
  3
Global
350
3E
  0
DICTIONARY
  5
47B
102
{ACAD_REACTORS
330
C
102
}
330
C
100
AcDbDictionary
281
     1
  0
DICTIONARY
  5
17
102
{ACAD_REACTORS
330
C
102
}
330
C
100
AcDbDictionary
281
     1
  3
Standard
350
18
  0
DICTIONARY
  5
19
102
{ACAD_REACTORS
330
C
102
}
330
C
100
AcDbDictionary
281
     1
  0
ACDBDICTIONARYWDFLT
  5
E
102
{ACAD_REACTORS
330
C
102
}
330
C
100
AcDbDictionary
281
     1
  3
Normal
350
F
100
AcDbDictionaryWithDefault
340
F
  0
DICTIONARY
  5
3F
102
{ACAD_REACTORS
330
C
102
}
330
C
100
AcDbDictionary
281
     1
  3
A0
350
40
  3
A1
350
41
  3
A2
350
42
  3
A3
350
43
  3
A4
350
44
  3
A5
350
45
  3
A6
350
46
  3
A7
350
47
  3
A8
350
48
  3
A9
350
49
  3
B0
350
4A
  3
B1
350
4B
  3
B2
350
4C
  3
B3
350
4D
  3
B4
350
4E
  3
B5
350
4F
  3
B6
350
50
  3
B7
350
51
  3
B8
350
52
  3
B9
350
53
  3
C0
350
54
  3
C1
350
55
  3
C2
350
56
  3
C3
350
57
  3
C4
350
58
  3
C5
350
59
  3
C6
350
5A
  3
C7
350
5B
  3
C8
350
5C
  3
C9
350
5D
  3
D0
350
5E
  3
D1
350
5F
  3
D2
350
60
  0
DICTIONARY
  5
47A
102
{ACAD_REACTORS
330
C
102
}
330
C
100
AcDbDictionary
281
     1
  0
DICTIONARY
  5
2A
102
{ACAD_REACTORS
330
C
102
}
330
C
100
AcDbDictionary
281
     1
  3
2dWireframe
350
2F
  3
3D Hidden
350
31
  3
3dWireframe
350
30
  3
Basic
350
32
  3
Brighten
350
36
  3
ColorChange
350
3A
  3
Conceptual
350
34
  3
Dim
350
35
  3
Facepattern
350
39
  3
Flat
350
2B
  3
FlatWithEdges
350
2C
  3
Gouraud
350
2D
  3
GouraudWithEdges
350
2E
  3
Linepattern
350
38
  3
Realistic
350
33
  3
Thicken
350
37
  0
DICTIONARY
  5
451
102
{ACAD_REACTORS
330
C
102
}
330
C
100
AcDbDictionary
281
     1
  3
CANNOSCALE
350
452
  3
MSLTSCALE
350
453
  0
LAYOUT
  5
1E
102
{ACAD_REACTORS
330
1A
102
}
330
1A
100
AcDbPlotSettings
  1

  2
none_device
  4

  6

 40
0.0
 41
0.0
 42
0.0
 43
0.0
 44
0.0
 45
0.0
 46
0.0
 47
0.0
 48
0.0
 49
0.0
140
0.0
141
0.0
142
1.0
143
1.0
 70
   688
 72
     0
 73
     0
 74
     5
  7

 75
    16
 76
     0
 77
     2
 78
   300
147
1.0
148
0.0
149
0.0
100
AcDbLayout
  1
Layout1
 70
     1
 71
     1
 10
0.0
 20
0.0
 11
12.0
 21
9.0
 12
0.0
 22
0.0
 32
0.0
 14
1.000000000000000E+20
 24
1.000000000000000E+20
 34
1.000000000000000E+20
 15
-1.000000000000000E+20
 25
-1.000000000000000E+20
 35
-1.000000000000000E+20
146
0.0
 13
0.0
 23
0.0
 33
0.0
 16
1.0
 26
0.0
 36
0.0
 17
0.0
 27
1.0
 37
0.0
 76
     0
330
1B
  0
LAYOUT
  5
26
102
{ACAD_REACTORS
330
1A
102
}
330
1A
100
AcDbPlotSettings
  1

  2
none_device
  4

  6

 40
0.0
 41
0.0
 42
0.0
 43
0.0
 44
0.0
 45
0.0
 46
0.0
 47
0.0
 48
0.0
 49
0.0
140
0.0
141
0.0
142
1.0
143
1.0
 70
   688
 72
     0
 73
     0
 74
     5
  7

 75
    16
 76
     0
 77
     2
 78
   300
147
1.0
148
0.0
149
0.0
100
AcDbLayout
  1
Layout2
 70
     1
 71
     2
 10
0.0
 20
0.0
 11
0.0
 21
0.0
 12
0.0
 22
0.0
 32
0.0
 14
0.0
 24
0.0
 34
0.0
 15
0.0
 25
0.0
 35
0.0
146
0.0
 13
0.0
 23
0.0
 33
0.0
 16
1.0
 26
0.0
 36
0.0
 17
0.0
 27
1.0
 37
0.0
 76
     0
330
23
  0
LAYOUT
  5
22
102
{ACAD_REACTORS
330
1A
102
}
330
1A
100
AcDbPlotSettings
  1

  2
none_device
  4
Letter_(8.50_x_11.00_Inches)
  6

 40
6.35
 41
6.35
 42
6.35000508
 43
6.35000508
 44
215.9
 45
279.4
 46
0.0
 47
0.0
 48
0.0
 49
0.0
140
0.0
141
0.0
142
1.0
143
1.0
 70
  1712
 72
     0
 73
     0
 74
     0
  7

 75
     0
 76
     0
 77
     2
 78
   300
147
1.0
148
0.0
149
0.0
100
AcDbLayout
  1
Model
 70
     1
 71
     0
 10
0.0
 20
0.0
 11
12.0
 21
9.0
 12
0.0
 22
0.0
 32
0.0
 14
1008.035174991185
 24
726.9999999978494
 34
0.0
 15
1631.035174991185
 25
1129.400013142411
 35
0.0
146
0.0
 13
0.0
 23
0.0
 33
0.0
 16
1.0
 26
0.0
 36
0.0
 17
0.0
 27
1.0
 37
0.0
 76
     0
330
1F
331
29
  0
MATERIAL
  5
3D
102
{ACAD_REACTORS
330
3B
102
}
102
{ACAD_XDICTIONARY
360
476
102
}
330
3B
100
AcDbMaterial
  1
ByBlock
  0
MATERIAL
  5
3C
102
{ACAD_REACTORS
330
3B
102
}
102
{ACAD_XDICTIONARY
360
474
102
}
330
3B
100
AcDbMaterial
  1
ByLayer
  0
MATERIAL
  5
3E
102
{ACAD_REACTORS
330
3B
102
}
102
{ACAD_XDICTIONARY
360
478
102
}
330
3B
100
AcDbMaterial
  1
Global
  0
MLINESTYLE
  5
18
102
{ACAD_REACTORS
330
17
102
}
330
17
100
AcDbMlineStyle
  2
Standard
 70
     0
  3

 62
   256
 51
90.0
 52
90.0
 71
     2
 49
0.5
 62
   256
  6
BYLAYER
 49
-0.5
 62
   256
  6
BYLAYER
  0
ACDBPLACEHOLDER
  5
F
102
{ACAD_REACTORS
330
E
102
}
330
E
  0
SCALE
  5
40
102
{ACAD_REACTORS
330
3F
102
}
330
3F
100
AcDbScale
 70
     0
300
1:1
140
1.0
141
1.0
290
     1
  0
SCALE
  5
41
102
{ACAD_REACTORS
330
3F
102
}
330
3F
100
AcDbScale
 70
     0
300
1:2
140
1.0
141
2.0
290
     0
  0
SCALE
  5
42
102
{ACAD_REACTORS
330
3F
102
}
330
3F
100
AcDbScale
 70
     0
300
1:4
140
1.0
141
4.0
290
     0
  0
SCALE
  5
43
102
{ACAD_REACTORS
330
3F
102
}
330
3F
100
AcDbScale
 70
     0
300
1:5
140
1.0
141
5.0
290
     0
  0
SCALE
  5
44
102
{ACAD_REACTORS
330
3F
102
}
330
3F
100
AcDbScale
 70
     0
300
1:8
140
1.0
141
8.0
290
     0
  0
SCALE
  5
45
102
{ACAD_REACTORS
330
3F
102
}
330
3F
100
AcDbScale
 70
     0
300
1:10
140
1.0
141
10.0
290
     0
  0
SCALE
  5
46
102
{ACAD_REACTORS
330
3F
102
}
330
3F
100
AcDbScale
 70
     0
300
1:16
140
1.0
141
16.0
290
     0
  0
SCALE
  5
47
102
{ACAD_REACTORS
330
3F
102
}
330
3F
100
AcDbScale
 70
     0
300
1:20
140
1.0
141
20.0
290
     0
  0
SCALE
  5
48
102
{ACAD_REACTORS
330
3F
102
}
330
3F
100
AcDbScale
 70
     0
300
1:30
140
1.0
141
30.0
290
     0
  0
SCALE
  5
49
102
{ACAD_REACTORS
330
3F
102
}
330
3F
100
AcDbScale
 70
     0
300
1:40
140
1.0
141
40.0
290
     0
  0
SCALE
  5
4A
102
{ACAD_REACTORS
330
3F
102
}
330
3F
100
AcDbScale
 70
     0
300
1:50
140
1.0
141
50.0
290
     0
  0
SCALE
  5
4B
102
{ACAD_REACTORS
330
3F
102
}
330
3F
100
AcDbScale
 70
     0
300
1:100
140
1.0
141
100.0
290
     0
  0
SCALE
  5
4C
102
{ACAD_REACTORS
330
3F
102
}
330
3F
100
AcDbScale
 70
     0
300
2:1
140
2.0
141
1.0
290
     0
  0
SCALE
  5
4D
102
{ACAD_REACTORS
330
3F
102
}
330
3F
100
AcDbScale
 70
     0
300
4:1
140
4.0
141
1.0
290
     0
  0
SCALE
  5
4E
102
{ACAD_REACTORS
330
3F
102
}
330
3F
100
AcDbScale
 70
     0
300
8:1
140
8.0
141
1.0
290
     0
  0
SCALE
  5
4F
102
{ACAD_REACTORS
330
3F
102
}
330
3F
100
AcDbScale
 70
     0
300
10:1
140
10.0
141
1.0
290
     0
  0
SCALE
  5
50
102
{ACAD_REACTORS
330
3F
102
}
330
3F
100
AcDbScale
 70
     0
300
100:1
140
100.0
141
1.0
290
     0
  0
SCALE
  5
51
102
{ACAD_REACTORS
330
3F
102
}
330
3F
100
AcDbScale
 70
     0
300
1/128" = 1'-0"
140
0.0078125
141
12.0
290
     0
  0
SCALE
  5
52
102
{ACAD_REACTORS
330
3F
102
}
330
3F
100
AcDbScale
 70
     0
300
1/64" = 1'-0"
140
0.015625
141
12.0
290
     0
  0
SCALE
  5
53
102
{ACAD_REACTORS
330
3F
102
}
330
3F
100
AcDbScale
 70
     0
300
1/32" = 1'-0"
140
0.03125
141
12.0
290
     0
  0
SCALE
  5
54
102
{ACAD_REACTORS
330
3F
102
}
330
3F
100
AcDbScale
 70
     0
300
1/16" = 1'-0"
140
0.0625
141
12.0
290
     0
  0
SCALE
  5
55
102
{ACAD_REACTORS
330
3F
102
}
330
3F
100
AcDbScale
 70
     0
300
3/32" = 1'-0"
140
0.09375
141
12.0
290
     0
  0
SCALE
  5
56
102
{ACAD_REACTORS
330
3F
102
}
330
3F
100
AcDbScale
 70
     0
300
1/8" = 1'-0"
140
0.125
141
12.0
290
     0
  0
SCALE
  5
57
102
{ACAD_REACTORS
330
3F
102
}
330
3F
100
AcDbScale
 70
     0
300
3/16" = 1'-0"
140
0.1875
141
12.0
290
     0
  0
SCALE
  5
58
102
{ACAD_REACTORS
330
3F
102
}
330
3F
100
AcDbScale
 70
     0
300
1/4" = 1'-0"
140
0.25
141
12.0
290
     0
  0
SCALE
  5
59
102
{ACAD_REACTORS
330
3F
102
}
330
3F
100
AcDbScale
 70
     0
300
3/8" = 1'-0"
140
0.375
141
12.0
290
     0
  0
SCALE
  5
5A
102
{ACAD_REACTORS
330
3F
102
}
330
3F
100
AcDbScale
 70
     0
300
1/2" = 1'-0"
140
0.5
141
12.0
290
     0
  0
SCALE
  5
5B
102
{ACAD_REACTORS
330
3F
102
}
330
3F
100
AcDbScale
 70
     0
300
3/4" = 1'-0"
140
0.75
141
12.0
290
     0
  0
SCALE
  5
5C
102
{ACAD_REACTORS
330
3F
102
}
330
3F
100
AcDbScale
 70
     0
300
1" = 1'-0"
140
1.0
141
12.0
290
     0
  0
SCALE
  5
5D
102
{ACAD_REACTORS
330
3F
102
}
330
3F
100
AcDbScale
 70
     0
300
1-1/2" = 1'-0"
140
1.5
141
12.0
290
     0
  0
SCALE
  5
5E
102
{ACAD_REACTORS
330
3F
102
}
330
3F
100
AcDbScale
 70
     0
300
3" = 1'-0"
140
3.0
141
12.0
290
     0
  0
SCALE
  5
5F
102
{ACAD_REACTORS
330
3F
102
}
330
3F
100
AcDbScale
 70
     0
300
6" = 1'-0"
140
6.0
141
12.0
290
     0
  0
SCALE
  5
60
102
{ACAD_REACTORS
330
3F
102
}
330
3F
100
AcDbScale
 70
     0
300
1'-0" = 1'-0"
140
12.0
141
12.0
290
     0
  0
VISUALSTYLE
  5
2F
102
{ACAD_REACTORS
330
2A
102
}
102
{ACAD_XDICTIONARY
360
45C
102
}
330
2A
100
AcDbVisualStyle
  2
2dWireframe
 70
     4
 71
     0
 72
     2
 73
     0
 90
        0
 40
0.6
 41
30.0
 62
     5
 63
     7
421
 16777215
 74
     1
 91
        4
 64
     7
 65
   257
 75
     1
175
     1
 42
1.0
 92
        0
 66
   257
 43
1.0
 76
     1
 77
     6
 78
     2
 67
     7
 79
     5
170
     0
171
     0
290
     0
174
     0
 93
        1
 44
0.0
173
     0
291
     0
 45
0.0
1001
ACAD
1000
AcDbSavedByObjectVersion
1070
     0
  0
VISUALSTYLE
  5
31
102
{ACAD_REACTORS
330
2A
102
}
102
{ACAD_XDICTIONARY
360
460
102
}
330
2A
100
AcDbVisualStyle
  2
3D Hidden
 70
     6
 71
     1
 72
     2
 73
     2
 90
        0
 40
0.6
 41
30.0
 62
     5
 63
     7
421
 16777215
 74
     2
 91
        2
 64
     7
 65
   257
 75
     2
175
     1
 42
40.0
 92
        0
 66
   257
 43
1.0
 76
     1
 77
     6
 78
     2
 67
     7
 79
     3
170
     0
171
     0
290
     0
174
     0
 93
        1
 44
0.0
173
     0
291
     0
 45
0.0
1001
ACAD
1000
AcDbSavedByObjectVersion
1070
     0
  0
VISUALSTYLE
  5
30
102
{ACAD_REACTORS
330
2A
102
}
102
{ACAD_XDICTIONARY
360
45E
102
}
330
2A
100
AcDbVisualStyle
  2
3dWireframe
 70
     5
 71
     0
 72
     2
 73
     0
 90
        0
 40
0.6
 41
30.0
 62
     5
 63
     7
421
 16777215
 74
     1
 91
        4
 64
     7
 65
   257
 75
     1
175
     1
 42
1.0
 92
        0
 66
   257
 43
1.0
 76
     1
 77
     6
 78
     2
 67
     7
 79
     5
170
     0
171
     0
290
     0
174
     0
 93
        1
 44
0.0
173
     0
291
     0
 45
0.0
1001
ACAD
1000
AcDbSavedByObjectVersion
1070
     0
  0
VISUALSTYLE
  5
32
102
{ACAD_REACTORS
330
2A
102
}
102
{ACAD_XDICTIONARY
360
462
102
}
330
2A
100
AcDbVisualStyle
  2
Basic
 70
     7
 71
     1
 72
     0
 73
     1
 90
        0
 40
0.6
 41
30.0
 62
     5
 63
     7
421
 16777215
 74
     0
 91
        4
 64
     7
 65
   257
 75
     1
175
     1
 42
1.0
 92
        8
 66
     7
 43
1.0
 76
     1
 77
     6
 78
     2
 67
     7
 79
     5
170
     0
171
     0
290
     0
174
     0
 93
        1
 44
0.0
173
     0
291
     1
 45
0.0
1001
ACAD
1000
AcDbSavedByObjectVersion
1070
     0
  0
VISUALSTYLE
  5
36
102
{ACAD_REACTORS
330
2A
102
}
102
{ACAD_XDICTIONARY
360
46A
102
}
330
2A
100
AcDbVisualStyle
  2
Brighten
 70
    12
 71
     2
 72
     2
 73
     0
 90
        0
 40
0.6
 41
30.0
 62
     5
 63
     7
421
 16777215
 74
     1
 91
        4
 64
     7
 65
   257
 75
     1
175
     1
 42
1.0
 92
        8
 66
     7
 43
1.0
 76
     1
 77
     6
 78
     2
 67
     7
 79
     5
170
     0
171
     0
290
     0
174
     0
 93
        1
 44
50.0
173
     0
291
     1
 45
0.0
1001
ACAD
1000
AcDbSavedByObjectVersion
1070
     0
  0
VISUALSTYLE
  5
3A
102
{ACAD_REACTORS
330
2A
102
}
102
{ACAD_XDICTIONARY
360
472
102
}
330
2A
100
AcDbVisualStyle
  2
ColorChange
 70
    16
 71
     2
 72
     2
 73
     3
 90
        0
 40
0.6
 41
30.0
 62
     5
 63
     8
421
  8421504
 74
     1
 91
        4
 64
     7
 65
   257
 75
     1
175
     1
 42
1.0
 92
        8
 66
     8
424
  8421504
 43
1.0
 76
     1
 77
     6
 78
     2
 67
     7
 79
     5
170
     0
171
     0
290
     0
174
     0
 93
        1
 44
0.0
173
     0
291
     1
 45
0.0
1001
ACAD
1000
AcDbSavedByObjectVersion
1070
     0
  0
VISUALSTYLE
  5
34
102
{ACAD_REACTORS
330
2A
102
}
102
{ACAD_XDICTIONARY
360
466
102
}
330
2A
100
AcDbVisualStyle
  2
Conceptual
 70
     9
 71
     3
 72
     2
 73
     0
 90
        0
 40
0.6
 41
30.0
 62
     5
 63
     7
421
 16777215
 74
     2
 91
        2
 64
     7
 65
   257
 75
     1
175
     1
 42
40.0
 92
        8
 66
     7
 43
1.0
 76
     1
 77
     6
 78
     2
 67
     7
 79
     3
170
     0
171
     0
290
     0
174
     0
 93
        1
 44
0.0
173
     0
291
     0
 45
0.0
1001
ACAD
1000
AcDbSavedByObjectVersion
1070
     0
  0
VISUALSTYLE
  5
35
102
{ACAD_REACTORS
330
2A
102
}
102
{ACAD_XDICTIONARY
360
468
102
}
330
2A
100
AcDbVisualStyle
  2
Dim
 70
    11
 71
     2
 72
     2
 73
     0
 90
        0
 40
0.6
 41
30.0
 62
     5
 63
     7
421
 16777215
 74
     1
 91
        4
 64
     7
 65
   257
 75
     1
175
     1
 42
1.0
 92
        8
 66
     7
 43
1.0
 76
     1
 77
     6
 78
     2
 67
     7
 79
     5
170
     0
171
     0
290
     0
174
     0
 93
        1
 44
-50.0
173
     0
291
     1
 45
0.0
1001
ACAD
1000
AcDbSavedByObjectVersion
1070
     0
  0
VISUALSTYLE
  5
39
102
{ACAD_REACTORS
330
2A
102
}
102
{ACAD_XDICTIONARY
360
470
102
}
330
2A
100
AcDbVisualStyle
  2
Facepattern
 70
    15
 71
     2
 72
     2
 73
     0
 90
        0
 40
0.6
 41
30.0
 62
     5
 63
     7
421
 16777215
 74
     1
 91
        4
 64
     7
 65
   257
 75
     1
175
     1
 42
1.0
 92
        8
 66
     7
 43
1.0
 76
     1
 77
     6
 78
     2
 67
     7
 79
     5
170
     0
171
     0
290
     0
174
     0
 93
        1
 44
0.0
173
     0
291
     1
 45
0.0
1001
ACAD
1000
AcDbSavedByObjectVersion
1070
     0
  0
VISUALSTYLE
  5
2B
102
{ACAD_REACTORS
330
2A
102
}
102
{ACAD_XDICTIONARY
360
454
102
}
330
2A
100
AcDbVisualStyle
  2
Flat
 70
     0
 71
     2
 72
     1
 73
     1
 90
        2
 40
0.6
 41
30.0
 62
     5
 63
     7
421
 16777215
 74
     0
 91
        4
 64
     7
 65
   257
 75
     1
175
     1
 42
1.0
 92
        8
 66
     7
 43
1.0
 76
     1
 77
     6
 78
     2
 67
     7
 79
     5
170
     0
171
     0
290
     0
174
     0
 93
       13
 44
0.0
173
     0
291
     1
 45
0.0
1001
ACAD
1000
AcDbSavedByObjectVersion
1070
     0
  0
VISUALSTYLE
  5
2C
102
{ACAD_REACTORS
330
2A
102
}
102
{ACAD_XDICTIONARY
360
456
102
}
330
2A
100
AcDbVisualStyle
  2
FlatWithEdges
 70
     1
 71
     2
 72
     1
 73
     1
 90
        2
 40
0.6
 41
30.0
 62
     5
 63
     7
421
 16777215
 74
     1
 91
        4
 64
     7
 65
   257
 75
     1
175
     1
 42
1.0
 92
        0
 66
   257
 43
1.0
 76
     1
 77
     6
 78
     2
 67
     7
 79
     5
170
     0
171
     0
290
     0
174
     0
 93
       13
 44
0.0
173
     0
291
     1
 45
0.0
1001
ACAD
1000
AcDbSavedByObjectVersion
1070
     0
  0
VISUALSTYLE
  5
2D
102
{ACAD_REACTORS
330
2A
102
}
102
{ACAD_XDICTIONARY
360
458
102
}
330
2A
100
AcDbVisualStyle
  2
Gouraud
 70
     2
 71
     2
 72
     2
 73
     1
 90
        2
 40
0.6
 41
30.0
 62
     5
 63
     7
421
 16777215
 74
     0
 91
        4
 64
     7
 65
   257
 75
     1
175
     1
 42
1.0
 92
        0
 66
     7
 43
1.0
 76
     1
 77
     6
 78
     2
 67
     7
 79
     5
170
     0
171
     0
290
     0
174
     0
 93
       13
 44
0.0
173
     0
291
     1
 45
0.0
1001
ACAD
1000
AcDbSavedByObjectVersion
1070
     0
  0
VISUALSTYLE
  5
2E
102
{ACAD_REACTORS
330
2A
102
}
102
{ACAD_XDICTIONARY
360
45A
102
}
330
2A
100
AcDbVisualStyle
  2
GouraudWithEdges
 70
     3
 71
     2
 72
     2
 73
     1
 90
        2
 40
0.6
 41
30.0
 62
     5
 63
     7
421
 16777215
 74
     1
 91
        4
 64
     7
 65
   257
 75
     1
175
     1
 42
1.0
 92
        0
 66
   257
 43
1.0
 76
     1
 77
     6
 78
     2
 67
     7
 79
     5
170
     0
171
     0
290
     0
174
     0
 93
       13
 44
0.0
173
     0
291
     1
 45
0.0
1001
ACAD
1000
AcDbSavedByObjectVersion
1070
     0
  0
VISUALSTYLE
  5
38
102
{ACAD_REACTORS
330
2A
102
}
102
{ACAD_XDICTIONARY
360
46E
102
}
330
2A
100
AcDbVisualStyle
  2
Linepattern
 70
    14
 71
     2
 72
     2
 73
     0
 90
        0
 40
0.6
 41
30.0
 62
     5
 63
     7
421
 16777215
 74
     1
 91
        4
 64
     7
 65
   257
 75
     7
175
     7
 42
1.0
 92
        8
 66
     7
 43
1.0
 76
     1
 77
     6
 78
     2
 67
     7
 79
     5
170
     0
171
     0
290
     0
174
     0
 93
        1
 44
0.0
173
     0
291
     1
 45
0.0
1001
ACAD
1000
AcDbSavedByObjectVersion
1070
     0
  0
VISUALSTYLE
  5
33
102
{ACAD_REACTORS
330
2A
102
}
102
{ACAD_XDICTIONARY
360
464
102
}
330
2A
100
AcDbVisualStyle
  2
Realistic
 70
     8
 71
     2
 72
     3
 73
     0
 90
        2
 40
0.6
 41
30.0
 62
     5
 63
     7
421
 16777215
 74
     0
 91
        0
 64
     7
 65
   257
 75
     1
175
     1
 42
1.0
 92
        8
 66
   257
 43
1.0
 76
     1
 77
     6
 78
     2
 67
     7
 79
     3
170
     0
171
     0
290
     0
174
     0
 93
       13
 44
0.0
173
     0
291
     0
 45
0.0
1001
ACAD
1000
AcDbSavedByObjectVersion
1070
     0
  0
VISUALSTYLE
  5
37
102
{ACAD_REACTORS
330
2A
102
}
102
{ACAD_XDICTIONARY
360
46C
102
}
330
2A
100
AcDbVisualStyle
  2
Thicken
 70
    13
 71
     2
 72
     2
 73
     0
 90
        0
 40
0.6
 41
30.0
 62
     5
 63
     7
421
 16777215
 74
     1
 91
        4
 64
     7
 65
   257
 75
     1
175
     1
 42
1.0
 92
       12
 66
     7
 43
1.0
 76
     1
 77
     6
 78
     2
 67
     7
 79
     5
170
     0
171
     0
290
     0
174
     0
 93
        1
 44
0.0
173
     0
291
     1
 45
0.0
1001
ACAD
1000
AcDbSavedByObjectVersion
1070
     0
  0
DICTIONARYVAR
  5
452
102
{ACAD_REACTORS
330
451
102
}
330
451
100
DictionaryVariables
280
     0
  1
1:1
  0
DICTIONARYVAR
  5
453
102
{ACAD_REACTORS
330
451
102
}
330
451
100
DictionaryVariables
280
     0
  1
1
  0
DICTIONARY
  5
476
330
3D
100
AcDbDictionary
280
     1
281
     1
  3
ACAD_XREC_ROUNDTRIP
360
477
  0
DICTIONARY
  5
474
330
3C
100
AcDbDictionary
280
     1
281
     1
  3
ACAD_XREC_ROUNDTRIP
360
475
  0
DICTIONARY
  5
478
330
3E
100
AcDbDictionary
280
     1
281
     1
  3
ACAD_XREC_ROUNDTRIP
360
479
  0
DICTIONARY
  5
45C
330
2F
100
AcDbDictionary
280
     1
281
     1
  3
ACAD_XREC_ROUNDTRIP
360
45D
  0
DICTIONARY
  5
460
330
31
100
AcDbDictionary
280
     1
281
     1
  3
ACAD_XREC_ROUNDTRIP
360
461
  0
DICTIONARY
  5
45E
330
30
100
AcDbDictionary
280
     1
281
     1
  3
ACAD_XREC_ROUNDTRIP
360
45F
  0
DICTIONARY
  5
462
330
32
100
AcDbDictionary
280
     1
281
     1
  3
ACAD_XREC_ROUNDTRIP
360
463
  0
DICTIONARY
  5
46A
330
36
100
AcDbDictionary
280
     1
281
     1
  3
ACAD_XREC_ROUNDTRIP
360
46B
  0
DICTIONARY
  5
472
330
3A
100
AcDbDictionary
280
     1
281
     1
  3
ACAD_XREC_ROUNDTRIP
360
473
  0
DICTIONARY
  5
466
330
34
100
AcDbDictionary
280
     1
281
     1
  3
ACAD_XREC_ROUNDTRIP
360
467
  0
DICTIONARY
  5
468
330
35
100
AcDbDictionary
280
     1
281
     1
  3
ACAD_XREC_ROUNDTRIP
360
469
  0
DICTIONARY
  5
470
330
39
100
AcDbDictionary
280
     1
281
     1
  3
ACAD_XREC_ROUNDTRIP
360
471
  0
DICTIONARY
  5
454
330
2B
100
AcDbDictionary
280
     1
281
     1
  3
ACAD_XREC_ROUNDTRIP
360
455
  0
DICTIONARY
  5
456
330
2C
100
AcDbDictionary
280
     1
281
     1
  3
ACAD_XREC_ROUNDTRIP
360
457
  0
DICTIONARY
  5
458
330
2D
100
AcDbDictionary
280
     1
281
     1
  3
ACAD_XREC_ROUNDTRIP
360
459
  0
DICTIONARY
  5
45A
330
2E
100
AcDbDictionary
280
     1
281
     1
  3
ACAD_XREC_ROUNDTRIP
360
45B
  0
DICTIONARY
  5
46E
330
38
100
AcDbDictionary
280
     1
281
     1
  3
ACAD_XREC_ROUNDTRIP
360
46F
  0
DICTIONARY
  5
464
330
33
100
AcDbDictionary
280
     1
281
     1
  3
ACAD_XREC_ROUNDTRIP
360
465
  0
DICTIONARY
  5
46C
330
37
100
AcDbDictionary
280
     1
281
     1
  3
ACAD_XREC_ROUNDTRIP
360
46D
  0
XRECORD
  5
477
102
{ACAD_REACTORS
330
476
102
}
330
476
100
AcDbXrecord
280
     1
102
MATERIAL
148
0.0
149
0.0
149
0.0
 93
        0
 94
      127
282
     0
 72
     1
 77
     1
171
     1
175
     1
179
     1
273
     0
  0
XRECORD
  5
475
102
{ACAD_REACTORS
330
474
102
}
330
474
100
AcDbXrecord
280
     1
102
MATERIAL
148
0.0
149
0.0
149
0.0
 93
        0
 94
      127
282
     0
 72
     1
 77
     1
171
     1
175
     1
179
     1
273
     0
  0
XRECORD
  5
479
102
{ACAD_REACTORS
330
478
102
}
330
478
100
AcDbXrecord
280
     1
102
MATERIAL
148
0.0
149
0.0
149
0.0
 93
        0
 94
      127
282
     0
 72
     1
 77
     1
171
     1
175
     1
179
     1
273
     0
  0
XRECORD
  5
45D
102
{ACAD_REACTORS
330
45C
102
}
330
45C
100
AcDbXrecord
280
     1
102
RTVSPropertyOp0
 70
     1
102
RTVSPropertyOp1
 70
     1
102
RTVSPropertyOp2
 70
     1
102
RTVSPropertyOp3
 70
     1
102
RTVSPropertyOp4
 70
     1
102
RTVSPropertyOp5
 70
     1
102
RTVSPropertyOp6
 70
     1
102
RTVSPropertyOp7
 70
     1
102
RTVSPropertyOp8
 70
     1
102
RTVSPropertyOp9
 70
     1
102
RTVSPropertyOp10
 70
     1
102
RTVSPropertyOp11
 70
     1
102
RTVSPropertyOp12
 70
     1
102
RTVSPropertyOp13
 70
     1
102
RTVSPropertyOp14
 70
     1
102
RTVSPropertyOp15
 70
     1
102
RTVSPropertyOp16
 70
     1
102
RTVSPropertyOp17
 70
     1
102
RTVSPropertyOp18
 70
     1
102
RTVSPropertyOp19
 70
     1
102
RTVSPropertyOp20
 70
     1
102
RTVSPropertyOp21
 70
     1
102
RTVSPropertyOp22
 70
     1
102
RTVSPropertyOp23
 70
     1
102
RTVSPropertyOp24
 70
     1
102
RTVSPropertyOp25
 70
     1
102
RTVSPropertyOp26
 70
     1
102
RTVSPropertyOp27
 70
     1
102
RTVSPropertyOp28
 70
     1
102
RTVSPropertyOp29
 70
     1
102
RTVSPropertyOp30
 70
     1
102
RTVSPropertyOp31
 70
     1
102
RTVSPropertyOp32
 70
     1
102
RTVSPropertyOp33
 70
     1
102
RTVSPropertyOp34
 70
     1
102
RTVSPropertyOp35
 70
     1
102
RTVSPropertyOp36
 70
     1
102
RTVSPropertyOp37
 70
     1
102
RTVSPropertyOp38
 70
     1
102
RTVSPropertyOp39
 70
     1
102
RTVSPropertyOp40
 70
     1
102
RTVSPropertyOp41
 70
     1
102
RTVSPropertyOp42
 70
     1
102
RTVSPropertyOp43
 70
     1
102
RTVSPropertyOp44
 70
     1
102
RTVSPropertyOp45
 70
     1
102
RTVSPropertyOp46
 70
     1
102
RTVSPropertyOp47
 70
     1
102
RTVSPropertyOp48
 70
     1
102
RTVSPropertyOp49
 70
     1
102
RTVSPropertyOp50
 70
     1
102
RTVSPropertyOp51
 70
     0
102
RTVSPropertyOp52
 70
     0
102
RTVSPropertyOp53
 70
     1
102
RTVSPropertyOp54
 70
     1
102
RTVSPropertyOp55
 70
     1
102
RTVSPropertyOp56
 70
     1
102
RTVSPropertyOp57
 70
     1
102
RTVSPost2010Prop28
280
     1
102
RTVSPost2010PropOp28
 70
     1
102
RTVSPost2010Prop29
280
     1
102
RTVSPost2010PropOp29
 70
     1
102
RTVSPost2010Prop30
280
     0
102
RTVSPost2010PropOp30
 70
     1
102
RTVSPost2010Prop31
280
     0
102
RTVSPost2010PropOp31
 70
     1
102
RTVSPost2010Prop32
280
     0
102
RTVSPost2010PropOp32
 70
     1
102
RTVSPost2010Prop33
280
     0
102
RTVSPost2010PropOp33
 70
     1
102
RTVSPost2010Prop34
280
     0
102
RTVSPost2010PropOp34
 70
     1
102
RTVSPost2010Prop35
280
     0
102
RTVSPost2010PropOp35
 70
     1
102
RTVSPost2010Prop36
280
     0
102
RTVSPost2010PropOp36
 70
     1
102
RTVSPost2010Prop37
 90
       50
102
RTVSPost2010PropOp37
 70
     1
102
RTVSPost2010Prop38
140
0.0
102
RTVSPost2010PropOp38
 70
     1
102
RTVSPost2010Prop39
140
1.0
102
RTVSPost2010PropOp39
 70
     1
102
RTVSPost2010Prop40
 90
        0
102
RTVSPost2010PropOp40
 70
     1
102
RTVSPost2010Prop41ColorIndex
 90
       18
102
RTVSPost2010Prop41ColorRGB
 90
        0
102
RTVSPost2010PropOp41
 70
     1
102
RTVSPost2010Prop42
 90
       50
102
RTVSPost2010PropOp42
 70
     1
102
RTVSPost2010Prop43
 90
        3
102
RTVSPost2010PropOp43
 70
     1
102
RTVSPost2010Prop44ColorIndex
 90
        5
102
RTVSPost2010Prop44ColorRGB
 90
      255
102
RTVSPost2010PropOp44
 70
     1
102
RTVSPost2010Prop45
280
     0
102
RTVSPost2010PropOp45
 70
     1
102
RTVSPost2010Prop46
 90
       50
102
RTVSPost2010PropOp46
 70
     1
102
RTVSPost2010Prop47
 90
       50
102
RTVSPost2010PropOp47
 70
     1
102
RTVSPost2010Prop48
 90
       50
102
RTVSPost2010PropOp48
 70
     1
102
RTVSPost2010Prop49
280
     0
102
RTVSPost2010PropOp49
 70
     1
102
RTVSPost2010Prop50
 90
       50
102
RTVSPost2010PropOp50
 70
     1
102
RTVSPost2010Prop51ColorIndex
 90
      256
102
RTVSPost2010Prop51ColorRGB
 90
-16777216
102
RTVSPost2010PropOp51
 70
     0
102
RTVSPost2010Prop52
140
1.0
102
RTVSPost2010PropOp52
 70
     0
102
RTVSPost2010Prop53
 90
        2
102
RTVSPost2010PropOp53
 70
     1
102
RTVSPost2010Prop54
  1
strokes_ogs.tif
102
RTVSPost2010PropOp54
 70
     1
102
RTVSPost2010Prop55
280
     0
102
RTVSPost2010PropOp55
 70
     1
102
RTVSPost2010Prop56
140
1.0
102
RTVSPost2010PropOp56
 70
     1
102
RTVSPost2010Prop57
140
1.0
102
RTVSPost2010PropOp57
 70
     1
  0
XRECORD
  5
461
102
{ACAD_REACTORS
330
460
102
}
330
460
100
AcDbXrecord
280
     1
102
RTVSPropertyOp0
 70
     1
102
RTVSPropertyOp1
 70
     1
102
RTVSPropertyOp2
 70
     1
102
RTVSPropertyOp3
 70
     1
102
RTVSPropertyOp4
 70
     1
102
RTVSPropertyOp5
 70
     1
102
RTVSPropertyOp6
 70
     1
102
RTVSPropertyOp7
 70
     1
102
RTVSPropertyOp8
 70
     1
102
RTVSPropertyOp9
 70
     1
102
RTVSPropertyOp10
 70
     1
102
RTVSPropertyOp11
 70
     1
102
RTVSPropertyOp12
 70
     1
102
RTVSPropertyOp13
 70
     1
102
RTVSPropertyOp14
 70
     1
102
RTVSPropertyOp15
 70
     1
102
RTVSPropertyOp16
 70
     1
102
RTVSPropertyOp17
 70
     1
102
RTVSPropertyOp18
 70
     1
102
RTVSPropertyOp19
 70
     1
102
RTVSPropertyOp20
 70
     1
102
RTVSPropertyOp21
 70
     1
102
RTVSPropertyOp22
 70
     1
102
RTVSPropertyOp23
 70
     1
102
RTVSPropertyOp24
 70
     1
102
RTVSPropertyOp25
 70
     1
102
RTVSPropertyOp26
 70
     1
102
RTVSPropertyOp27
 70
     1
102
RTVSPropertyOp28
 70
     1
102
RTVSPropertyOp29
 70
     1
102
RTVSPropertyOp30
 70
     1
102
RTVSPropertyOp31
 70
     1
102
RTVSPropertyOp32
 70
     1
102
RTVSPropertyOp33
 70
     1
102
RTVSPropertyOp34
 70
     1
102
RTVSPropertyOp35
 70
     1
102
RTVSPropertyOp36
 70
     1
102
RTVSPropertyOp37
 70
     1
102
RTVSPropertyOp38
 70
     1
102
RTVSPropertyOp39
 70
     1
102
RTVSPropertyOp40
 70
     1
102
RTVSPropertyOp41
 70
     1
102
RTVSPropertyOp42
 70
     1
102
RTVSPropertyOp43
 70
     1
102
RTVSPropertyOp44
 70
     1
102
RTVSPropertyOp45
 70
     1
102
RTVSPropertyOp46
 70
     1
102
RTVSPropertyOp47
 70
     1
102
RTVSPropertyOp48
 70
     1
102
RTVSPropertyOp49
 70
     1
102
RTVSPropertyOp50
 70
     1
102
RTVSPropertyOp51
 70
     0
102
RTVSPropertyOp52
 70
     0
102
RTVSPropertyOp53
 70
     1
102
RTVSPropertyOp54
 70
     1
102
RTVSPropertyOp55
 70
     1
102
RTVSPropertyOp56
 70
     1
102
RTVSPropertyOp57
 70
     1
102
RTVSPost2010Prop28
280
     0
102
RTVSPost2010PropOp28
 70
     1
102
RTVSPost2010Prop29
280
     1
102
RTVSPost2010PropOp29
 70
     1
102
RTVSPost2010Prop30
280
     1
102
RTVSPost2010PropOp30
 70
     1
102
RTVSPost2010Prop31
280
     0
102
RTVSPost2010PropOp31
 70
     1
102
RTVSPost2010Prop32
280
     0
102
RTVSPost2010PropOp32
 70
     1
102
RTVSPost2010Prop33
280
     0
102
RTVSPost2010PropOp33
 70
     1
102
RTVSPost2010Prop34
280
     0
102
RTVSPost2010PropOp34
 70
     1
102
RTVSPost2010Prop35
280
     0
102
RTVSPost2010PropOp35
 70
     1
102
RTVSPost2010Prop36
280
     0
102
RTVSPost2010PropOp36
 70
     1
102
RTVSPost2010Prop37
 90
       50
102
RTVSPost2010PropOp37
 70
     1
102
RTVSPost2010Prop38
140
0.0
102
RTVSPost2010PropOp38
 70
     1
102
RTVSPost2010Prop39
140
1.0
102
RTVSPost2010PropOp39
 70
     1
102
RTVSPost2010Prop40
 90
        0
102
RTVSPost2010PropOp40
 70
     1
102
RTVSPost2010Prop41ColorIndex
 90
       18
102
RTVSPost2010Prop41ColorRGB
 90
        0
102
RTVSPost2010PropOp41
 70
     1
102
RTVSPost2010Prop42
 90
       50
102
RTVSPost2010PropOp42
 70
     1
102
RTVSPost2010Prop43
 90
        3
102
RTVSPost2010PropOp43
 70
     1
102
RTVSPost2010Prop44ColorIndex
 90
        5
102
RTVSPost2010Prop44ColorRGB
 90
      255
102
RTVSPost2010PropOp44
 70
     1
102
RTVSPost2010Prop45
280
     0
102
RTVSPost2010PropOp45
 70
     1
102
RTVSPost2010Prop46
 90
       50
102
RTVSPost2010PropOp46
 70
     1
102
RTVSPost2010Prop47
 90
       50
102
RTVSPost2010PropOp47
 70
     1
102
RTVSPost2010Prop48
 90
       50
102
RTVSPost2010PropOp48
 70
     1
102
RTVSPost2010Prop49
280
     0
102
RTVSPost2010PropOp49
 70
     1
102
RTVSPost2010Prop50
 90
       50
102
RTVSPost2010PropOp50
 70
     1
102
RTVSPost2010Prop51ColorIndex
 90
      256
102
RTVSPost2010Prop51ColorRGB
 90
-16777216
102
RTVSPost2010PropOp51
 70
     0
102
RTVSPost2010Prop52
140
1.0
102
RTVSPost2010PropOp52
 70
     0
102
RTVSPost2010Prop53
 90
        2
102
RTVSPost2010PropOp53
 70
     1
102
RTVSPost2010Prop54
  1
strokes_ogs.tif
102
RTVSPost2010PropOp54
 70
     1
102
RTVSPost2010Prop55
280
     0
102
RTVSPost2010PropOp55
 70
     1
102
RTVSPost2010Prop56
140
1.0
102
RTVSPost2010PropOp56
 70
     1
102
RTVSPost2010Prop57
140
1.0
102
RTVSPost2010PropOp57
 70
     1
  0
XRECORD
  5
45F
102
{ACAD_REACTORS
330
45E
102
}
330
45E
100
AcDbXrecord
280
     1
102
RTVSPropertyOp0
 70
     1
102
RTVSPropertyOp1
 70
     1
102
RTVSPropertyOp2
 70
     1
102
RTVSPropertyOp3
 70
     1
102
RTVSPropertyOp4
 70
     1
102
RTVSPropertyOp5
 70
     1
102
RTVSPropertyOp6
 70
     1
102
RTVSPropertyOp7
 70
     1
102
RTVSPropertyOp8
 70
     1
102
RTVSPropertyOp9
 70
     1
102
RTVSPropertyOp10
 70
     1
102
RTVSPropertyOp11
 70
     1
102
RTVSPropertyOp12
 70
     1
102
RTVSPropertyOp13
 70
     1
102
RTVSPropertyOp14
 70
     1
102
RTVSPropertyOp15
 70
     1
102
RTVSPropertyOp16
 70
     1
102
RTVSPropertyOp17
 70
     1
102
RTVSPropertyOp18
 70
     1
102
RTVSPropertyOp19
 70
     1
102
RTVSPropertyOp20
 70
     1
102
RTVSPropertyOp21
 70
     1
102
RTVSPropertyOp22
 70
     1
102
RTVSPropertyOp23
 70
     1
102
RTVSPropertyOp24
 70
     1
102
RTVSPropertyOp25
 70
     1
102
RTVSPropertyOp26
 70
     1
102
RTVSPropertyOp27
 70
     1
102
RTVSPropertyOp28
 70
     1
102
RTVSPropertyOp29
 70
     1
102
RTVSPropertyOp30
 70
     1
102
RTVSPropertyOp31
 70
     1
102
RTVSPropertyOp32
 70
     1
102
RTVSPropertyOp33
 70
     1
102
RTVSPropertyOp34
 70
     1
102
RTVSPropertyOp35
 70
     1
102
RTVSPropertyOp36
 70
     1
102
RTVSPropertyOp37
 70
     1
102
RTVSPropertyOp38
 70
     1
102
RTVSPropertyOp39
 70
     1
102
RTVSPropertyOp40
 70
     1
102
RTVSPropertyOp41
 70
     1
102
RTVSPropertyOp42
 70
     1
102
RTVSPropertyOp43
 70
     1
102
RTVSPropertyOp44
 70
     1
102
RTVSPropertyOp45
 70
     1
102
RTVSPropertyOp46
 70
     1
102
RTVSPropertyOp47
 70
     1
102
RTVSPropertyOp48
 70
     1
102
RTVSPropertyOp49
 70
     1
102
RTVSPropertyOp50
 70
     1
102
RTVSPropertyOp51
 70
     0
102
RTVSPropertyOp52
 70
     0
102
RTVSPropertyOp53
 70
     1
102
RTVSPropertyOp54
 70
     1
102
RTVSPropertyOp55
 70
     1
102
RTVSPropertyOp56
 70
     1
102
RTVSPropertyOp57
 70
     1
102
RTVSPost2010Prop28
280
     0
102
RTVSPost2010PropOp28
 70
     1
102
RTVSPost2010Prop29
280
     1
102
RTVSPost2010PropOp29
 70
     1
102
RTVSPost2010Prop30
280
     1
102
RTVSPost2010PropOp30
 70
     1
102
RTVSPost2010Prop31
280
     0
102
RTVSPost2010PropOp31
 70
     1
102
RTVSPost2010Prop32
280
     0
102
RTVSPost2010PropOp32
 70
     1
102
RTVSPost2010Prop33
280
     0
102
RTVSPost2010PropOp33
 70
     1
102
RTVSPost2010Prop34
280
     0
102
RTVSPost2010PropOp34
 70
     1
102
RTVSPost2010Prop35
280
     0
102
RTVSPost2010PropOp35
 70
     1
102
RTVSPost2010Prop36
280
     0
102
RTVSPost2010PropOp36
 70
     1
102
RTVSPost2010Prop37
 90
       50
102
RTVSPost2010PropOp37
 70
     1
102
RTVSPost2010Prop38
140
0.0
102
RTVSPost2010PropOp38
 70
     1
102
RTVSPost2010Prop39
140
1.0
102
RTVSPost2010PropOp39
 70
     1
102
RTVSPost2010Prop40
 90
        0
102
RTVSPost2010PropOp40
 70
     1
102
RTVSPost2010Prop41ColorIndex
 90
       18
102
RTVSPost2010Prop41ColorRGB
 90
        0
102
RTVSPost2010PropOp41
 70
     1
102
RTVSPost2010Prop42
 90
       50
102
RTVSPost2010PropOp42
 70
     1
102
RTVSPost2010Prop43
 90
        3
102
RTVSPost2010PropOp43
 70
     1
102
RTVSPost2010Prop44ColorIndex
 90
        5
102
RTVSPost2010Prop44ColorRGB
 90
      255
102
RTVSPost2010PropOp44
 70
     1
102
RTVSPost2010Prop45
280
     0
102
RTVSPost2010PropOp45
 70
     1
102
RTVSPost2010Prop46
 90
       50
102
RTVSPost2010PropOp46
 70
     1
102
RTVSPost2010Prop47
 90
       50
102
RTVSPost2010PropOp47
 70
     1
102
RTVSPost2010Prop48
 90
       50
102
RTVSPost2010PropOp48
 70
     1
102
RTVSPost2010Prop49
280
     0
102
RTVSPost2010PropOp49
 70
     1
102
RTVSPost2010Prop50
 90
       50
102
RTVSPost2010PropOp50
 70
     1
102
RTVSPost2010Prop51ColorIndex
 90
      256
102
RTVSPost2010Prop51ColorRGB
 90
-16777216
102
RTVSPost2010PropOp51
 70
     0
102
RTVSPost2010Prop52
140
1.0
102
RTVSPost2010PropOp52
 70
     0
102
RTVSPost2010Prop53
 90
        2
102
RTVSPost2010PropOp53
 70
     1
102
RTVSPost2010Prop54
  1
strokes_ogs.tif
102
RTVSPost2010PropOp54
 70
     1
102
RTVSPost2010Prop55
280
     0
102
RTVSPost2010PropOp55
 70
     1
102
RTVSPost2010Prop56
140
1.0
102
RTVSPost2010PropOp56
 70
     1
102
RTVSPost2010Prop57
140
1.0
102
RTVSPost2010PropOp57
 70
     1
  0
XRECORD
  5
463
102
{ACAD_REACTORS
330
462
102
}
330
462
100
AcDbXrecord
280
     1
102
RTVSPropertyOp0
 70
     1
102
RTVSPropertyOp1
 70
     1
102
RTVSPropertyOp2
 70
     1
102
RTVSPropertyOp3
 70
     1
102
RTVSPropertyOp4
 70
     1
102
RTVSPropertyOp5
 70
     1
102
RTVSPropertyOp6
 70
     1
102
RTVSPropertyOp7
 70
     1
102
RTVSPropertyOp8
 70
     1
102
RTVSPropertyOp9
 70
     1
102
RTVSPropertyOp10
 70
     1
102
RTVSPropertyOp11
 70
     1
102
RTVSPropertyOp12
 70
     1
102
RTVSPropertyOp13
 70
     1
102
RTVSPropertyOp14
 70
     1
102
RTVSPropertyOp15
 70
     1
102
RTVSPropertyOp16
 70
     1
102
RTVSPropertyOp17
 70
     1
102
RTVSPropertyOp18
 70
     1
102
RTVSPropertyOp19
 70
     1
102
RTVSPropertyOp20
 70
     1
102
RTVSPropertyOp21
 70
     1
102
RTVSPropertyOp22
 70
     1
102
RTVSPropertyOp23
 70
     1
102
RTVSPropertyOp24
 70
     1
102
RTVSPropertyOp25
 70
     1
102
RTVSPropertyOp26
 70
     1
102
RTVSPropertyOp27
 70
     1
102
RTVSPropertyOp28
 70
     1
102
RTVSPropertyOp29
 70
     1
102
RTVSPropertyOp30
 70
     1
102
RTVSPropertyOp31
 70
     1
102
RTVSPropertyOp32
 70
     1
102
RTVSPropertyOp33
 70
     1
102
RTVSPropertyOp34
 70
     1
102
RTVSPropertyOp35
 70
     1
102
RTVSPropertyOp36
 70
     1
102
RTVSPropertyOp37
 70
     1
102
RTVSPropertyOp38
 70
     1
102
RTVSPropertyOp39
 70
     1
102
RTVSPropertyOp40
 70
     1
102
RTVSPropertyOp41
 70
     1
102
RTVSPropertyOp42
 70
     1
102
RTVSPropertyOp43
 70
     1
102
RTVSPropertyOp44
 70
     1
102
RTVSPropertyOp45
 70
     1
102
RTVSPropertyOp46
 70
     1
102
RTVSPropertyOp47
 70
     1
102
RTVSPropertyOp48
 70
     1
102
RTVSPropertyOp49
 70
     1
102
RTVSPropertyOp50
 70
     1
102
RTVSPropertyOp51
 70
     0
102
RTVSPropertyOp52
 70
     0
102
RTVSPropertyOp53
 70
     1
102
RTVSPropertyOp54
 70
     1
102
RTVSPropertyOp55
 70
     1
102
RTVSPropertyOp56
 70
     1
102
RTVSPropertyOp57
 70
     1
102
RTVSPost2010Prop28
280
     0
102
RTVSPost2010PropOp28
 70
     1
102
RTVSPost2010Prop29
280
     1
102
RTVSPost2010PropOp29
 70
     1
102
RTVSPost2010Prop30
280
     1
102
RTVSPost2010PropOp30
 70
     1
102
RTVSPost2010Prop31
280
     0
102
RTVSPost2010PropOp31
 70
     1
102
RTVSPost2010Prop32
280
     0
102
RTVSPost2010PropOp32
 70
     1
102
RTVSPost2010Prop33
280
     0
102
RTVSPost2010PropOp33
 70
     1
102
RTVSPost2010Prop34
280
     0
102
RTVSPost2010PropOp34
 70
     1
102
RTVSPost2010Prop35
280
     0
102
RTVSPost2010PropOp35
 70
     1
102
RTVSPost2010Prop36
280
     0
102
RTVSPost2010PropOp36
 70
     1
102
RTVSPost2010Prop37
 90
       50
102
RTVSPost2010PropOp37
 70
     1
102
RTVSPost2010Prop38
140
0.0
102
RTVSPost2010PropOp38
 70
     1
102
RTVSPost2010Prop39
140
1.0
102
RTVSPost2010PropOp39
 70
     1
102
RTVSPost2010Prop40
 90
        0
102
RTVSPost2010PropOp40
 70
     1
102
RTVSPost2010Prop41ColorIndex
 90
       18
102
RTVSPost2010Prop41ColorRGB
 90
        0
102
RTVSPost2010PropOp41
 70
     1
102
RTVSPost2010Prop42
 90
       50
102
RTVSPost2010PropOp42
 70
     1
102
RTVSPost2010Prop43
 90
        3
102
RTVSPost2010PropOp43
 70
     1
102
RTVSPost2010Prop44ColorIndex
 90
        5
102
RTVSPost2010Prop44ColorRGB
 90
      255
102
RTVSPost2010PropOp44
 70
     1
102
RTVSPost2010Prop45
280
     0
102
RTVSPost2010PropOp45
 70
     1
102
RTVSPost2010Prop46
 90
       50
102
RTVSPost2010PropOp46
 70
     1
102
RTVSPost2010Prop47
 90
       50
102
RTVSPost2010PropOp47
 70
     1
102
RTVSPost2010Prop48
 90
       50
102
RTVSPost2010PropOp48
 70
     1
102
RTVSPost2010Prop49
280
     0
102
RTVSPost2010PropOp49
 70
     1
102
RTVSPost2010Prop50
 90
       50
102
RTVSPost2010PropOp50
 70
     1
102
RTVSPost2010Prop51ColorIndex
 90
      256
102
RTVSPost2010Prop51ColorRGB
 90
-16777216
102
RTVSPost2010PropOp51
 70
     0
102
RTVSPost2010Prop52
140
1.0
102
RTVSPost2010PropOp52
 70
     0
102
RTVSPost2010Prop53
 90
        2
102
RTVSPost2010PropOp53
 70
     1
102
RTVSPost2010Prop54
  1
strokes_ogs.tif
102
RTVSPost2010PropOp54
 70
     1
102
RTVSPost2010Prop55
280
     0
102
RTVSPost2010PropOp55
 70
     1
102
RTVSPost2010Prop56
140
1.0
102
RTVSPost2010PropOp56
 70
     1
102
RTVSPost2010Prop57
140
1.0
102
RTVSPost2010PropOp57
 70
     1
  0
XRECORD
  5
46B
102
{ACAD_REACTORS
330
46A
102
}
330
46A
100
AcDbXrecord
280
     1
102
RTVSPropertyOp0
 70
     1
102
RTVSPropertyOp1
 70
     1
102
RTVSPropertyOp2
 70
     1
102
RTVSPropertyOp3
 70
     1
102
RTVSPropertyOp4
 70
     1
102
RTVSPropertyOp5
 70
     1
102
RTVSPropertyOp6
 70
     1
102
RTVSPropertyOp7
 70
     1
102
RTVSPropertyOp8
 70
     1
102
RTVSPropertyOp9
 70
     1
102
RTVSPropertyOp10
 70
     1
102
RTVSPropertyOp11
 70
     1
102
RTVSPropertyOp12
 70
     1
102
RTVSPropertyOp13
 70
     1
102
RTVSPropertyOp14
 70
     1
102
RTVSPropertyOp15
 70
     1
102
RTVSPropertyOp16
 70
     1
102
RTVSPropertyOp17
 70
     1
102
RTVSPropertyOp18
 70
     1
102
RTVSPropertyOp19
 70
     1
102
RTVSPropertyOp20
 70
     1
102
RTVSPropertyOp21
 70
     1
102
RTVSPropertyOp22
 70
     1
102
RTVSPropertyOp23
 70
     1
102
RTVSPropertyOp24
 70
     1
102
RTVSPropertyOp25
 70
     1
102
RTVSPropertyOp26
 70
     1
102
RTVSPropertyOp27
 70
     1
102
RTVSPropertyOp28
 70
     1
102
RTVSPropertyOp29
 70
     1
102
RTVSPropertyOp30
 70
     1
102
RTVSPropertyOp31
 70
     1
102
RTVSPropertyOp32
 70
     1
102
RTVSPropertyOp33
 70
     1
102
RTVSPropertyOp34
 70
     1
102
RTVSPropertyOp35
 70
     1
102
RTVSPropertyOp36
 70
     1
102
RTVSPropertyOp37
 70
     1
102
RTVSPropertyOp38
 70
     1
102
RTVSPropertyOp39
 70
     1
102
RTVSPropertyOp40
 70
     1
102
RTVSPropertyOp41
 70
     1
102
RTVSPropertyOp42
 70
     1
102
RTVSPropertyOp43
 70
     1
102
RTVSPropertyOp44
 70
     1
102
RTVSPropertyOp45
 70
     1
102
RTVSPropertyOp46
 70
     1
102
RTVSPropertyOp47
 70
     1
102
RTVSPropertyOp48
 70
     1
102
RTVSPropertyOp49
 70
     1
102
RTVSPropertyOp50
 70
     1
102
RTVSPropertyOp51
 70
     0
102
RTVSPropertyOp52
 70
     0
102
RTVSPropertyOp53
 70
     1
102
RTVSPropertyOp54
 70
     1
102
RTVSPropertyOp55
 70
     1
102
RTVSPropertyOp56
 70
     1
102
RTVSPropertyOp57
 70
     1
102
RTVSPost2010Prop28
280
     0
102
RTVSPost2010PropOp28
 70
     1
102
RTVSPost2010Prop29
280
     1
102
RTVSPost2010PropOp29
 70
     1
102
RTVSPost2010Prop30
280
     1
102
RTVSPost2010PropOp30
 70
     1
102
RTVSPost2010Prop31
280
     0
102
RTVSPost2010PropOp31
 70
     1
102
RTVSPost2010Prop32
280
     0
102
RTVSPost2010PropOp32
 70
     1
102
RTVSPost2010Prop33
280
     0
102
RTVSPost2010PropOp33
 70
     1
102
RTVSPost2010Prop34
280
     0
102
RTVSPost2010PropOp34
 70
     1
102
RTVSPost2010Prop35
280
     0
102
RTVSPost2010PropOp35
 70
     1
102
RTVSPost2010Prop36
280
     0
102
RTVSPost2010PropOp36
 70
     1
102
RTVSPost2010Prop37
 90
       50
102
RTVSPost2010PropOp37
 70
     1
102
RTVSPost2010Prop38
140
0.0
102
RTVSPost2010PropOp38
 70
     1
102
RTVSPost2010Prop39
140
1.0
102
RTVSPost2010PropOp39
 70
     1
102
RTVSPost2010Prop40
 90
        0
102
RTVSPost2010PropOp40
 70
     1
102
RTVSPost2010Prop41ColorIndex
 90
       18
102
RTVSPost2010Prop41ColorRGB
 90
        0
102
RTVSPost2010PropOp41
 70
     1
102
RTVSPost2010Prop42
 90
       50
102
RTVSPost2010PropOp42
 70
     1
102
RTVSPost2010Prop43
 90
        3
102
RTVSPost2010PropOp43
 70
     1
102
RTVSPost2010Prop44ColorIndex
 90
        5
102
RTVSPost2010Prop44ColorRGB
 90
      255
102
RTVSPost2010PropOp44
 70
     1
102
RTVSPost2010Prop45
280
     0
102
RTVSPost2010PropOp45
 70
     1
102
RTVSPost2010Prop46
 90
       50
102
RTVSPost2010PropOp46
 70
     1
102
RTVSPost2010Prop47
 90
       50
102
RTVSPost2010PropOp47
 70
     1
102
RTVSPost2010Prop48
 90
       50
102
RTVSPost2010PropOp48
 70
     1
102
RTVSPost2010Prop49
280
     0
102
RTVSPost2010PropOp49
 70
     1
102
RTVSPost2010Prop50
 90
       50
102
RTVSPost2010PropOp50
 70
     1
102
RTVSPost2010Prop51ColorIndex
 90
      256
102
RTVSPost2010Prop51ColorRGB
 90
-16777216
102
RTVSPost2010PropOp51
 70
     0
102
RTVSPost2010Prop52
140
1.0
102
RTVSPost2010PropOp52
 70
     0
102
RTVSPost2010Prop53
 90
        2
102
RTVSPost2010PropOp53
 70
     1
102
RTVSPost2010Prop54
  1
strokes_ogs.tif
102
RTVSPost2010PropOp54
 70
     1
102
RTVSPost2010Prop55
280
     0
102
RTVSPost2010PropOp55
 70
     1
102
RTVSPost2010Prop56
140
1.0
102
RTVSPost2010PropOp56
 70
     1
102
RTVSPost2010Prop57
140
1.0
102
RTVSPost2010PropOp57
 70
     1
  0
XRECORD
  5
473
102
{ACAD_REACTORS
330
472
102
}
330
472
100
AcDbXrecord
280
     1
102
RTVSPropertyOp0
 70
     1
102
RTVSPropertyOp1
 70
     1
102
RTVSPropertyOp2
 70
     1
102
RTVSPropertyOp3
 70
     1
102
RTVSPropertyOp4
 70
     1
102
RTVSPropertyOp5
 70
     1
102
RTVSPropertyOp6
 70
     1
102
RTVSPropertyOp7
 70
     1
102
RTVSPropertyOp8
 70
     1
102
RTVSPropertyOp9
 70
     1
102
RTVSPropertyOp10
 70
     1
102
RTVSPropertyOp11
 70
     1
102
RTVSPropertyOp12
 70
     1
102
RTVSPropertyOp13
 70
     1
102
RTVSPropertyOp14
 70
     1
102
RTVSPropertyOp15
 70
     1
102
RTVSPropertyOp16
 70
     1
102
RTVSPropertyOp17
 70
     1
102
RTVSPropertyOp18
 70
     1
102
RTVSPropertyOp19
 70
     1
102
RTVSPropertyOp20
 70
     1
102
RTVSPropertyOp21
 70
     1
102
RTVSPropertyOp22
 70
     1
102
RTVSPropertyOp23
 70
     1
102
RTVSPropertyOp24
 70
     1
102
RTVSPropertyOp25
 70
     1
102
RTVSPropertyOp26
 70
     1
102
RTVSPropertyOp27
 70
     1
102
RTVSPropertyOp28
 70
     1
102
RTVSPropertyOp29
 70
     1
102
RTVSPropertyOp30
 70
     1
102
RTVSPropertyOp31
 70
     1
102
RTVSPropertyOp32
 70
     1
102
RTVSPropertyOp33
 70
     1
102
RTVSPropertyOp34
 70
     1
102
RTVSPropertyOp35
 70
     1
102
RTVSPropertyOp36
 70
     1
102
RTVSPropertyOp37
 70
     1
102
RTVSPropertyOp38
 70
     1
102
RTVSPropertyOp39
 70
     1
102
RTVSPropertyOp40
 70
     1
102
RTVSPropertyOp41
 70
     1
102
RTVSPropertyOp42
 70
     1
102
RTVSPropertyOp43
 70
     1
102
RTVSPropertyOp44
 70
     1
102
RTVSPropertyOp45
 70
     1
102
RTVSPropertyOp46
 70
     1
102
RTVSPropertyOp47
 70
     1
102
RTVSPropertyOp48
 70
     1
102
RTVSPropertyOp49
 70
     1
102
RTVSPropertyOp50
 70
     1
102
RTVSPropertyOp51
 70
     0
102
RTVSPropertyOp52
 70
     0
102
RTVSPropertyOp53
 70
     1
102
RTVSPropertyOp54
 70
     1
102
RTVSPropertyOp55
 70
     1
102
RTVSPropertyOp56
 70
     1
102
RTVSPropertyOp57
 70
     1
102
RTVSPost2010Prop28
280
     0
102
RTVSPost2010PropOp28
 70
     1
102
RTVSPost2010Prop29
280
     1
102
RTVSPost2010PropOp29
 70
     1
102
RTVSPost2010Prop30
280
     1
102
RTVSPost2010PropOp30
 70
     1
102
RTVSPost2010Prop31
280
     0
102
RTVSPost2010PropOp31
 70
     1
102
RTVSPost2010Prop32
280
     0
102
RTVSPost2010PropOp32
 70
     1
102
RTVSPost2010Prop33
280
     0
102
RTVSPost2010PropOp33
 70
     1
102
RTVSPost2010Prop34
280
     0
102
RTVSPost2010PropOp34
 70
     1
102
RTVSPost2010Prop35
280
     0
102
RTVSPost2010PropOp35
 70
     1
102
RTVSPost2010Prop36
280
     0
102
RTVSPost2010PropOp36
 70
     1
102
RTVSPost2010Prop37
 90
       50
102
RTVSPost2010PropOp37
 70
     1
102
RTVSPost2010Prop38
140
0.0
102
RTVSPost2010PropOp38
 70
     1
102
RTVSPost2010Prop39
140
1.0
102
RTVSPost2010PropOp39
 70
     1
102
RTVSPost2010Prop40
 90
        0
102
RTVSPost2010PropOp40
 70
     1
102
RTVSPost2010Prop41ColorIndex
 90
       18
102
RTVSPost2010Prop41ColorRGB
 90
        0
102
RTVSPost2010PropOp41
 70
     1
102
RTVSPost2010Prop42
 90
       50
102
RTVSPost2010PropOp42
 70
     1
102
RTVSPost2010Prop43
 90
        3
102
RTVSPost2010PropOp43
 70
     1
102
RTVSPost2010Prop44ColorIndex
 90
        5
102
RTVSPost2010Prop44ColorRGB
 90
      255
102
RTVSPost2010PropOp44
 70
     1
102
RTVSPost2010Prop45
280
     0
102
RTVSPost2010PropOp45
 70
     1
102
RTVSPost2010Prop46
 90
       50
102
RTVSPost2010PropOp46
 70
     1
102
RTVSPost2010Prop47
 90
       50
102
RTVSPost2010PropOp47
 70
     1
102
RTVSPost2010Prop48
 90
       50
102
RTVSPost2010PropOp48
 70
     1
102
RTVSPost2010Prop49
280
     0
102
RTVSPost2010PropOp49
 70
     1
102
RTVSPost2010Prop50
 90
       50
102
RTVSPost2010PropOp50
 70
     1
102
RTVSPost2010Prop51ColorIndex
 90
      256
102
RTVSPost2010Prop51ColorRGB
 90
-16777216
102
RTVSPost2010PropOp51
 70
     0
102
RTVSPost2010Prop52
140
1.0
102
RTVSPost2010PropOp52
 70
     0
102
RTVSPost2010Prop53
 90
        2
102
RTVSPost2010PropOp53
 70
     1
102
RTVSPost2010Prop54
  1
strokes_ogs.tif
102
RTVSPost2010PropOp54
 70
     1
102
RTVSPost2010Prop55
280
     0
102
RTVSPost2010PropOp55
 70
     1
102
RTVSPost2010Prop56
140
1.0
102
RTVSPost2010PropOp56
 70
     1
102
RTVSPost2010Prop57
140
1.0
102
RTVSPost2010PropOp57
 70
     1
  0
XRECORD
  5
467
102
{ACAD_REACTORS
330
466
102
}
330
466
100
AcDbXrecord
280
     1
102
RTVSPropertyOp0
 70
     1
102
RTVSPropertyOp1
 70
     1
102
RTVSPropertyOp2
 70
     1
102
RTVSPropertyOp3
 70
     1
102
RTVSPropertyOp4
 70
     1
102
RTVSPropertyOp5
 70
     1
102
RTVSPropertyOp6
 70
     1
102
RTVSPropertyOp7
 70
     1
102
RTVSPropertyOp8
 70
     1
102
RTVSPropertyOp9
 70
     1
102
RTVSPropertyOp10
 70
     1
102
RTVSPropertyOp11
 70
     1
102
RTVSPropertyOp12
 70
     1
102
RTVSPropertyOp13
 70
     1
102
RTVSPropertyOp14
 70
     1
102
RTVSPropertyOp15
 70
     1
102
RTVSPropertyOp16
 70
     1
102
RTVSPropertyOp17
 70
     1
102
RTVSPropertyOp18
 70
     1
102
RTVSPropertyOp19
 70
     1
102
RTVSPropertyOp20
 70
     1
102
RTVSPropertyOp21
 70
     1
102
RTVSPropertyOp22
 70
     1
102
RTVSPropertyOp23
 70
     1
102
RTVSPropertyOp24
 70
     1
102
RTVSPropertyOp25
 70
     1
102
RTVSPropertyOp26
 70
     1
102
RTVSPropertyOp27
 70
     1
102
RTVSPropertyOp28
 70
     1
102
RTVSPropertyOp29
 70
     1
102
RTVSPropertyOp30
 70
     1
102
RTVSPropertyOp31
 70
     1
102
RTVSPropertyOp32
 70
     1
102
RTVSPropertyOp33
 70
     1
102
RTVSPropertyOp34
 70
     1
102
RTVSPropertyOp35
 70
     1
102
RTVSPropertyOp36
 70
     1
102
RTVSPropertyOp37
 70
     1
102
RTVSPropertyOp38
 70
     1
102
RTVSPropertyOp39
 70
     1
102
RTVSPropertyOp40
 70
     1
102
RTVSPropertyOp41
 70
     1
102
RTVSPropertyOp42
 70
     1
102
RTVSPropertyOp43
 70
     1
102
RTVSPropertyOp44
 70
     1
102
RTVSPropertyOp45
 70
     1
102
RTVSPropertyOp46
 70
     1
102
RTVSPropertyOp47
 70
     1
102
RTVSPropertyOp48
 70
     1
102
RTVSPropertyOp49
 70
     1
102
RTVSPropertyOp50
 70
     1
102
RTVSPropertyOp51
 70
     0
102
RTVSPropertyOp52
 70
     0
102
RTVSPropertyOp53
 70
     1
102
RTVSPropertyOp54
 70
     1
102
RTVSPropertyOp55
 70
     1
102
RTVSPropertyOp56
 70
     1
102
RTVSPropertyOp57
 70
     1
102
RTVSPost2010Prop28
280
     0
102
RTVSPost2010PropOp28
 70
     1
102
RTVSPost2010Prop29
280
     1
102
RTVSPost2010PropOp29
 70
     1
102
RTVSPost2010Prop30
280
     1
102
RTVSPost2010PropOp30
 70
     1
102
RTVSPost2010Prop31
280
     0
102
RTVSPost2010PropOp31
 70
     1
102
RTVSPost2010Prop32
280
     0
102
RTVSPost2010PropOp32
 70
     1
102
RTVSPost2010Prop33
280
     0
102
RTVSPost2010PropOp33
 70
     1
102
RTVSPost2010Prop34
280
     0
102
RTVSPost2010PropOp34
 70
     1
102
RTVSPost2010Prop35
280
     0
102
RTVSPost2010PropOp35
 70
     1
102
RTVSPost2010Prop36
280
     0
102
RTVSPost2010PropOp36
 70
     1
102
RTVSPost2010Prop37
 90
       50
102
RTVSPost2010PropOp37
 70
     1
102
RTVSPost2010Prop38
140
0.0
102
RTVSPost2010PropOp38
 70
     1
102
RTVSPost2010Prop39
140
1.0
102
RTVSPost2010PropOp39
 70
     1
102
RTVSPost2010Prop40
 90
        0
102
RTVSPost2010PropOp40
 70
     1
102
RTVSPost2010Prop41ColorIndex
 90
       18
102
RTVSPost2010Prop41ColorRGB
 90
        0
102
RTVSPost2010PropOp41
 70
     1
102
RTVSPost2010Prop42
 90
       50
102
RTVSPost2010PropOp42
 70
     1
102
RTVSPost2010Prop43
 90
        3
102
RTVSPost2010PropOp43
 70
     1
102
RTVSPost2010Prop44ColorIndex
 90
        5
102
RTVSPost2010Prop44ColorRGB
 90
      255
102
RTVSPost2010PropOp44
 70
     1
102
RTVSPost2010Prop45
280
     0
102
RTVSPost2010PropOp45
 70
     1
102
RTVSPost2010Prop46
 90
       50
102
RTVSPost2010PropOp46
 70
     1
102
RTVSPost2010Prop47
 90
       50
102
RTVSPost2010PropOp47
 70
     1
102
RTVSPost2010Prop48
 90
       50
102
RTVSPost2010PropOp48
 70
     1
102
RTVSPost2010Prop49
280
     0
102
RTVSPost2010PropOp49
 70
     1
102
RTVSPost2010Prop50
 90
       50
102
RTVSPost2010PropOp50
 70
     1
102
RTVSPost2010Prop51ColorIndex
 90
      256
102
RTVSPost2010Prop51ColorRGB
 90
-16777216
102
RTVSPost2010PropOp51
 70
     0
102
RTVSPost2010Prop52
140
1.0
102
RTVSPost2010PropOp52
 70
     0
102
RTVSPost2010Prop53
 90
        2
102
RTVSPost2010PropOp53
 70
     1
102
RTVSPost2010Prop54
  1
strokes_ogs.tif
102
RTVSPost2010PropOp54
 70
     1
102
RTVSPost2010Prop55
280
     0
102
RTVSPost2010PropOp55
 70
     1
102
RTVSPost2010Prop56
140
1.0
102
RTVSPost2010PropOp56
 70
     1
102
RTVSPost2010Prop57
140
1.0
102
RTVSPost2010PropOp57
 70
     1
  0
XRECORD
  5
469
102
{ACAD_REACTORS
330
468
102
}
330
468
100
AcDbXrecord
280
     1
102
RTVSPropertyOp0
 70
     1
102
RTVSPropertyOp1
 70
     1
102
RTVSPropertyOp2
 70
     1
102
RTVSPropertyOp3
 70
     1
102
RTVSPropertyOp4
 70
     1
102
RTVSPropertyOp5
 70
     1
102
RTVSPropertyOp6
 70
     1
102
RTVSPropertyOp7
 70
     1
102
RTVSPropertyOp8
 70
     1
102
RTVSPropertyOp9
 70
     1
102
RTVSPropertyOp10
 70
     1
102
RTVSPropertyOp11
 70
     1
102
RTVSPropertyOp12
 70
     1
102
RTVSPropertyOp13
 70
     1
102
RTVSPropertyOp14
 70
     1
102
RTVSPropertyOp15
 70
     1
102
RTVSPropertyOp16
 70
     1
102
RTVSPropertyOp17
 70
     1
102
RTVSPropertyOp18
 70
     1
102
RTVSPropertyOp19
 70
     1
102
RTVSPropertyOp20
 70
     1
102
RTVSPropertyOp21
 70
     1
102
RTVSPropertyOp22
 70
     1
102
RTVSPropertyOp23
 70
     1
102
RTVSPropertyOp24
 70
     1
102
RTVSPropertyOp25
 70
     1
102
RTVSPropertyOp26
 70
     1
102
RTVSPropertyOp27
 70
     1
102
RTVSPropertyOp28
 70
     1
102
RTVSPropertyOp29
 70
     1
102
RTVSPropertyOp30
 70
     1
102
RTVSPropertyOp31
 70
     1
102
RTVSPropertyOp32
 70
     1
102
RTVSPropertyOp33
 70
     1
102
RTVSPropertyOp34
 70
     1
102
RTVSPropertyOp35
 70
     1
102
RTVSPropertyOp36
 70
     1
102
RTVSPropertyOp37
 70
     1
102
RTVSPropertyOp38
 70
     1
102
RTVSPropertyOp39
 70
     1
102
RTVSPropertyOp40
 70
     1
102
RTVSPropertyOp41
 70
     1
102
RTVSPropertyOp42
 70
     1
102
RTVSPropertyOp43
 70
     1
102
RTVSPropertyOp44
 70
     1
102
RTVSPropertyOp45
 70
     1
102
RTVSPropertyOp46
 70
     1
102
RTVSPropertyOp47
 70
     1
102
RTVSPropertyOp48
 70
     1
102
RTVSPropertyOp49
 70
     1
102
RTVSPropertyOp50
 70
     1
102
RTVSPropertyOp51
 70
     0
102
RTVSPropertyOp52
 70
     0
102
RTVSPropertyOp53
 70
     1
102
RTVSPropertyOp54
 70
     1
102
RTVSPropertyOp55
 70
     1
102
RTVSPropertyOp56
 70
     1
102
RTVSPropertyOp57
 70
     1
102
RTVSPost2010Prop28
280
     0
102
RTVSPost2010PropOp28
 70
     1
102
RTVSPost2010Prop29
280
     1
102
RTVSPost2010PropOp29
 70
     1
102
RTVSPost2010Prop30
280
     1
102
RTVSPost2010PropOp30
 70
     1
102
RTVSPost2010Prop31
280
     0
102
RTVSPost2010PropOp31
 70
     1
102
RTVSPost2010Prop32
280
     0
102
RTVSPost2010PropOp32
 70
     1
102
RTVSPost2010Prop33
280
     0
102
RTVSPost2010PropOp33
 70
     1
102
RTVSPost2010Prop34
280
     0
102
RTVSPost2010PropOp34
 70
     1
102
RTVSPost2010Prop35
280
     0
102
RTVSPost2010PropOp35
 70
     1
102
RTVSPost2010Prop36
280
     0
102
RTVSPost2010PropOp36
 70
     1
102
RTVSPost2010Prop37
 90
       50
102
RTVSPost2010PropOp37
 70
     1
102
RTVSPost2010Prop38
140
0.0
102
RTVSPost2010PropOp38
 70
     1
102
RTVSPost2010Prop39
140
1.0
102
RTVSPost2010PropOp39
 70
     1
102
RTVSPost2010Prop40
 90
        0
102
RTVSPost2010PropOp40
 70
     1
102
RTVSPost2010Prop41ColorIndex
 90
       18
102
RTVSPost2010Prop41ColorRGB
 90
        0
102
RTVSPost2010PropOp41
 70
     1
102
RTVSPost2010Prop42
 90
       50
102
RTVSPost2010PropOp42
 70
     1
102
RTVSPost2010Prop43
 90
        3
102
RTVSPost2010PropOp43
 70
     1
102
RTVSPost2010Prop44ColorIndex
 90
        5
102
RTVSPost2010Prop44ColorRGB
 90
      255
102
RTVSPost2010PropOp44
 70
     1
102
RTVSPost2010Prop45
280
     0
102
RTVSPost2010PropOp45
 70
     1
102
RTVSPost2010Prop46
 90
       50
102
RTVSPost2010PropOp46
 70
     1
102
RTVSPost2010Prop47
 90
       50
102
RTVSPost2010PropOp47
 70
     1
102
RTVSPost2010Prop48
 90
       50
102
RTVSPost2010PropOp48
 70
     1
102
RTVSPost2010Prop49
280
     0
102
RTVSPost2010PropOp49
 70
     1
102
RTVSPost2010Prop50
 90
       50
102
RTVSPost2010PropOp50
 70
     1
102
RTVSPost2010Prop51ColorIndex
 90
      256
102
RTVSPost2010Prop51ColorRGB
 90
-16777216
102
RTVSPost2010PropOp51
 70
     0
102
RTVSPost2010Prop52
140
1.0
102
RTVSPost2010PropOp52
 70
     0
102
RTVSPost2010Prop53
 90
        2
102
RTVSPost2010PropOp53
 70
     1
102
RTVSPost2010Prop54
  1
strokes_ogs.tif
102
RTVSPost2010PropOp54
 70
     1
102
RTVSPost2010Prop55
280
     0
102
RTVSPost2010PropOp55
 70
     1
102
RTVSPost2010Prop56
140
1.0
102
RTVSPost2010PropOp56
 70
     1
102
RTVSPost2010Prop57
140
1.0
102
RTVSPost2010PropOp57
 70
     1
  0
XRECORD
  5
471
102
{ACAD_REACTORS
330
470
102
}
330
470
100
AcDbXrecord
280
     1
102
RTVSPropertyOp0
 70
     1
102
RTVSPropertyOp1
 70
     1
102
RTVSPropertyOp2
 70
     1
102
RTVSPropertyOp3
 70
     1
102
RTVSPropertyOp4
 70
     1
102
RTVSPropertyOp5
 70
     1
102
RTVSPropertyOp6
 70
     1
102
RTVSPropertyOp7
 70
     1
102
RTVSPropertyOp8
 70
     1
102
RTVSPropertyOp9
 70
     1
102
RTVSPropertyOp10
 70
     1
102
RTVSPropertyOp11
 70
     1
102
RTVSPropertyOp12
 70
     1
102
RTVSPropertyOp13
 70
     1
102
RTVSPropertyOp14
 70
     1
102
RTVSPropertyOp15
 70
     1
102
RTVSPropertyOp16
 70
     1
102
RTVSPropertyOp17
 70
     1
102
RTVSPropertyOp18
 70
     1
102
RTVSPropertyOp19
 70
     1
102
RTVSPropertyOp20
 70
     1
102
RTVSPropertyOp21
 70
     1
102
RTVSPropertyOp22
 70
     1
102
RTVSPropertyOp23
 70
     1
102
RTVSPropertyOp24
 70
     1
102
RTVSPropertyOp25
 70
     1
102
RTVSPropertyOp26
 70
     1
102
RTVSPropertyOp27
 70
     1
102
RTVSPropertyOp28
 70
     1
102
RTVSPropertyOp29
 70
     1
102
RTVSPropertyOp30
 70
     1
102
RTVSPropertyOp31
 70
     1
102
RTVSPropertyOp32
 70
     1
102
RTVSPropertyOp33
 70
     1
102
RTVSPropertyOp34
 70
     1
102
RTVSPropertyOp35
 70
     1
102
RTVSPropertyOp36
 70
     1
102
RTVSPropertyOp37
 70
     1
102
RTVSPropertyOp38
 70
     1
102
RTVSPropertyOp39
 70
     1
102
RTVSPropertyOp40
 70
     1
102
RTVSPropertyOp41
 70
     1
102
RTVSPropertyOp42
 70
     1
102
RTVSPropertyOp43
 70
     1
102
RTVSPropertyOp44
 70
     1
102
RTVSPropertyOp45
 70
     1
102
RTVSPropertyOp46
 70
     1
102
RTVSPropertyOp47
 70
     1
102
RTVSPropertyOp48
 70
     1
102
RTVSPropertyOp49
 70
     1
102
RTVSPropertyOp50
 70
     1
102
RTVSPropertyOp51
 70
     0
102
RTVSPropertyOp52
 70
     0
102
RTVSPropertyOp53
 70
     1
102
RTVSPropertyOp54
 70
     1
102
RTVSPropertyOp55
 70
     1
102
RTVSPropertyOp56
 70
     1
102
RTVSPropertyOp57
 70
     1
102
RTVSPost2010Prop28
280
     0
102
RTVSPost2010PropOp28
 70
     1
102
RTVSPost2010Prop29
280
     1
102
RTVSPost2010PropOp29
 70
     1
102
RTVSPost2010Prop30
280
     1
102
RTVSPost2010PropOp30
 70
     1
102
RTVSPost2010Prop31
280
     0
102
RTVSPost2010PropOp31
 70
     1
102
RTVSPost2010Prop32
280
     0
102
RTVSPost2010PropOp32
 70
     1
102
RTVSPost2010Prop33
280
     0
102
RTVSPost2010PropOp33
 70
     1
102
RTVSPost2010Prop34
280
     0
102
RTVSPost2010PropOp34
 70
     1
102
RTVSPost2010Prop35
280
     0
102
RTVSPost2010PropOp35
 70
     1
102
RTVSPost2010Prop36
280
     0
102
RTVSPost2010PropOp36
 70
     1
102
RTVSPost2010Prop37
 90
       50
102
RTVSPost2010PropOp37
 70
     1
102
RTVSPost2010Prop38
140
0.0
102
RTVSPost2010PropOp38
 70
     1
102
RTVSPost2010Prop39
140
1.0
102
RTVSPost2010PropOp39
 70
     1
102
RTVSPost2010Prop40
 90
        0
102
RTVSPost2010PropOp40
 70
     1
102
RTVSPost2010Prop41ColorIndex
 90
       18
102
RTVSPost2010Prop41ColorRGB
 90
        0
102
RTVSPost2010PropOp41
 70
     1
102
RTVSPost2010Prop42
 90
       50
102
RTVSPost2010PropOp42
 70
     1
102
RTVSPost2010Prop43
 90
        3
102
RTVSPost2010PropOp43
 70
     1
102
RTVSPost2010Prop44ColorIndex
 90
        5
102
RTVSPost2010Prop44ColorRGB
 90
      255
102
RTVSPost2010PropOp44
 70
     1
102
RTVSPost2010Prop45
280
     0
102
RTVSPost2010PropOp45
 70
     1
102
RTVSPost2010Prop46
 90
       50
102
RTVSPost2010PropOp46
 70
     1
102
RTVSPost2010Prop47
 90
       50
102
RTVSPost2010PropOp47
 70
     1
102
RTVSPost2010Prop48
 90
       50
102
RTVSPost2010PropOp48
 70
     1
102
RTVSPost2010Prop49
280
     0
102
RTVSPost2010PropOp49
 70
     1
102
RTVSPost2010Prop50
 90
       50
102
RTVSPost2010PropOp50
 70
     1
102
RTVSPost2010Prop51ColorIndex
 90
      256
102
RTVSPost2010Prop51ColorRGB
 90
-16777216
102
RTVSPost2010PropOp51
 70
     0
102
RTVSPost2010Prop52
140
1.0
102
RTVSPost2010PropOp52
 70
     0
102
RTVSPost2010Prop53
 90
        2
102
RTVSPost2010PropOp53
 70
     1
102
RTVSPost2010Prop54
  1
strokes_ogs.tif
102
RTVSPost2010PropOp54
 70
     1
102
RTVSPost2010Prop55
280
     0
102
RTVSPost2010PropOp55
 70
     1
102
RTVSPost2010Prop56
140
1.0
102
RTVSPost2010PropOp56
 70
     1
102
RTVSPost2010Prop57
140
1.0
102
RTVSPost2010PropOp57
 70
     1
  0
XRECORD
  5
455
102
{ACAD_REACTORS
330
454
102
}
330
454
100
AcDbXrecord
280
     1
102
RTVSPropertyOp0
 70
     1
102
RTVSPropertyOp1
 70
     1
102
RTVSPropertyOp2
 70
     1
102
RTVSPropertyOp3
 70
     1
102
RTVSPropertyOp4
 70
     1
102
RTVSPropertyOp5
 70
     1
102
RTVSPropertyOp6
 70
     1
102
RTVSPropertyOp7
 70
     1
102
RTVSPropertyOp8
 70
     1
102
RTVSPropertyOp9
 70
     1
102
RTVSPropertyOp10
 70
     1
102
RTVSPropertyOp11
 70
     1
102
RTVSPropertyOp12
 70
     1
102
RTVSPropertyOp13
 70
     1
102
RTVSPropertyOp14
 70
     1
102
RTVSPropertyOp15
 70
     1
102
RTVSPropertyOp16
 70
     1
102
RTVSPropertyOp17
 70
     1
102
RTVSPropertyOp18
 70
     1
102
RTVSPropertyOp19
 70
     1
102
RTVSPropertyOp20
 70
     1
102
RTVSPropertyOp21
 70
     1
102
RTVSPropertyOp22
 70
     1
102
RTVSPropertyOp23
 70
     1
102
RTVSPropertyOp24
 70
     1
102
RTVSPropertyOp25
 70
     1
102
RTVSPropertyOp26
 70
     1
102
RTVSPropertyOp27
 70
     1
102
RTVSPropertyOp28
 70
     1
102
RTVSPropertyOp29
 70
     1
102
RTVSPropertyOp30
 70
     1
102
RTVSPropertyOp31
 70
     1
102
RTVSPropertyOp32
 70
     1
102
RTVSPropertyOp33
 70
     1
102
RTVSPropertyOp34
 70
     1
102
RTVSPropertyOp35
 70
     1
102
RTVSPropertyOp36
 70
     1
102
RTVSPropertyOp37
 70
     1
102
RTVSPropertyOp38
 70
     1
102
RTVSPropertyOp39
 70
     1
102
RTVSPropertyOp40
 70
     1
102
RTVSPropertyOp41
 70
     1
102
RTVSPropertyOp42
 70
     1
102
RTVSPropertyOp43
 70
     1
102
RTVSPropertyOp44
 70
     1
102
RTVSPropertyOp45
 70
     1
102
RTVSPropertyOp46
 70
     1
102
RTVSPropertyOp47
 70
     1
102
RTVSPropertyOp48
 70
     1
102
RTVSPropertyOp49
 70
     1
102
RTVSPropertyOp50
 70
     1
102
RTVSPropertyOp51
 70
     0
102
RTVSPropertyOp52
 70
     0
102
RTVSPropertyOp53
 70
     1
102
RTVSPropertyOp54
 70
     1
102
RTVSPropertyOp55
 70
     1
102
RTVSPropertyOp56
 70
     1
102
RTVSPropertyOp57
 70
     1
102
RTVSPost2010Prop28
280
     0
102
RTVSPost2010PropOp28
 70
     1
102
RTVSPost2010Prop29
280
     1
102
RTVSPost2010PropOp29
 70
     1
102
RTVSPost2010Prop30
280
     1
102
RTVSPost2010PropOp30
 70
     1
102
RTVSPost2010Prop31
280
     0
102
RTVSPost2010PropOp31
 70
     1
102
RTVSPost2010Prop32
280
     0
102
RTVSPost2010PropOp32
 70
     1
102
RTVSPost2010Prop33
280
     0
102
RTVSPost2010PropOp33
 70
     1
102
RTVSPost2010Prop34
280
     0
102
RTVSPost2010PropOp34
 70
     1
102
RTVSPost2010Prop35
280
     0
102
RTVSPost2010PropOp35
 70
     1
102
RTVSPost2010Prop36
280
     0
102
RTVSPost2010PropOp36
 70
     1
102
RTVSPost2010Prop37
 90
       50
102
RTVSPost2010PropOp37
 70
     1
102
RTVSPost2010Prop38
140
0.0
102
RTVSPost2010PropOp38
 70
     1
102
RTVSPost2010Prop39
140
1.0
102
RTVSPost2010PropOp39
 70
     1
102
RTVSPost2010Prop40
 90
        0
102
RTVSPost2010PropOp40
 70
     1
102
RTVSPost2010Prop41ColorIndex
 90
       18
102
RTVSPost2010Prop41ColorRGB
 90
        0
102
RTVSPost2010PropOp41
 70
     1
102
RTVSPost2010Prop42
 90
       50
102
RTVSPost2010PropOp42
 70
     1
102
RTVSPost2010Prop43
 90
        3
102
RTVSPost2010PropOp43
 70
     1
102
RTVSPost2010Prop44ColorIndex
 90
        5
102
RTVSPost2010Prop44ColorRGB
 90
      255
102
RTVSPost2010PropOp44
 70
     1
102
RTVSPost2010Prop45
280
     0
102
RTVSPost2010PropOp45
 70
     1
102
RTVSPost2010Prop46
 90
       50
102
RTVSPost2010PropOp46
 70
     1
102
RTVSPost2010Prop47
 90
       50
102
RTVSPost2010PropOp47
 70
     1
102
RTVSPost2010Prop48
 90
       50
102
RTVSPost2010PropOp48
 70
     1
102
RTVSPost2010Prop49
280
     0
102
RTVSPost2010PropOp49
 70
     1
102
RTVSPost2010Prop50
 90
       50
102
RTVSPost2010PropOp50
 70
     1
102
RTVSPost2010Prop51ColorIndex
 90
      256
102
RTVSPost2010Prop51ColorRGB
 90
-16777216
102
RTVSPost2010PropOp51
 70
     0
102
RTVSPost2010Prop52
140
1.0
102
RTVSPost2010PropOp52
 70
     0
102
RTVSPost2010Prop53
 90
        2
102
RTVSPost2010PropOp53
 70
     1
102
RTVSPost2010Prop54
  1
strokes_ogs.tif
102
RTVSPost2010PropOp54
 70
     1
102
RTVSPost2010Prop55
280
     0
102
RTVSPost2010PropOp55
 70
     1
102
RTVSPost2010Prop56
140
1.0
102
RTVSPost2010PropOp56
 70
     1
102
RTVSPost2010Prop57
140
1.0
102
RTVSPost2010PropOp57
 70
     1
  0
XRECORD
  5
457
102
{ACAD_REACTORS
330
456
102
}
330
456
100
AcDbXrecord
280
     1
102
RTVSPropertyOp0
 70
     1
102
RTVSPropertyOp1
 70
     1
102
RTVSPropertyOp2
 70
     1
102
RTVSPropertyOp3
 70
     1
102
RTVSPropertyOp4
 70
     1
102
RTVSPropertyOp5
 70
     1
102
RTVSPropertyOp6
 70
     1
102
RTVSPropertyOp7
 70
     1
102
RTVSPropertyOp8
 70
     1
102
RTVSPropertyOp9
 70
     1
102
RTVSPropertyOp10
 70
     1
102
RTVSPropertyOp11
 70
     1
102
RTVSPropertyOp12
 70
     1
102
RTVSPropertyOp13
 70
     1
102
RTVSPropertyOp14
 70
     1
102
RTVSPropertyOp15
 70
     1
102
RTVSPropertyOp16
 70
     1
102
RTVSPropertyOp17
 70
     1
102
RTVSPropertyOp18
 70
     1
102
RTVSPropertyOp19
 70
     1
102
RTVSPropertyOp20
 70
     1
102
RTVSPropertyOp21
 70
     1
102
RTVSPropertyOp22
 70
     1
102
RTVSPropertyOp23
 70
     1
102
RTVSPropertyOp24
 70
     1
102
RTVSPropertyOp25
 70
     1
102
RTVSPropertyOp26
 70
     1
102
RTVSPropertyOp27
 70
     1
102
RTVSPropertyOp28
 70
     1
102
RTVSPropertyOp29
 70
     1
102
RTVSPropertyOp30
 70
     1
102
RTVSPropertyOp31
 70
     1
102
RTVSPropertyOp32
 70
     1
102
RTVSPropertyOp33
 70
     1
102
RTVSPropertyOp34
 70
     1
102
RTVSPropertyOp35
 70
     1
102
RTVSPropertyOp36
 70
     1
102
RTVSPropertyOp37
 70
     1
102
RTVSPropertyOp38
 70
     1
102
RTVSPropertyOp39
 70
     1
102
RTVSPropertyOp40
 70
     1
102
RTVSPropertyOp41
 70
     1
102
RTVSPropertyOp42
 70
     1
102
RTVSPropertyOp43
 70
     1
102
RTVSPropertyOp44
 70
     1
102
RTVSPropertyOp45
 70
     1
102
RTVSPropertyOp46
 70
     1
102
RTVSPropertyOp47
 70
     1
102
RTVSPropertyOp48
 70
     1
102
RTVSPropertyOp49
 70
     1
102
RTVSPropertyOp50
 70
     1
102
RTVSPropertyOp51
 70
     0
102
RTVSPropertyOp52
 70
     0
102
RTVSPropertyOp53
 70
     1
102
RTVSPropertyOp54
 70
     1
102
RTVSPropertyOp55
 70
     1
102
RTVSPropertyOp56
 70
     1
102
RTVSPropertyOp57
 70
     1
102
RTVSPost2010Prop28
280
     0
102
RTVSPost2010PropOp28
 70
     1
102
RTVSPost2010Prop29
280
     1
102
RTVSPost2010PropOp29
 70
     1
102
RTVSPost2010Prop30
280
     1
102
RTVSPost2010PropOp30
 70
     1
102
RTVSPost2010Prop31
280
     0
102
RTVSPost2010PropOp31
 70
     1
102
RTVSPost2010Prop32
280
     0
102
RTVSPost2010PropOp32
 70
     1
102
RTVSPost2010Prop33
280
     0
102
RTVSPost2010PropOp33
 70
     1
102
RTVSPost2010Prop34
280
     0
102
RTVSPost2010PropOp34
 70
     1
102
RTVSPost2010Prop35
280
     0
102
RTVSPost2010PropOp35
 70
     1
102
RTVSPost2010Prop36
280
     0
102
RTVSPost2010PropOp36
 70
     1
102
RTVSPost2010Prop37
 90
       50
102
RTVSPost2010PropOp37
 70
     1
102
RTVSPost2010Prop38
140
0.0
102
RTVSPost2010PropOp38
 70
     1
102
RTVSPost2010Prop39
140
1.0
102
RTVSPost2010PropOp39
 70
     1
102
RTVSPost2010Prop40
 90
        0
102
RTVSPost2010PropOp40
 70
     1
102
RTVSPost2010Prop41ColorIndex
 90
       18
102
RTVSPost2010Prop41ColorRGB
 90
        0
102
RTVSPost2010PropOp41
 70
     1
102
RTVSPost2010Prop42
 90
       50
102
RTVSPost2010PropOp42
 70
     1
102
RTVSPost2010Prop43
 90
        3
102
RTVSPost2010PropOp43
 70
     1
102
RTVSPost2010Prop44ColorIndex
 90
        5
102
RTVSPost2010Prop44ColorRGB
 90
      255
102
RTVSPost2010PropOp44
 70
     1
102
RTVSPost2010Prop45
280
     0
102
RTVSPost2010PropOp45
 70
     1
102
RTVSPost2010Prop46
 90
       50
102
RTVSPost2010PropOp46
 70
     1
102
RTVSPost2010Prop47
 90
       50
102
RTVSPost2010PropOp47
 70
     1
102
RTVSPost2010Prop48
 90
       50
102
RTVSPost2010PropOp48
 70
     1
102
RTVSPost2010Prop49
280
     0
102
RTVSPost2010PropOp49
 70
     1
102
RTVSPost2010Prop50
 90
       50
102
RTVSPost2010PropOp50
 70
     1
102
RTVSPost2010Prop51ColorIndex
 90
      256
102
RTVSPost2010Prop51ColorRGB
 90
-16777216
102
RTVSPost2010PropOp51
 70
     0
102
RTVSPost2010Prop52
140
1.0
102
RTVSPost2010PropOp52
 70
     0
102
RTVSPost2010Prop53
 90
        2
102
RTVSPost2010PropOp53
 70
     1
102
RTVSPost2010Prop54
  1
strokes_ogs.tif
102
RTVSPost2010PropOp54
 70
     1
102
RTVSPost2010Prop55
280
     0
102
RTVSPost2010PropOp55
 70
     1
102
RTVSPost2010Prop56
140
1.0
102
RTVSPost2010PropOp56
 70
     1
102
RTVSPost2010Prop57
140
1.0
102
RTVSPost2010PropOp57
 70
     1
  0
XRECORD
  5
459
102
{ACAD_REACTORS
330
458
102
}
330
458
100
AcDbXrecord
280
     1
102
RTVSPropertyOp0
 70
     1
102
RTVSPropertyOp1
 70
     1
102
RTVSPropertyOp2
 70
     1
102
RTVSPropertyOp3
 70
     1
102
RTVSPropertyOp4
 70
     1
102
RTVSPropertyOp5
 70
     1
102
RTVSPropertyOp6
 70
     1
102
RTVSPropertyOp7
 70
     1
102
RTVSPropertyOp8
 70
     1
102
RTVSPropertyOp9
 70
     1
102
RTVSPropertyOp10
 70
     1
102
RTVSPropertyOp11
 70
     1
102
RTVSPropertyOp12
 70
     1
102
RTVSPropertyOp13
 70
     1
102
RTVSPropertyOp14
 70
     1
102
RTVSPropertyOp15
 70
     1
102
RTVSPropertyOp16
 70
     1
102
RTVSPropertyOp17
 70
     1
102
RTVSPropertyOp18
 70
     1
102
RTVSPropertyOp19
 70
     1
102
RTVSPropertyOp20
 70
     1
102
RTVSPropertyOp21
 70
     1
102
RTVSPropertyOp22
 70
     1
102
RTVSPropertyOp23
 70
     1
102
RTVSPropertyOp24
 70
     1
102
RTVSPropertyOp25
 70
     1
102
RTVSPropertyOp26
 70
     1
102
RTVSPropertyOp27
 70
     1
102
RTVSPropertyOp28
 70
     1
102
RTVSPropertyOp29
 70
     1
102
RTVSPropertyOp30
 70
     1
102
RTVSPropertyOp31
 70
     1
102
RTVSPropertyOp32
 70
     1
102
RTVSPropertyOp33
 70
     1
102
RTVSPropertyOp34
 70
     1
102
RTVSPropertyOp35
 70
     1
102
RTVSPropertyOp36
 70
     1
102
RTVSPropertyOp37
 70
     1
102
RTVSPropertyOp38
 70
     1
102
RTVSPropertyOp39
 70
     1
102
RTVSPropertyOp40
 70
     1
102
RTVSPropertyOp41
 70
     1
102
RTVSPropertyOp42
 70
     1
102
RTVSPropertyOp43
 70
     1
102
RTVSPropertyOp44
 70
     1
102
RTVSPropertyOp45
 70
     1
102
RTVSPropertyOp46
 70
     1
102
RTVSPropertyOp47
 70
     1
102
RTVSPropertyOp48
 70
     1
102
RTVSPropertyOp49
 70
     1
102
RTVSPropertyOp50
 70
     1
102
RTVSPropertyOp51
 70
     0
102
RTVSPropertyOp52
 70
     0
102
RTVSPropertyOp53
 70
     1
102
RTVSPropertyOp54
 70
     1
102
RTVSPropertyOp55
 70
     1
102
RTVSPropertyOp56
 70
     1
102
RTVSPropertyOp57
 70
     1
102
RTVSPost2010Prop28
280
     0
102
RTVSPost2010PropOp28
 70
     1
102
RTVSPost2010Prop29
280
     1
102
RTVSPost2010PropOp29
 70
     1
102
RTVSPost2010Prop30
280
     1
102
RTVSPost2010PropOp30
 70
     1
102
RTVSPost2010Prop31
280
     0
102
RTVSPost2010PropOp31
 70
     1
102
RTVSPost2010Prop32
280
     0
102
RTVSPost2010PropOp32
 70
     1
102
RTVSPost2010Prop33
280
     0
102
RTVSPost2010PropOp33
 70
     1
102
RTVSPost2010Prop34
280
     0
102
RTVSPost2010PropOp34
 70
     1
102
RTVSPost2010Prop35
280
     0
102
RTVSPost2010PropOp35
 70
     1
102
RTVSPost2010Prop36
280
     0
102
RTVSPost2010PropOp36
 70
     1
102
RTVSPost2010Prop37
 90
       50
102
RTVSPost2010PropOp37
 70
     1
102
RTVSPost2010Prop38
140
0.0
102
RTVSPost2010PropOp38
 70
     1
102
RTVSPost2010Prop39
140
1.0
102
RTVSPost2010PropOp39
 70
     1
102
RTVSPost2010Prop40
 90
        0
102
RTVSPost2010PropOp40
 70
     1
102
RTVSPost2010Prop41ColorIndex
 90
       18
102
RTVSPost2010Prop41ColorRGB
 90
        0
102
RTVSPost2010PropOp41
 70
     1
102
RTVSPost2010Prop42
 90
       50
102
RTVSPost2010PropOp42
 70
     1
102
RTVSPost2010Prop43
 90
        3
102
RTVSPost2010PropOp43
 70
     1
102
RTVSPost2010Prop44ColorIndex
 90
        5
102
RTVSPost2010Prop44ColorRGB
 90
      255
102
RTVSPost2010PropOp44
 70
     1
102
RTVSPost2010Prop45
280
     0
102
RTVSPost2010PropOp45
 70
     1
102
RTVSPost2010Prop46
 90
       50
102
RTVSPost2010PropOp46
 70
     1
102
RTVSPost2010Prop47
 90
       50
102
RTVSPost2010PropOp47
 70
     1
102
RTVSPost2010Prop48
 90
       50
102
RTVSPost2010PropOp48
 70
     1
102
RTVSPost2010Prop49
280
     0
102
RTVSPost2010PropOp49
 70
     1
102
RTVSPost2010Prop50
 90
       50
102
RTVSPost2010PropOp50
 70
     1
102
RTVSPost2010Prop51ColorIndex
 90
      256
102
RTVSPost2010Prop51ColorRGB
 90
-16777216
102
RTVSPost2010PropOp51
 70
     0
102
RTVSPost2010Prop52
140
1.0
102
RTVSPost2010PropOp52
 70
     0
102
RTVSPost2010Prop53
 90
        2
102
RTVSPost2010PropOp53
 70
     1
102
RTVSPost2010Prop54
  1
strokes_ogs.tif
102
RTVSPost2010PropOp54
 70
     1
102
RTVSPost2010Prop55
280
     0
102
RTVSPost2010PropOp55
 70
     1
102
RTVSPost2010Prop56
140
1.0
102
RTVSPost2010PropOp56
 70
     1
102
RTVSPost2010Prop57
140
1.0
102
RTVSPost2010PropOp57
 70
     1
  0
XRECORD
  5
45B
102
{ACAD_REACTORS
330
45A
102
}
330
45A
100
AcDbXrecord
280
     1
102
RTVSPropertyOp0
 70
     1
102
RTVSPropertyOp1
 70
     1
102
RTVSPropertyOp2
 70
     1
102
RTVSPropertyOp3
 70
     1
102
RTVSPropertyOp4
 70
     1
102
RTVSPropertyOp5
 70
     1
102
RTVSPropertyOp6
 70
     1
102
RTVSPropertyOp7
 70
     1
102
RTVSPropertyOp8
 70
     1
102
RTVSPropertyOp9
 70
     1
102
RTVSPropertyOp10
 70
     1
102
RTVSPropertyOp11
 70
     1
102
RTVSPropertyOp12
 70
     1
102
RTVSPropertyOp13
 70
     1
102
RTVSPropertyOp14
 70
     1
102
RTVSPropertyOp15
 70
     1
102
RTVSPropertyOp16
 70
     1
102
RTVSPropertyOp17
 70
     1
102
RTVSPropertyOp18
 70
     1
102
RTVSPropertyOp19
 70
     1
102
RTVSPropertyOp20
 70
     1
102
RTVSPropertyOp21
 70
     1
102
RTVSPropertyOp22
 70
     1
102
RTVSPropertyOp23
 70
     1
102
RTVSPropertyOp24
 70
     1
102
RTVSPropertyOp25
 70
     1
102
RTVSPropertyOp26
 70
     1
102
RTVSPropertyOp27
 70
     1
102
RTVSPropertyOp28
 70
     1
102
RTVSPropertyOp29
 70
     1
102
RTVSPropertyOp30
 70
     1
102
RTVSPropertyOp31
 70
     1
102
RTVSPropertyOp32
 70
     1
102
RTVSPropertyOp33
 70
     1
102
RTVSPropertyOp34
 70
     1
102
RTVSPropertyOp35
 70
     1
102
RTVSPropertyOp36
 70
     1
102
RTVSPropertyOp37
 70
     1
102
RTVSPropertyOp38
 70
     1
102
RTVSPropertyOp39
 70
     1
102
RTVSPropertyOp40
 70
     1
102
RTVSPropertyOp41
 70
     1
102
RTVSPropertyOp42
 70
     1
102
RTVSPropertyOp43
 70
     1
102
RTVSPropertyOp44
 70
     1
102
RTVSPropertyOp45
 70
     1
102
RTVSPropertyOp46
 70
     1
102
RTVSPropertyOp47
 70
     1
102
RTVSPropertyOp48
 70
     1
102
RTVSPropertyOp49
 70
     1
102
RTVSPropertyOp50
 70
     1
102
RTVSPropertyOp51
 70
     0
102
RTVSPropertyOp52
 70
     0
102
RTVSPropertyOp53
 70
     1
102
RTVSPropertyOp54
 70
     1
102
RTVSPropertyOp55
 70
     1
102
RTVSPropertyOp56
 70
     1
102
RTVSPropertyOp57
 70
     1
102
RTVSPost2010Prop28
280
     0
102
RTVSPost2010PropOp28
 70
     1
102
RTVSPost2010Prop29
280
     1
102
RTVSPost2010PropOp29
 70
     1
102
RTVSPost2010Prop30
280
     1
102
RTVSPost2010PropOp30
 70
     1
102
RTVSPost2010Prop31
280
     0
102
RTVSPost2010PropOp31
 70
     1
102
RTVSPost2010Prop32
280
     0
102
RTVSPost2010PropOp32
 70
     1
102
RTVSPost2010Prop33
280
     0
102
RTVSPost2010PropOp33
 70
     1
102
RTVSPost2010Prop34
280
     0
102
RTVSPost2010PropOp34
 70
     1
102
RTVSPost2010Prop35
280
     0
102
RTVSPost2010PropOp35
 70
     1
102
RTVSPost2010Prop36
280
     0
102
RTVSPost2010PropOp36
 70
     1
102
RTVSPost2010Prop37
 90
       50
102
RTVSPost2010PropOp37
 70
     1
102
RTVSPost2010Prop38
140
0.0
102
RTVSPost2010PropOp38
 70
     1
102
RTVSPost2010Prop39
140
1.0
102
RTVSPost2010PropOp39
 70
     1
102
RTVSPost2010Prop40
 90
        0
102
RTVSPost2010PropOp40
 70
     1
102
RTVSPost2010Prop41ColorIndex
 90
       18
102
RTVSPost2010Prop41ColorRGB
 90
        0
102
RTVSPost2010PropOp41
 70
     1
102
RTVSPost2010Prop42
 90
       50
102
RTVSPost2010PropOp42
 70
     1
102
RTVSPost2010Prop43
 90
        3
102
RTVSPost2010PropOp43
 70
     1
102
RTVSPost2010Prop44ColorIndex
 90
        5
102
RTVSPost2010Prop44ColorRGB
 90
      255
102
RTVSPost2010PropOp44
 70
     1
102
RTVSPost2010Prop45
280
     0
102
RTVSPost2010PropOp45
 70
     1
102
RTVSPost2010Prop46
 90
       50
102
RTVSPost2010PropOp46
 70
     1
102
RTVSPost2010Prop47
 90
       50
102
RTVSPost2010PropOp47
 70
     1
102
RTVSPost2010Prop48
 90
       50
102
RTVSPost2010PropOp48
 70
     1
102
RTVSPost2010Prop49
280
     0
102
RTVSPost2010PropOp49
 70
     1
102
RTVSPost2010Prop50
 90
       50
102
RTVSPost2010PropOp50
 70
     1
102
RTVSPost2010Prop51ColorIndex
 90
      256
102
RTVSPost2010Prop51ColorRGB
 90
-16777216
102
RTVSPost2010PropOp51
 70
     0
102
RTVSPost2010Prop52
140
1.0
102
RTVSPost2010PropOp52
 70
     0
102
RTVSPost2010Prop53
 90
        2
102
RTVSPost2010PropOp53
 70
     1
102
RTVSPost2010Prop54
  1
strokes_ogs.tif
102
RTVSPost2010PropOp54
 70
     1
102
RTVSPost2010Prop55
280
     0
102
RTVSPost2010PropOp55
 70
     1
102
RTVSPost2010Prop56
140
1.0
102
RTVSPost2010PropOp56
 70
     1
102
RTVSPost2010Prop57
140
1.0
102
RTVSPost2010PropOp57
 70
     1
  0
XRECORD
  5
46F
102
{ACAD_REACTORS
330
46E
102
}
330
46E
100
AcDbXrecord
280
     1
102
RTVSPropertyOp0
 70
     1
102
RTVSPropertyOp1
 70
     1
102
RTVSPropertyOp2
 70
     1
102
RTVSPropertyOp3
 70
     1
102
RTVSPropertyOp4
 70
     1
102
RTVSPropertyOp5
 70
     1
102
RTVSPropertyOp6
 70
     1
102
RTVSPropertyOp7
 70
     1
102
RTVSPropertyOp8
 70
     1
102
RTVSPropertyOp9
 70
     1
102
RTVSPropertyOp10
 70
     1
102
RTVSPropertyOp11
 70
     1
102
RTVSPropertyOp12
 70
     1
102
RTVSPropertyOp13
 70
     1
102
RTVSPropertyOp14
 70
     1
102
RTVSPropertyOp15
 70
     1
102
RTVSPropertyOp16
 70
     1
102
RTVSPropertyOp17
 70
     1
102
RTVSPropertyOp18
 70
     1
102
RTVSPropertyOp19
 70
     1
102
RTVSPropertyOp20
 70
     1
102
RTVSPropertyOp21
 70
     1
102
RTVSPropertyOp22
 70
     1
102
RTVSPropertyOp23
 70
     1
102
RTVSPropertyOp24
 70
     1
102
RTVSPropertyOp25
 70
     1
102
RTVSPropertyOp26
 70
     1
102
RTVSPropertyOp27
 70
     1
102
RTVSPropertyOp28
 70
     1
102
RTVSPropertyOp29
 70
     1
102
RTVSPropertyOp30
 70
     1
102
RTVSPropertyOp31
 70
     1
102
RTVSPropertyOp32
 70
     1
102
RTVSPropertyOp33
 70
     1
102
RTVSPropertyOp34
 70
     1
102
RTVSPropertyOp35
 70
     1
102
RTVSPropertyOp36
 70
     1
102
RTVSPropertyOp37
 70
     1
102
RTVSPropertyOp38
 70
     1
102
RTVSPropertyOp39
 70
     1
102
RTVSPropertyOp40
 70
     1
102
RTVSPropertyOp41
 70
     1
102
RTVSPropertyOp42
 70
     1
102
RTVSPropertyOp43
 70
     1
102
RTVSPropertyOp44
 70
     1
102
RTVSPropertyOp45
 70
     1
102
RTVSPropertyOp46
 70
     1
102
RTVSPropertyOp47
 70
     1
102
RTVSPropertyOp48
 70
     1
102
RTVSPropertyOp49
 70
     1
102
RTVSPropertyOp50
 70
     1
102
RTVSPropertyOp51
 70
     0
102
RTVSPropertyOp52
 70
     0
102
RTVSPropertyOp53
 70
     1
102
RTVSPropertyOp54
 70
     1
102
RTVSPropertyOp55
 70
     1
102
RTVSPropertyOp56
 70
     1
102
RTVSPropertyOp57
 70
     1
102
RTVSPost2010Prop28
280
     0
102
RTVSPost2010PropOp28
 70
     1
102
RTVSPost2010Prop29
280
     1
102
RTVSPost2010PropOp29
 70
     1
102
RTVSPost2010Prop30
280
     1
102
RTVSPost2010PropOp30
 70
     1
102
RTVSPost2010Prop31
280
     0
102
RTVSPost2010PropOp31
 70
     1
102
RTVSPost2010Prop32
280
     0
102
RTVSPost2010PropOp32
 70
     1
102
RTVSPost2010Prop33
280
     0
102
RTVSPost2010PropOp33
 70
     1
102
RTVSPost2010Prop34
280
     0
102
RTVSPost2010PropOp34
 70
     1
102
RTVSPost2010Prop35
280
     0
102
RTVSPost2010PropOp35
 70
     1
102
RTVSPost2010Prop36
280
     0
102
RTVSPost2010PropOp36
 70
     1
102
RTVSPost2010Prop37
 90
       50
102
RTVSPost2010PropOp37
 70
     1
102
RTVSPost2010Prop38
140
0.0
102
RTVSPost2010PropOp38
 70
     1
102
RTVSPost2010Prop39
140
1.0
102
RTVSPost2010PropOp39
 70
     1
102
RTVSPost2010Prop40
 90
        0
102
RTVSPost2010PropOp40
 70
     1
102
RTVSPost2010Prop41ColorIndex
 90
       18
102
RTVSPost2010Prop41ColorRGB
 90
        0
102
RTVSPost2010PropOp41
 70
     1
102
RTVSPost2010Prop42
 90
       50
102
RTVSPost2010PropOp42
 70
     1
102
RTVSPost2010Prop43
 90
        3
102
RTVSPost2010PropOp43
 70
     1
102
RTVSPost2010Prop44ColorIndex
 90
        5
102
RTVSPost2010Prop44ColorRGB
 90
      255
102
RTVSPost2010PropOp44
 70
     1
102
RTVSPost2010Prop45
280
     0
102
RTVSPost2010PropOp45
 70
     1
102
RTVSPost2010Prop46
 90
       50
102
RTVSPost2010PropOp46
 70
     1
102
RTVSPost2010Prop47
 90
       50
102
RTVSPost2010PropOp47
 70
     1
102
RTVSPost2010Prop48
 90
       50
102
RTVSPost2010PropOp48
 70
     1
102
RTVSPost2010Prop49
280
     0
102
RTVSPost2010PropOp49
 70
     1
102
RTVSPost2010Prop50
 90
       50
102
RTVSPost2010PropOp50
 70
     1
102
RTVSPost2010Prop51ColorIndex
 90
      256
102
RTVSPost2010Prop51ColorRGB
 90
-16777216
102
RTVSPost2010PropOp51
 70
     0
102
RTVSPost2010Prop52
140
1.0
102
RTVSPost2010PropOp52
 70
     0
102
RTVSPost2010Prop53
 90
        2
102
RTVSPost2010PropOp53
 70
     1
102
RTVSPost2010Prop54
  1
strokes_ogs.tif
102
RTVSPost2010PropOp54
 70
     1
102
RTVSPost2010Prop55
280
     0
102
RTVSPost2010PropOp55
 70
     1
102
RTVSPost2010Prop56
140
1.0
102
RTVSPost2010PropOp56
 70
     1
102
RTVSPost2010Prop57
140
1.0
102
RTVSPost2010PropOp57
 70
     1
  0
XRECORD
  5
465
102
{ACAD_REACTORS
330
464
102
}
330
464
100
AcDbXrecord
280
     1
102
RTVSPropertyOp0
 70
     1
102
RTVSPropertyOp1
 70
     1
102
RTVSPropertyOp2
 70
     1
102
RTVSPropertyOp3
 70
     1
102
RTVSPropertyOp4
 70
     1
102
RTVSPropertyOp5
 70
     1
102
RTVSPropertyOp6
 70
     1
102
RTVSPropertyOp7
 70
     1
102
RTVSPropertyOp8
 70
     1
102
RTVSPropertyOp9
 70
     1
102
RTVSPropertyOp10
 70
     1
102
RTVSPropertyOp11
 70
     1
102
RTVSPropertyOp12
 70
     1
102
RTVSPropertyOp13
 70
     1
102
RTVSPropertyOp14
 70
     1
102
RTVSPropertyOp15
 70
     1
102
RTVSPropertyOp16
 70
     1
102
RTVSPropertyOp17
 70
     1
102
RTVSPropertyOp18
 70
     1
102
RTVSPropertyOp19
 70
     1
102
RTVSPropertyOp20
 70
     1
102
RTVSPropertyOp21
 70
     1
102
RTVSPropertyOp22
 70
     1
102
RTVSPropertyOp23
 70
     1
102
RTVSPropertyOp24
 70
     1
102
RTVSPropertyOp25
 70
     1
102
RTVSPropertyOp26
 70
     1
102
RTVSPropertyOp27
 70
     1
102
RTVSPropertyOp28
 70
     1
102
RTVSPropertyOp29
 70
     1
102
RTVSPropertyOp30
 70
     1
102
RTVSPropertyOp31
 70
     1
102
RTVSPropertyOp32
 70
     1
102
RTVSPropertyOp33
 70
     1
102
RTVSPropertyOp34
 70
     1
102
RTVSPropertyOp35
 70
     1
102
RTVSPropertyOp36
 70
     1
102
RTVSPropertyOp37
 70
     1
102
RTVSPropertyOp38
 70
     1
102
RTVSPropertyOp39
 70
     1
102
RTVSPropertyOp40
 70
     1
102
RTVSPropertyOp41
 70
     1
102
RTVSPropertyOp42
 70
     1
102
RTVSPropertyOp43
 70
     1
102
RTVSPropertyOp44
 70
     1
102
RTVSPropertyOp45
 70
     1
102
RTVSPropertyOp46
 70
     1
102
RTVSPropertyOp47
 70
     1
102
RTVSPropertyOp48
 70
     1
102
RTVSPropertyOp49
 70
     1
102
RTVSPropertyOp50
 70
     1
102
RTVSPropertyOp51
 70
     0
102
RTVSPropertyOp52
 70
     0
102
RTVSPropertyOp53
 70
     1
102
RTVSPropertyOp54
 70
     1
102
RTVSPropertyOp55
 70
     1
102
RTVSPropertyOp56
 70
     1
102
RTVSPropertyOp57
 70
     1
102
RTVSPost2010Prop28
280
     0
102
RTVSPost2010PropOp28
 70
     1
102
RTVSPost2010Prop29
280
     1
102
RTVSPost2010PropOp29
 70
     1
102
RTVSPost2010Prop30
280
     1
102
RTVSPost2010PropOp30
 70
     1
102
RTVSPost2010Prop31
280
     0
102
RTVSPost2010PropOp31
 70
     1
102
RTVSPost2010Prop32
280
     0
102
RTVSPost2010PropOp32
 70
     1
102
RTVSPost2010Prop33
280
     0
102
RTVSPost2010PropOp33
 70
     1
102
RTVSPost2010Prop34
280
     0
102
RTVSPost2010PropOp34
 70
     1
102
RTVSPost2010Prop35
280
     0
102
RTVSPost2010PropOp35
 70
     1
102
RTVSPost2010Prop36
280
     0
102
RTVSPost2010PropOp36
 70
     1
102
RTVSPost2010Prop37
 90
       50
102
RTVSPost2010PropOp37
 70
     1
102
RTVSPost2010Prop38
140
0.0
102
RTVSPost2010PropOp38
 70
     1
102
RTVSPost2010Prop39
140
1.0
102
RTVSPost2010PropOp39
 70
     1
102
RTVSPost2010Prop40
 90
        0
102
RTVSPost2010PropOp40
 70
     1
102
RTVSPost2010Prop41ColorIndex
 90
       18
102
RTVSPost2010Prop41ColorRGB
 90
        0
102
RTVSPost2010PropOp41
 70
     1
102
RTVSPost2010Prop42
 90
       50
102
RTVSPost2010PropOp42
 70
     1
102
RTVSPost2010Prop43
 90
        3
102
RTVSPost2010PropOp43
 70
     1
102
RTVSPost2010Prop44ColorIndex
 90
        5
102
RTVSPost2010Prop44ColorRGB
 90
      255
102
RTVSPost2010PropOp44
 70
     1
102
RTVSPost2010Prop45
280
     0
102
RTVSPost2010PropOp45
 70
     1
102
RTVSPost2010Prop46
 90
       50
102
RTVSPost2010PropOp46
 70
     1
102
RTVSPost2010Prop47
 90
       50
102
RTVSPost2010PropOp47
 70
     1
102
RTVSPost2010Prop48
 90
       50
102
RTVSPost2010PropOp48
 70
     1
102
RTVSPost2010Prop49
280
     0
102
RTVSPost2010PropOp49
 70
     1
102
RTVSPost2010Prop50
 90
       50
102
RTVSPost2010PropOp50
 70
     1
102
RTVSPost2010Prop51ColorIndex
 90
      256
102
RTVSPost2010Prop51ColorRGB
 90
-16777216
102
RTVSPost2010PropOp51
 70
     0
102
RTVSPost2010Prop52
140
1.0
102
RTVSPost2010PropOp52
 70
     0
102
RTVSPost2010Prop53
 90
        2
102
RTVSPost2010PropOp53
 70
     1
102
RTVSPost2010Prop54
  1
strokes_ogs.tif
102
RTVSPost2010PropOp54
 70
     1
102
RTVSPost2010Prop55
280
     0
102
RTVSPost2010PropOp55
 70
     1
102
RTVSPost2010Prop56
140
1.0
102
RTVSPost2010PropOp56
 70
     1
102
RTVSPost2010Prop57
140
1.0
102
RTVSPost2010PropOp57
 70
     1
  0
XRECORD
  5
46D
102
{ACAD_REACTORS
330
46C
102
}
330
46C
100
AcDbXrecord
280
     1
102
RTVSPropertyOp0
 70
     1
102
RTVSPropertyOp1
 70
     1
102
RTVSPropertyOp2
 70
     1
102
RTVSPropertyOp3
 70
     1
102
RTVSPropertyOp4
 70
     1
102
RTVSPropertyOp5
 70
     1
102
RTVSPropertyOp6
 70
     1
102
RTVSPropertyOp7
 70
     1
102
RTVSPropertyOp8
 70
     1
102
RTVSPropertyOp9
 70
     1
102
RTVSPropertyOp10
 70
     1
102
RTVSPropertyOp11
 70
     1
102
RTVSPropertyOp12
 70
     1
102
RTVSPropertyOp13
 70
     1
102
RTVSPropertyOp14
 70
     1
102
RTVSPropertyOp15
 70
     1
102
RTVSPropertyOp16
 70
     1
102
RTVSPropertyOp17
 70
     1
102
RTVSPropertyOp18
 70
     1
102
RTVSPropertyOp19
 70
     1
102
RTVSPropertyOp20
 70
     1
102
RTVSPropertyOp21
 70
     1
102
RTVSPropertyOp22
 70
     1
102
RTVSPropertyOp23
 70
     1
102
RTVSPropertyOp24
 70
     1
102
RTVSPropertyOp25
 70
     1
102
RTVSPropertyOp26
 70
     1
102
RTVSPropertyOp27
 70
     1
102
RTVSPropertyOp28
 70
     1
102
RTVSPropertyOp29
 70
     1
102
RTVSPropertyOp30
 70
     1
102
RTVSPropertyOp31
 70
     1
102
RTVSPropertyOp32
 70
     1
102
RTVSPropertyOp33
 70
     1
102
RTVSPropertyOp34
 70
     1
102
RTVSPropertyOp35
 70
     1
102
RTVSPropertyOp36
 70
     1
102
RTVSPropertyOp37
 70
     1
102
RTVSPropertyOp38
 70
     1
102
RTVSPropertyOp39
 70
     1
102
RTVSPropertyOp40
 70
     1
102
RTVSPropertyOp41
 70
     1
102
RTVSPropertyOp42
 70
     1
102
RTVSPropertyOp43
 70
     1
102
RTVSPropertyOp44
 70
     1
102
RTVSPropertyOp45
 70
     1
102
RTVSPropertyOp46
 70
     1
102
RTVSPropertyOp47
 70
     1
102
RTVSPropertyOp48
 70
     1
102
RTVSPropertyOp49
 70
     1
102
RTVSPropertyOp50
 70
     1
102
RTVSPropertyOp51
 70
     0
102
RTVSPropertyOp52
 70
     0
102
RTVSPropertyOp53
 70
     1
102
RTVSPropertyOp54
 70
     1
102
RTVSPropertyOp55
 70
     1
102
RTVSPropertyOp56
 70
     1
102
RTVSPropertyOp57
 70
     1
102
RTVSPost2010Prop28
280
     0
102
RTVSPost2010PropOp28
 70
     1
102
RTVSPost2010Prop29
280
     1
102
RTVSPost2010PropOp29
 70
     1
102
RTVSPost2010Prop30
280
     1
102
RTVSPost2010PropOp30
 70
     1
102
RTVSPost2010Prop31
280
     0
102
RTVSPost2010PropOp31
 70
     1
102
RTVSPost2010Prop32
280
     0
102
RTVSPost2010PropOp32
 70
     1
102
RTVSPost2010Prop33
280
     0
102
RTVSPost2010PropOp33
 70
     1
102
RTVSPost2010Prop34
280
     0
102
RTVSPost2010PropOp34
 70
     1
102
RTVSPost2010Prop35
280
     0
102
RTVSPost2010PropOp35
 70
     1
102
RTVSPost2010Prop36
280
     0
102
RTVSPost2010PropOp36
 70
     1
102
RTVSPost2010Prop37
 90
       50
102
RTVSPost2010PropOp37
 70
     1
102
RTVSPost2010Prop38
140
0.0
102
RTVSPost2010PropOp38
 70
     1
102
RTVSPost2010Prop39
140
1.0
102
RTVSPost2010PropOp39
 70
     1
102
RTVSPost2010Prop40
 90
        0
102
RTVSPost2010PropOp40
 70
     1
102
RTVSPost2010Prop41ColorIndex
 90
       18
102
RTVSPost2010Prop41ColorRGB
 90
        0
102
RTVSPost2010PropOp41
 70
     1
102
RTVSPost2010Prop42
 90
       50
102
RTVSPost2010PropOp42
 70
     1
102
RTVSPost2010Prop43
 90
        3
102
RTVSPost2010PropOp43
 70
     1
102
RTVSPost2010Prop44ColorIndex
 90
        5
102
RTVSPost2010Prop44ColorRGB
 90
      255
102
RTVSPost2010PropOp44
 70
     1
102
RTVSPost2010Prop45
280
     0
102
RTVSPost2010PropOp45
 70
     1
102
RTVSPost2010Prop46
 90
       50
102
RTVSPost2010PropOp46
 70
     1
102
RTVSPost2010Prop47
 90
       50
102
RTVSPost2010PropOp47
 70
     1
102
RTVSPost2010Prop48
 90
       50
102
RTVSPost2010PropOp48
 70
     1
102
RTVSPost2010Prop49
280
     0
102
RTVSPost2010PropOp49
 70
     1
102
RTVSPost2010Prop50
 90
       50
102
RTVSPost2010PropOp50
 70
     1
102
RTVSPost2010Prop51ColorIndex
 90
      256
102
RTVSPost2010Prop51ColorRGB
 90
-16777216
102
RTVSPost2010PropOp51
 70
     0
102
RTVSPost2010Prop52
140
1.0
102
RTVSPost2010PropOp52
 70
     0
102
RTVSPost2010Prop53
 90
        2
102
RTVSPost2010PropOp53
 70
     1
102
RTVSPost2010Prop54
  1
strokes_ogs.tif
102
RTVSPost2010PropOp54
 70
     1
102
RTVSPost2010Prop55
280
     0
102
RTVSPost2010PropOp55
 70
     1
102
RTVSPost2010Prop56
140
1.0
102
RTVSPost2010PropOp56
 70
     1
102
RTVSPost2010Prop57
140
1.0
102
RTVSPost2010PropOp57
 70
     1
  0
ENDSEC
  0
EOF
