  0
SECTION
  2
HEADER
  9
$ACADVER
  1
AC1018
  9
$ACADMAINTVER
 70
     0
  9
$DWGCODEPAGE
  3
ANSI_936
  9
$INSBASE
 10
0.0
 20
0.0
 30
0.0
  9
$EXTMIN
 10
877.5247669089224
 20
508.3101841083326
 30
0.0
  9
$EXTMAX
 10
1017.542477233842
 20
715.3102619216057
 30
0.0
  9
$LIMMIN
 10
0.0
 20
0.0
  9
$LIMMAX
 10
12.0
 20
9.0
  9
$ORTHOMODE
 70
     0
  9
$REGENMODE
 70
     1
  9
$FILLMODE
 70
     1
  9
$QTEXTMODE
 70
     0
  9
$MIRRTEXT
 70
     1
  9
$LTSCALE
 40
1.0
  9
$ATTMODE
 70
     1
  9
$TEXTSIZE
 40
0.2
  9
$TRACEWID
 40
0.05
  9
$TEXTSTYLE
  7
Standard
  9
$CLAYER
  8
0
  9
$CELTYPE
  6
ByLayer
  9
$CECOLOR
 62
   256
  9
$CELTSCALE
 40
1.0
  9
$DISPSILH
 70
     0
  9
$DIMSCALE
 40
1.0
  9
$DIMASZ
 40
0.18
  9
$DIMEXO
 40
0.0625
  9
$DIMDLI
 40
0.38
  9
$DIMRND
 40
0.0
  9
$DIMDLE
 40
0.0
  9
$DIMEXE
 40
0.18
  9
$DIMTP
 40
0.0
  9
$DIMTM
 40
0.0
  9
$DIMTXT
 40
0.18
  9
$DIMCEN
 40
0.09
  9
$DIMTSZ
 40
0.0
  9
$DIMTOL
 70
     0
  9
$DIMLIM
 70
     0
  9
$DIMTIH
 70
     1
  9
$DIMTOH
 70
     1
  9
$DIMSE1
 70
     0
  9
$DIMSE2
 70
     0
  9
$DIMTAD
 70
     0
  9
$DIMZIN
 70
     0
  9
$DIMBLK
  1

  9
$DIMASO
 70
     1
  9
$DIMSHO
 70
     1
  9
$DIMPOST
  1

  9
$DIMAPOST
  1

  9
$DIMALT
 70
     0
  9
$DIMALTD
 70
     2
  9
$DIMALTF
 40
25.4
  9
$DIMLFAC
 40
1.0
  9
$DIMTOFL
 70
     0
  9
$DIMTVP
 40
0.0
  9
$DIMTIX
 70
     0
  9
$DIMSOXD
 70
     0
  9
$DIMSAH
 70
     0
  9
$DIMBLK1
  1

  9
$DIMBLK2
  1

  9
$DIMSTYLE
  2
Standard
  9
$DIMCLRD
 70
     0
  9
$DIMCLRE
 70
     0
  9
$DIMCLRT
 70
     0
  9
$DIMTFAC
 40
1.0
  9
$DIMGAP
 40
0.09
  9
$DIMJUST
 70
     0
  9
$DIMSD1
 70
     0
  9
$DIMSD2
 70
     0
  9
$DIMTOLJ
 70
     1
  9
$DIMTZIN
 70
     0
  9
$DIMALTZ
 70
     0
  9
$DIMALTTZ
 70
     0
  9
$DIMUPT
 70
     0
  9
$DIMDEC
 70
     4
  9
$DIMTDEC
 70
     4
  9
$DIMALTU
 70
     2
  9
$DIMALTTD
 70
     2
  9
$DIMTXSTY
  7
Standard
  9
$DIMAUNIT
 70
     0
  9
$DIMADEC
 70
     0
  9
$DIMALTRND
 40
0.0
  9
$DIMAZIN
 70
     0
  9
$DIMDSEP
 70
    46
  9
$DIMATFIT
 70
     3
  9
$DIMFRAC
 70
     0
  9
$DIMLDRBLK
  1

  9
$DIMLUNIT
 70
     2
  9
$DIMLWD
 70
    -2
  9
$DIMLWE
 70
    -2
  9
$DIMTMOVE
 70
     2
  9
$LUNITS
 70
     2
  9
$LUPREC
 70
     2
  9
$SKETCHINC
 40
0.1
  9
$FILLETRAD
 40
0.5
  9
$AUNITS
 70
     0
  9
$AUPREC
 70
     0
  9
$MENU
  1
.
  9
$ELEVATION
 40
0.0
  9
$PELEVATION
 40
0.0
  9
$THICKNESS
 40
0.0
  9
$LIMCHECK
 70
     0
  9
$CHAMFERA
 40
0.5
  9
$CHAMFERB
 40
0.5
  9
$CHAMFERC
 40
1.0
  9
$CHAMFERD
 40
0.0
  9
$SKPOLY
 70
     0
  9
$TDCREATE
 40
2456701.551524931
  9
$TDUCREATE
 40
2456701.218191597
  9
$TDUPDATE
 40
2456701.551526724
  9
$TDUUPDATE
 40
2456701.218193391
  9
$TDINDWG
 40
0.0000000116
  9
$TDUSRTIMER
 40
0.0000000116
  9
$USRTIMER
 70
     1
  9
$ANGBASE
 50
0.0
  9
$ANGDIR
 70
     0
  9
$PDMODE
 70
     0
  9
$PDSIZE
 40
0.0
  9
$PLINEWID
 40
0.0
  9
$SPLFRAME
 70
     0
  9
$SPLINETYPE
 70
     6
  9
$SPLINESEGS
 70
     8
  9
$HANDSEED
  5
6E8
  9
$SURFTAB1
 70
     6
  9
$SURFTAB2
 70
     6
  9
$SURFTYPE
 70
     6
  9
$SURFU
 70
     6
  9
$SURFV
 70
     6
  9
$UCSBASE
  2

  9
$UCSNAME
  2

  9
$UCSORG
 10
0.0
 20
0.0
 30
0.0
  9
$UCSXDIR
 10
1.0
 20
0.0
 30
0.0
  9
$UCSYDIR
 10
0.0
 20
1.0
 30
0.0
  9
$UCSORTHOREF
  2

  9
$UCSORTHOVIEW
 70
     0
  9
$UCSORGTOP
 10
0.0
 20
0.0
 30
0.0
  9
$UCSORGBOTTOM
 10
0.0
 20
0.0
 30
0.0
  9
$UCSORGLEFT
 10
0.0
 20
0.0
 30
0.0
  9
$UCSORGRIGHT
 10
0.0
 20
0.0
 30
0.0
  9
$UCSORGFRONT
 10
0.0
 20
0.0
 30
0.0
  9
$UCSORGBACK
 10
0.0
 20
0.0
 30
0.0
  9
$PUCSBASE
  2

  9
$PUCSNAME
  2

  9
$PUCSORG
 10
0.0
 20
0.0
 30
0.0
  9
$PUCSXDIR
 10
1.0
 20
0.0
 30
0.0
  9
$PUCSYDIR
 10
0.0
 20
1.0
 30
0.0
  9
$PUCSORTHOREF
  2

  9
$PUCSORTHOVIEW
 70
     0
  9
$PUCSORGTOP
 10
0.0
 20
0.0
 30
0.0
  9
$PUCSORGBOTTOM
 10
0.0
 20
0.0
 30
0.0
  9
$PUCSORGLEFT
 10
0.0
 20
0.0
 30
0.0
  9
$PUCSORGRIGHT
 10
0.0
 20
0.0
 30
0.0
  9
$PUCSORGFRONT
 10
0.0
 20
0.0
 30
0.0
  9
$PUCSORGBACK
 10
0.0
 20
0.0
 30
0.0
  9
$USERI1
 70
     0
  9
$USERI2
 70
     0
  9
$USERI3
 70
     0
  9
$USERI4
 70
     0
  9
$USERI5
 70
     0
  9
$USERR1
 40
0.0
  9
$USERR2
 40
0.0
  9
$USERR3
 40
0.0
  9
$USERR4
 40
0.0
  9
$USERR5
 40
0.0
  9
$WORLDVIEW
 70
     1
  9
$SHADEDGE
 70
     3
  9
$SHADEDIF
 70
    70
  9
$TILEMODE
 70
     1
  9
$MAXACTVP
 70
    64
  9
$PINSBASE
 10
0.0
 20
0.0
 30
0.0
  9
$PLIMCHECK
 70
     0
  9
$PEXTMIN
 10
1.000000000000000E+20
 20
1.000000000000000E+20
 30
1.000000000000000E+20
  9
$PEXTMAX
 10
-1.000000000000000E+20
 20
-1.000000000000000E+20
 30
-1.000000000000000E+20
  9
$PLIMMIN
 10
0.0
 20
0.0
  9
$PLIMMAX
 10
12.0
 20
9.0
  9
$UNITMODE
 70
     0
  9
$VISRETAIN
 70
     1
  9
$PLINEGEN
 70
     0
  9
$PSLTSCALE
 70
     1
  9
$TREEDEPTH
 70
  3020
  9
$CMLSTYLE
  2
Standard
  9
$CMLJUST
 70
     0
  9
$CMLSCALE
 40
1.0
  9
$PROXYGRAPHICS
 70
     1
  9
$MEASUREMENT
 70
     0
  9
$CELWEIGHT
370
    -1
  9
$ENDCAPS
280
     0
  9
$JOINSTYLE
280
     0
  9
$LWDISPLAY
290
     0
  9
$INSUNITS
 70
     4
  9
$HYPERLINKBASE
  1

  9
$STYLESHEET
  1

  9
$XEDIT
290
     1
  9
$CEPSNTYPE
380
     0
  9
$PSTYLEMODE
290
     1
  9
$FINGERPRINTGUID
  2
{B93B2D66-5D5A-4EFE-8C5E-722C192FFB57}
  9
$VERSIONGUID
  2
{FAEB1C32-E019-11D5-929B-00C0DF256EC4}
  9
$EXTNAMES
290
     1
  9
$PSVPSCALE
 40
0.0
  9
$OLESTARTUP
290
     0
  9
$SORTENTS
280
   127
  9
$INDEXCTL
280
     0
  9
$HIDETEXT
280
     1
  9
$XCLIPFRAME
290
     0
  9
$HALOGAP
280
     0
  9
$OBSCOLOR
 70
   257
  9
$OBSLTYPE
280
     0
  9
$INTERSECTIONDISPLAY
280
     0
  9
$INTERSECTIONCOLOR
 70
   257
  9
$DIMASSOC
280
     2
  9
$PROJECTNAME
  1

  0
ENDSEC
  0
SECTION
  2
CLASSES
  0
CLASS
  1
ACDBDICTIONARYWDFLT
  2
AcDbDictionaryWithDefault
  3
ObjectDBX Classes
 90
        0
 91
        4
280
     0
281
     0
  0
CLASS
  1
VISUALSTYLE
  2
AcDbVisualStyle
  3
ObjectDBX Classes
 90
     4095
 91
        4
280
     0
281
     0
  0
CLASS
  1
MATERIAL
  2
AcDbMaterial
  3
ObjectDBX Classes
 90
     1153
 91
        4
280
     0
281
     0
  0
CLASS
  1
SCALE
  2
AcDbScale
  3
ObjectDBX Classes
 90
     1153
 91
        4
280
     0
281
     0
  0
CLASS
  1
SUN
  2
AcDbSun
  3
SCENEOE
 90
     1153
 91
        4
280
     0
281
     0
  0
CLASS
  1
DICTIONARYVAR
  2
AcDbDictionaryVar
  3
ObjectDBX Classes
 90
        0
 91
        4
280
     0
281
     0
  0
ENDSEC
  0
SECTION
  2
TABLES
  0
TABLE
  2
VPORT
  5
8
330
0
100
AcDbSymbolTable
 70
     1
  0
VPORT
  5
29
330
8
100
AcDbSymbolTableRecord
100
AcDbViewportTableRecord
  2
*Active
 70
     0
 10
0.0
 20
0.0
 11
1.0
 21
1.0
 12
947.5336220713823
 22
611.8101898091478
 13
0.0
 23
0.0
 14
0.5
 24
0.5
 15
0.5
 25
0.5
 16
0.0
 26
0.0
 36
1.0
 17
0.0
 27
0.0
 37
0.0
 40
211.1400006020689
 41
0.6764140576118703
 42
50.0
 43
0.0
 44
0.0
 50
0.0
 51
0.0
 71
     0
 72
   100
 73
     1
 74
     3
 75
     0
 76
     0
 77
     0
 78
     0
281
     0
 65
     1
110
0.0
120
0.0
130
0.0
111
1.0
121
0.0
131
0.0
112
0.0
122
1.0
132
0.0
 79
     0
146
0.0
  0
ENDTAB
  0
TABLE
  2
LTYPE
  5
5
330
0
100
AcDbSymbolTable
 70
     1
  0
LTYPE
  5
14
330
5
100
AcDbSymbolTableRecord
100
AcDbLinetypeTableRecord
  2
ByBlock
 70
     0
  3

 72
    65
 73
     0
 40
0.0
  0
LTYPE
  5
15
330
5
100
AcDbSymbolTableRecord
100
AcDbLinetypeTableRecord
  2
ByLayer
 70
     0
  3

 72
    65
 73
     0
 40
0.0
  0
LTYPE
  5
16
330
5
100
AcDbSymbolTableRecord
100
AcDbLinetypeTableRecord
  2
Continuous
 70
     0
  3
Solid line
 72
    65
 73
     0
 40
0.0
  0
ENDTAB
  0
TABLE
  2
LAYER
  5
2
330
0
100
AcDbSymbolTable
 70
     2
  0
LAYER
  5
10
330
2
100
AcDbSymbolTableRecord
100
AcDbLayerTableRecord
  2
0
 70
     0
 62
     7
  6
Continuous
370
    -3
390
F
  0
LAYER
  5
62
330
2
100
AcDbSymbolTableRecord
100
AcDbLayerTableRecord
  2
Make2D$可见线$普通线
 70
     0
 62
    18
420
        0
  6
Continuous
370
    -3
390
F
  0
ENDTAB
  0
TABLE
  2
STYLE
  5
3
330
0
100
AcDbSymbolTable
 70
     1
  0
STYLE
  5
11
330
3
100
AcDbSymbolTableRecord
100
AcDbTextStyleTableRecord
  2
Standard
 70
     0
 40
0.0
 41
1.0
 50
0.0
 71
     0
 42
0.2
  3
txt
  4

  0
ENDTAB
  0
TABLE
  2
VIEW
  5
6
330
0
100
AcDbSymbolTable
 70
     0
  0
ENDTAB
  0
TABLE
  2
UCS
  5
7
330
0
100
AcDbSymbolTable
 70
     0
  0
ENDTAB
  0
TABLE
  2
APPID
  5
9
330
0
100
AcDbSymbolTable
 70
     1
  0
APPID
  5
12
330
9
100
AcDbSymbolTableRecord
100
AcDbRegAppTableRecord
  2
ACAD
 70
     0
  0
ENDTAB
  0
TABLE
  2
DIMSTYLE
  5
A
330
0
100
AcDbSymbolTable
 70
     1
100
AcDbDimStyleTable
  0
DIMSTYLE
105
27
330
A
100
AcDbSymbolTableRecord
100
AcDbDimStyleTableRecord
  2
Standard
 70
     0
178
     0
340
11
  0
ENDTAB
  0
TABLE
  2
BLOCK_RECORD
  5
1
330
0
100
AcDbSymbolTable
 70
     1
  0
BLOCK_RECORD
  5
1F
330
1
100
AcDbSymbolTableRecord
100
AcDbBlockTableRecord
  2
*Model_Space
340
22
  0
BLOCK_RECORD
  5
1B
330
1
100
AcDbSymbolTableRecord
100
AcDbBlockTableRecord
  2
*Paper_Space
340
1E
  0
BLOCK_RECORD
  5
23
330
1
100
AcDbSymbolTableRecord
100
AcDbBlockTableRecord
  2
*Paper_Space0
340
26
  0
ENDTAB
  0
ENDSEC
  0
SECTION
  2
BLOCKS
  0
BLOCK
  5
20
330
1F
100
AcDbEntity
  8
0
100
AcDbBlockBegin
  2
*Model_Space
 70
     0
 10
0.0
 20
0.0
 30
0.0
  3
*Model_Space
  1
*Model_Space
  0
ENDBLK
  5
21
330
1F
100
AcDbEntity
  8
0
100
AcDbBlockEnd
  0
BLOCK
  5
1C
330
1B
100
AcDbEntity
 67
     1
  8
0
100
AcDbBlockBegin
  2
*Paper_Space
 70
     0
 10
0.0
 20
0.0
 30
0.0
  3
*Paper_Space
  1
*Paper_Space
  0
ENDBLK
  5
1D
330
1B
100
AcDbEntity
 67
     1
  8
0
100
AcDbBlockEnd
  0
BLOCK
  5
24
330
23
100
AcDbEntity
  8
0
100
AcDbBlockBegin
  2
*Paper_Space0
 70
     0
 10
0.0
 20
0.0
 30
0.0
  3
*Paper_Space0
  1
*Paper_Space0
  0
ENDBLK
  5
25
330
23
100
AcDbEntity
  8
0
100
AcDbBlockEnd
  0
ENDSEC
  0
SECTION
  2
ENTITIES
  0
POLYLINE
  5
63
330
1F
100
AcDbEntity
  8
Make2D$可见线$普通线
100
AcDb2dPolyline
 66
     1
 10
0.0
 20
0.0
 30
0.0
  0
VERTEX
  5
64
330
63
100
AcDbEntity
  8
Make2D$可见线$普通线
100
AcDbVertex
100
AcDb2dVertex
 10
953.4910030729734
 20
648.2089972457492
 30
0.0
  0
VERTEX
  5
65
330
63
100
AcDbEntity
  8
Make2D$可见线$普通线
100
AcDbVertex
100
AcDb2dVertex
 10
953.4382532446375
 20
648.2527471808983
 30
0.0
 42
-0.0492640751202531
  0
VERTEX
  5
66
330
63
100
AcDbEntity
  8
Make2D$可见线$普通线
100
AcDbVertex
100
AcDb2dVertex
 10
953.2931282274709
 20
648.058247264823
 30
0.0
 42
-0.2027171288645427
  0
VERTEX
  5
67
330
63
100
AcDbEntity
  8
Make2D$可见线$普通线
100
AcDbVertex
100
AcDb2dVertex
 10
953.1655032331931
 20
647.9967471808981
 30
0.0
 42
-0.2456100284646742
  0
VERTEX
  5
68
330
63
100
AcDbEntity
  8
Make2D$可见线$普通线
100
AcDbVertex
100
AcDb2dVertex
 10
953.0922530920475
 20
648.0438722896188
 30
0.0
 42
-0.1582963563607515
  0
VERTEX
  5
69
330
63
100
AcDbEntity
  8
Make2D$可见线$普通线
100
AcDbVertex
100
AcDb2dVertex
 10
953.0590030729734
 20
648.1444972381196
 30
0.0
 42
-0.1089872480727412
  0
VERTEX
  5
6A
330
63
100
AcDbEntity
  8
Make2D$可见线$普通线
100
AcDbVertex
100
AcDb2dVertex
 10
953.1247530996767
 20
648.4597474097836
 30
0.0
 42
-0.0568066751563206
  0
VERTEX
  5
6B
330
63
100
AcDbEntity
  8
Make2D$可见线$普通线
100
AcDbVertex
100
AcDb2dVertex
 10
953.2990030729735
 20
648.7434973449327
 30
0.0
  0
VERTEX
  5
6C
330
63
100
AcDbEntity
  8
Make2D$可见线$普通线
100
AcDbVertex
100
AcDb2dVertex
 10
953.2670030729735
 20
648.7647471808983
 30
0.0
  0
VERTEX
  5
6D
330
63
100
AcDbEntity
  8
Make2D$可见线$普通线
100
AcDbVertex
100
AcDb2dVertex
 10
953.2460827747432
 20
648.7425924469171
 30
0.0
 42
-0.1990603006857358
  0
VERTEX
  5
6E
330
63
100
AcDbEntity
  8
Make2D$可见线$普通线
100
AcDbVertex
100
AcDb2dVertex
 10
953.1057532980441
 20
648.6847471808985
 30
0.0
 42
-0.0913444844857183
  0
VERTEX
  5
6F
330
63
100
AcDbEntity
  8
Make2D$可见线$普通线
100
AcDbVertex
100
AcDb2dVertex
 10
952.8848478302101
 20
648.7425924469171
 30
0.0
  0
VERTEX
  5
70
330
63
100
AcDbEntity
  8
Make2D$可见线$普通线
100
AcDbVertex
100
AcDb2dVertex
 10
952.8350030729734
 20
648.7647471808983
 30
0.0
 42
-0.0533779891336499
  0
VERTEX
  5
71
330
63
100
AcDbEntity
  8
Make2D$可见线$普通线
100
AcDbVertex
100
AcDb2dVertex
 10
952.5630030729735
 20
648.2207471808983
 30
0.0
  0
VERTEX
  5
72
330
63
100
AcDbEntity
  8
Make2D$可见线$普通线
100
AcDbVertex
100
AcDb2dVertex
 10
952.6175031721572
 20
648.1767472419344
 30
0.0
 42
0.0571592094087449
  0
VERTEX
  5
73
330
63
100
AcDbEntity
  8
Make2D$可见线$普通线
100
AcDbVertex
100
AcDb2dVertex
 10
952.8350030729734
 20
648.5617472571935
 30
0.0
 42
0.1217447908494121
  0
VERTEX
  5
74
330
63
100
AcDbEntity
  8
Make2D$可见线$普通线
100
AcDbVertex
100
AcDb2dVertex
 10
953.0640031492686
 20
648.5477472877116
 30
0.0
 42
0.1641175277885564
  0
VERTEX
  5
75
330
63
100
AcDbEntity
  8
Make2D$可见线$普通线
100
AcDbVertex
100
AcDb2dVertex
 10
952.8830030729735
 20
648.1242474174131
 30
0.0
  0
VERTEX
  5
76
330
63
100
AcDbEntity
  8
Make2D$可见线$普通线
100
AcDbVertex
100
AcDb2dVertex
 10
952.8831593313275
 20
648.1112607289645
 30
0.0
  0
VERTEX
  5
77
330
63
100
AcDbEntity
  8
Make2D$可见线$普通线
100
AcDbVertex
100
AcDb2dVertex
 10
952.8836339962169
 20
648.098519879863
 30
0.0
  0
VERTEX
  5
78
330
63
100
AcDbEntity
  8
Make2D$可见线$普通线
100
AcDbVertex
100
AcDb2dVertex
 10
952.8844359023827
 20
648.0860357849226
 30
0.0
  0
VERTEX
  5
79
330
63
100
AcDbEntity
  8
Make2D$可见线$普通线
100
AcDbVertex
100
AcDb2dVertex
 10
952.8855738845664
 20
648.0738193589573
 30
0.0
  0
VERTEX
  5
7A
330
63
100
AcDbEntity
  8
Make2D$可见线$普通线
100
AcDbVertex
100
AcDb2dVertex
 10
952.8870567775089
 20
648.0618815167812
 30
0.0
  0
VERTEX
  5
7B
330
63
100
AcDbEntity
  8
Make2D$可见线$普通线
100
AcDbVertex
100
AcDb2dVertex
 10
952.8888934159515
 20
648.0502331732084
 30
0.0
  0
VERTEX
  5
7C
330
63
100
AcDbEntity
  8
Make2D$可见线$普通线
100
AcDbVertex
100
AcDb2dVertex
 10
952.889947150592
 20
648.0445209742777
 30
0.0
  0
VERTEX
  5
7D
330
63
100
AcDbEntity
  8
Make2D$可见线$普通线
100
AcDbVertex
100
AcDb2dVertex
 10
952.8910926346355
 20
648.0388852430531
 30
0.0
  0
VERTEX
  5
7E
330
63
100
AcDbEntity
  8
Make2D$可见线$普通线
100
AcDbVertex
100
AcDb2dVertex
 10
952.8923309724244
 20
648.0333273438862
 30
0.0
  0
VERTEX
  5
7F
330
63
100
AcDbEntity
  8
Make2D$可见线$普通线
100
AcDbVertex
100
AcDb2dVertex
 10
952.8936632683017
 20
648.027848641129
 30
0.0
  0
VERTEX
  5
80
330
63
100
AcDbEntity
  8
Make2D$可见线$普通线
100
AcDbVertex
100
AcDb2dVertex
 10
952.8950906266098
 20
648.0224504991331
 30
0.0
  0
VERTEX
  5
81
330
63
100
AcDbEntity
  8
Make2D$可见线$普通线
100
AcDbVertex
100
AcDb2dVertex
 10
952.8966141516914
 20
648.0171342822505
 30
0.0
  0
VERTEX
  5
82
330
63
100
AcDbEntity
  8
Make2D$可见线$普通线
100
AcDbVertex
100
AcDb2dVertex
 10
952.8982349478894
 20
648.0119013548326
 30
0.0
  0
VERTEX
  5
83
330
63
100
AcDbEntity
  8
Make2D$可见线$普通线
100
AcDbVertex
100
AcDb2dVertex
 10
952.899954119546
 20
648.0067530812313
 30
0.0
  0
VERTEX
  5
84
330
63
100
AcDbEntity
  8
Make2D$可见线$普通线
100
AcDbVertex
100
AcDb2dVertex
 10
952.9017727710042
 20
648.0016908257985
 30
0.0
  0
VERTEX
  5
85
330
63
100
AcDbEntity
  8
Make2D$可见线$普通线
100
AcDbVertex
100
AcDb2dVertex
 10
952.9036920066064
 20
647.9967159528858
 30
0.0
  0
VERTEX
  5
86
330
63
100
AcDbEntity
  8
Make2D$可见线$普通线
100
AcDbVertex
100
AcDb2dVertex
 10
952.9057129306955
 20
647.9918298268449
 30
0.0
  0
VERTEX
  5
87
330
63
100
AcDbEntity
  8
Make2D$可见线$普通线
100
AcDbVertex
100
AcDb2dVertex
 10
952.907836647614
 20
647.9870338120277
 30
0.0
  0
VERTEX
  5
88
330
63
100
AcDbEntity
  8
Make2D$可见线$普通线
100
AcDbVertex
100
AcDb2dVertex
 10
952.9100642617045
 20
647.9823292727858
 30
0.0
  0
VERTEX
  5
89
330
63
100
AcDbEntity
  8
Make2D$可见线$普通线
100
AcDbVertex
100
AcDb2dVertex
 10
952.9123968773099
 20
647.9777175734712
 30
0.0
  0
VERTEX
  5
8A
330
63
100
AcDbEntity
  8
Make2D$可见线$普通线
100
AcDbVertex
100
AcDb2dVertex
 10
952.9148355987725
 20
647.9732000784356
 30
0.0
  0
VERTEX
  5
8B
330
63
100
AcDbEntity
  8
Make2D$可见线$普通线
100
AcDbVertex
100
AcDb2dVertex
 10
952.917381530435
 20
647.9687781520306
 30
0.0
  0
VERTEX
  5
8C
330
63
100
AcDbEntity
  8
Make2D$可见线$普通线
100
AcDbVertex
100
AcDb2dVertex
 10
952.9200357766401
 20
647.964453158608
 30
0.0
  0
VERTEX
  5
8D
330
63
100
AcDbEntity
  8
Make2D$可见线$普通线
100
AcDbVertex
100
AcDb2dVertex
 10
952.9227994417306
 20
647.9602264625197
 30
0.0
  0
VERTEX
  5
8E
330
63
100
AcDbEntity
  8
Make2D$可见线$普通线
100
AcDbVertex
100
AcDb2dVertex
 10
952.9256736300491
 20
647.9560994281173
 30
0.0
  0
VERTEX
  5
8F
330
63
100
AcDbEntity
  8
Make2D$可见线$普通线
100
AcDbVertex
100
AcDb2dVertex
 10
952.9286594459381
 20
647.9520734197524
 30
0.0
  0
VERTEX
  5
90
330
63
100
AcDbEntity
  8
Make2D$可见线$普通线
100
AcDbVertex
100
AcDb2dVertex
 10
952.9317579937403
 20
647.9481498017772
 30
0.0
  0
VERTEX
  5
91
330
63
100
AcDbEntity
  8
Make2D$可见线$普通线
100
AcDbVertex
100
AcDb2dVertex
 10
952.9349703777985
 20
647.944329938543
 30
0.0
  0
VERTEX
  5
92
330
63
100
AcDbEntity
  8
Make2D$可见线$普通线
100
AcDbVertex
100
AcDb2dVertex
 10
952.9382977024552
 20
647.940615194402
 30
0.0
  0
VERTEX
  5
93
330
63
100
AcDbEntity
  8
Make2D$可见线$普通线
100
AcDbVertex
100
AcDb2dVertex
 10
952.9417410720529
 20
647.9370069337056
 30
0.0
  0
VERTEX
  5
94
330
63
100
AcDbEntity
  8
Make2D$可见线$普通线
100
AcDbVertex
100
AcDb2dVertex
 10
952.9453015909344
 20
647.9335065208057
 30
0.0
  0
VERTEX
  5
95
330
63
100
AcDbEntity
  8
Make2D$可见线$普通线
100
AcDbVertex
100
AcDb2dVertex
 10
952.9489803634424
 20
647.9301153200541
 30
0.0
  0
VERTEX
  5
96
330
63
100
AcDbEntity
  8
Make2D$可见线$普通线
100
AcDbVertex
100
AcDb2dVertex
 10
952.9527784939196
 20
647.9268346958024
 30
0.0
  0
VERTEX
  5
97
330
63
100
AcDbEntity
  8
Make2D$可见线$普通线
100
AcDbVertex
100
AcDb2dVertex
 10
952.9566970867086
 20
647.9236660124027
 30
0.0
  0
VERTEX
  5
98
330
63
100
AcDbEntity
  8
Make2D$可见线$普通线
100
AcDbVertex
100
AcDb2dVertex
 10
952.9607372461518
 20
647.9206106342062
 30
0.0
  0
VERTEX
  5
99
330
63
100
AcDbEntity
  8
Make2D$可见线$普通线
100
AcDbVertex
100
AcDb2dVertex
 10
952.9649000765921
 20
647.9176699255652
 30
0.0
  0
VERTEX
  5
9A
330
63
100
AcDbEntity
  8
Make2D$可见线$普通线
100
AcDbVertex
100
AcDb2dVertex
 10
952.9691866823721
 20
647.914845250831
 30
0.0
  0
VERTEX
  5
9B
330
63
100
AcDbEntity
  8
Make2D$可见线$普通线
100
AcDbVertex
100
AcDb2dVertex
 10
952.9735981678343
 20
647.9121379743558
 30
0.0
  0
VERTEX
  5
9C
330
63
100
AcDbEntity
  8
Make2D$可见线$普通线
100
AcDbVertex
100
AcDb2dVertex
 10
952.9781356373217
 20
647.909549460491
 30
0.0
  0
VERTEX
  5
9D
330
63
100
AcDbEntity
  8
Make2D$可见线$普通线
100
AcDbVertex
100
AcDb2dVertex
 10
952.9828001951765
 20
647.9070810735886
 30
0.0
  0
VERTEX
  5
9E
330
63
100
AcDbEntity
  8
Make2D$可见线$普通线
100
AcDbVertex
100
AcDb2dVertex
 10
952.9875929457417
 20
647.9047341780001
 30
0.0
  0
VERTEX
  5
9F
330
63
100
AcDbEntity
  8
Make2D$可见线$普通线
100
AcDbVertex
100
AcDb2dVertex
 10
952.9925149933598
 20
647.9025101380776
 30
0.0
  0
VERTEX
  5
A0
330
63
100
AcDbEntity
  8
Make2D$可见线$普通线
100
AcDbVertex
100
AcDb2dVertex
 10
952.9975674423735
 20
647.9004103181724
 30
0.0
  0
VERTEX
  5
A1
330
63
100
AcDbEntity
  8
Make2D$可见线$普通线
100
AcDbVertex
100
AcDb2dVertex
 10
953.0027513971254
 20
647.8984360826367
 30
0.0
  0
VERTEX
  5
A2
330
63
100
AcDbEntity
  8
Make2D$可见线$普通线
100
AcDbVertex
100
AcDb2dVertex
 10
953.008067961958
 20
647.8965887958221
 30
0.0
  0
VERTEX
  5
A3
330
63
100
AcDbEntity
  8
Make2D$可见线$普通线
100
AcDbVertex
100
AcDb2dVertex
 10
953.0135182412142
 20
647.8948698220803
 30
0.0
  0
VERTEX
  5
A4
330
63
100
AcDbEntity
  8
Make2D$可见线$普通线
100
AcDbVertex
100
AcDb2dVertex
 10
953.0191033392366
 20
647.893280525763
 30
0.0
  0
VERTEX
  5
A5
330
63
100
AcDbEntity
  8
Make2D$可见线$普通线
100
AcDbVertex
100
AcDb2dVertex
 10
953.0248243603677
 20
647.891822271222
 30
0.0
  0
VERTEX
  5
A6
330
63
100
AcDbEntity
  8
Make2D$可见线$普通线
100
AcDbVertex
100
AcDb2dVertex
 10
953.0306824089503
 20
647.8904964228093
 30
0.0
  0
VERTEX
  5
A7
330
63
100
AcDbEntity
  8
Make2D$可见线$普通线
100
AcDbVertex
100
AcDb2dVertex
 10
953.0366785893268
 20
647.8893043448763
 30
0.0
  0
VERTEX
  5
A8
330
63
100
AcDbEntity
  8
Make2D$可见线$普通线
100
AcDbVertex
100
AcDb2dVertex
 10
953.0428140058401
 20
647.888247401775
 30
0.0
  0
VERTEX
  5
A9
330
63
100
AcDbEntity
  8
Make2D$可见线$普通线
100
AcDbVertex
100
AcDb2dVertex
 10
953.0490897628329
 20
647.887326957857
 30
0.0
  0
VERTEX
  5
AA
330
63
100
AcDbEntity
  8
Make2D$可见线$普通线
100
AcDbVertex
100
AcDb2dVertex
 10
953.0555069646476
 20
647.8865443774741
 30
0.0
  0
VERTEX
  5
AB
330
63
100
AcDbEntity
  8
Make2D$可见线$普通线
100
AcDbVertex
100
AcDb2dVertex
 10
953.062066715627
 20
647.8859010249782
 30
0.0
  0
VERTEX
  5
AC
330
63
100
AcDbEntity
  8
Make2D$可见线$普通线
100
AcDbVertex
100
AcDb2dVertex
 10
953.0687701201136
 20
647.8853982647208
 30
0.0
  0
VERTEX
  5
AD
330
63
100
AcDbEntity
  8
Make2D$可见线$普通线
100
AcDbVertex
100
AcDb2dVertex
 10
953.0756182824503
 20
647.885037461054
 30
0.0
  0
VERTEX
  5
AE
330
63
100
AcDbEntity
  8
Make2D$可见线$普通线
100
AcDbVertex
100
AcDb2dVertex
 10
953.0826123069794
 20
647.8848199783292
 30
0.0
  0
VERTEX
  5
AF
330
63
100
AcDbEntity
  8
Make2D$可见线$普通线
100
AcDbVertex
100
AcDb2dVertex
 10
953.089753298044
 20
647.8847471808983
 30
0.0
  0
VERTEX
  5
B0
330
63
100
AcDbEntity
  8
Make2D$可见线$普通线
100
AcDbVertex
100
AcDb2dVertex
 10
953.097666383539
 20
647.8848739341233
 30
0.0
  0
VERTEX
  5
B1
330
63
100
AcDbEntity
  8
Make2D$可见线$普通线
100
AcDbVertex
100
AcDb2dVertex
 10
953.1055309924451
 20
647.8852508352003
 30
0.0
  0
VERTEX
  5
B2
330
63
100
AcDbEntity
  8
Make2D$可见线$普通线
100
AcDbVertex
100
AcDb2dVertex
 10
953.1133466189759
 20
647.8858728462318
 30
0.0
  0
VERTEX
  5
B3
330
63
100
AcDbEntity
  8
Make2D$可见线$普通线
100
AcDbVertex
100
AcDb2dVertex
 10
953.1211127573454
 20
647.8867349293205
 30
0.0
  0
VERTEX
  5
B4
330
63
100
AcDbEntity
  8
Make2D$可见线$普通线
100
AcDbVertex
100
AcDb2dVertex
 10
953.1288289017671
 20
647.8878320465692
 30
0.0
  0
VERTEX
  5
B5
330
63
100
AcDbEntity
  8
Make2D$可见线$普通线
100
AcDbVertex
100
AcDb2dVertex
 10
953.1364945464547
 20
647.8891591600805
 30
0.0
  0
VERTEX
  5
B6
330
63
100
AcDbEntity
  8
Make2D$可见线$普通线
100
AcDbVertex
100
AcDb2dVertex
 10
953.1441091856223
 20
647.8907112319571
 30
0.0
  0
VERTEX
  5
B7
330
63
100
AcDbEntity
  8
Make2D$可见线$普通线
100
AcDbVertex
100
AcDb2dVertex
 10
953.1516723134832
 20
647.8924832243017
 30
0.0
  0
VERTEX
  5
B8
330
63
100
AcDbEntity
  8
Make2D$可见线$普通线
100
AcDbVertex
100
AcDb2dVertex
 10
953.1591834242514
 20
647.894470099217
 30
0.0
  0
VERTEX
  5
B9
330
63
100
AcDbEntity
  8
Make2D$可见线$普通线
100
AcDbVertex
100
AcDb2dVertex
 10
953.1666420121408
 20
647.8966668188057
 30
0.0
  0
VERTEX
  5
BA
330
63
100
AcDbEntity
  8
Make2D$可见线$普通线
100
AcDbVertex
100
AcDb2dVertex
 10
953.174047571365
 20
647.8990683451705
 30
0.0
  0
VERTEX
  5
BB
330
63
100
AcDbEntity
  8
Make2D$可见线$普通线
100
AcDbVertex
100
AcDb2dVertex
 10
953.1813995961376
 20
647.901669640414
 30
0.0
  0
VERTEX
  5
BC
330
63
100
AcDbEntity
  8
Make2D$可见线$普通线
100
AcDbVertex
100
AcDb2dVertex
 10
953.1886975806724
 20
647.904465666639
 30
0.0
  0
VERTEX
  5
BD
330
63
100
AcDbEntity
  8
Make2D$可见线$普通线
100
AcDbVertex
100
AcDb2dVertex
 10
953.1959410191834
 20
647.9074513859481
 30
0.0
  0
VERTEX
  5
BE
330
63
100
AcDbEntity
  8
Make2D$可见线$普通线
100
AcDbVertex
100
AcDb2dVertex
 10
953.203129405884
 20
647.9106217604441
 30
0.0
  0
VERTEX
  5
BF
330
63
100
AcDbEntity
  8
Make2D$可见线$普通线
100
AcDbVertex
100
AcDb2dVertex
 10
953.2102622349884
 20
647.9139717522296
 30
0.0
  0
VERTEX
  5
C0
330
63
100
AcDbEntity
  8
Make2D$可见线$普通线
100
AcDbVertex
100
AcDb2dVertex
 10
953.2173390007099
 20
647.9174963234074
 30
0.0
  0
VERTEX
  5
C1
330
63
100
AcDbEntity
  8
Make2D$可见线$普通线
100
AcDbVertex
100
AcDb2dVertex
 10
953.2243591972624
 20
647.92119043608
 30
0.0
  0
VERTEX
  5
C2
330
63
100
AcDbEntity
  8
Make2D$可见线$普通线
100
AcDbVertex
100
AcDb2dVertex
 10
953.2313223188596
 20
647.9250490523501
 30
0.0
  0
VERTEX
  5
C3
330
63
100
AcDbEntity
  8
Make2D$可见线$普通线
100
AcDbVertex
100
AcDb2dVertex
 10
953.2382278597154
 20
647.9290671343206
 30
0.0
  0
VERTEX
  5
C4
330
63
100
AcDbEntity
  8
Make2D$可见线$普通线
100
AcDbVertex
100
AcDb2dVertex
 10
953.2450753140436
 20
647.9332396440941
 30
0.0
  0
VERTEX
  5
C5
330
63
100
AcDbEntity
  8
Make2D$可见线$普通线
100
AcDbVertex
100
AcDb2dVertex
 10
953.2518641760576
 20
647.9375615437731
 30
0.0
  0
VERTEX
  5
C6
330
63
100
AcDbEntity
  8
Make2D$可见线$普通线
100
AcDbVertex
100
AcDb2dVertex
 10
953.2585939399714
 20
647.9420277954605
 30
0.0
  0
VERTEX
  5
C7
330
63
100
AcDbEntity
  8
Make2D$可见线$普通线
100
AcDbVertex
100
AcDb2dVertex
 10
953.2652640999988
 20
647.9466333612588
 30
0.0
  0
VERTEX
  5
C8
330
63
100
AcDbEntity
  8
Make2D$可见线$普通线
100
AcDbVertex
100
AcDb2dVertex
 10
953.2784235852491
 20
647.9562422835994
 30
0.0
  0
VERTEX
  5
C9
330
63
100
AcDbEntity
  8
Make2D$可见线$普通线
100
AcDbVertex
100
AcDb2dVertex
 10
953.2913385855184
 20
647.9663480076165
 30
0.0
  0
VERTEX
  5
CA
330
63
100
AcDbEntity
  8
Make2D$可见线$普通线
100
AcDbVertex
100
AcDb2dVertex
 10
953.3040050545167
 20
647.9769102301314
 30
0.0
  0
VERTEX
  5
CB
330
63
100
AcDbEntity
  8
Make2D$可见线$普通线
100
AcDbVertex
100
AcDb2dVertex
 10
953.316418945954
 20
647.9878886479657
 30
0.0
  0
VERTEX
  5
CC
330
63
100
AcDbEntity
  8
Make2D$可见线$普通线
100
AcDbVertex
100
AcDb2dVertex
 10
953.3285762135404
 20
647.999242957941
 30
0.0
  0
VERTEX
  5
CD
330
63
100
AcDbEntity
  8
Make2D$可见线$普通线
100
AcDbVertex
100
AcDb2dVertex
 10
953.3404728109858
 20
648.0109328568786
 30
0.0
  0
VERTEX
  5
CE
330
63
100
AcDbEntity
  8
Make2D$可见线$普通线
100
AcDbVertex
100
AcDb2dVertex
 10
953.3521046920002
 20
648.0229180416002
 30
0.0
  0
VERTEX
  5
CF
330
63
100
AcDbEntity
  8
Make2D$可见线$普通线
100
AcDbVertex
100
AcDb2dVertex
 10
953.3634678102936
 20
648.0351582089272
 30
0.0
  0
VERTEX
  5
D0
330
63
100
AcDbEntity
  8
Make2D$可见线$普通线
100
AcDbVertex
100
AcDb2dVertex
 10
953.374558119576
 20
648.0476130556813
 30
0.0
  0
VERTEX
  5
D1
330
63
100
AcDbEntity
  8
Make2D$可见线$普通线
100
AcDbVertex
100
AcDb2dVertex
 10
953.3853715735574
 20
648.0602422786837
 30
0.0
  0
VERTEX
  5
D2
330
63
100
AcDbEntity
  8
Make2D$可见线$普通线
100
AcDbVertex
100
AcDb2dVertex
 10
953.4061517304572
 20
648.08586264072
 30
0.0
  0
VERTEX
  5
D3
330
63
100
AcDbEntity
  8
Make2D$可见线$普通线
100
AcDbVertex
100
AcDb2dVertex
 10
953.4257759106727
 20
648.1116968696083
 30
0.0
  0
VERTEX
  5
D4
330
63
100
AcDbEntity
  8
Make2D$可见线$普通线
100
AcDbVertex
100
AcDb2dVertex
 10
953.4442117438841
 20
648.1374225399206
 30
0.0
  0
VERTEX
  5
D5
330
63
100
AcDbEntity
  8
Make2D$可见线$普通线
100
AcDbVertex
100
AcDb2dVertex
 10
953.4614268597713
 20
648.1627172262291
 30
0.0
  0
VERTEX
  5
D6
330
63
100
AcDbEntity
  8
Make2D$可见线$普通线
100
AcDbVertex
100
AcDb2dVertex
 10
953.477388888014
 20
648.1872585031058
 30
0.0
  0
SEQEND
  5
D7
330
63
100
AcDbEntity
  8
Make2D$可见线$普通线
  0
POLYLINE
  5
D8
330
1F
100
AcDbEntity
  8
Make2D$可见线$普通线
100
AcDb2dPolyline
 66
     1
 10
0.0
 20
0.0
 30
0.0
  0
VERTEX
  5
D9
330
D8
100
AcDbEntity
  8
Make2D$可见线$普通线
100
AcDbVertex
100
AcDb2dVertex
 10
955.3001583515801
 20
648.2049745105936
 30
0.0
  0
VERTEX
  5
DA
330
D8
100
AcDbEntity
  8
Make2D$可见线$普通线
100
AcDbVertex
100
AcDb2dVertex
 10
955.3505031263801
 20
648.280247356377
 30
0.0
  0
VERTEX
  5
DB
330
D8
100
AcDbEntity
  8
Make2D$可见线$普通线
100
AcDbVertex
100
AcDb2dVertex
 10
955.3470030729735
 20
648.215247341118
 30
0.0
  0
VERTEX
  5
DC
330
D8
100
AcDbEntity
  8
Make2D$可见线$普通线
100
AcDbVertex
100
AcDb2dVertex
 10
955.3470030729734
 20
648.1542473868951
 30
0.0
 42
0.2118022371370735
  0
VERTEX
  5
DD
330
D8
100
AcDbEntity
  8
Make2D$可见线$普通线
100
AcDbVertex
100
AcDb2dVertex
 10
955.4287530996768
 20
647.963872289619
 30
0.0
 42
0.202070150849197
  0
VERTEX
  5
DE
330
D8
100
AcDbEntity
  8
Make2D$可见线$普通线
100
AcDbVertex
100
AcDb2dVertex
 10
955.6420031797866
 20
647.8847471808983
 30
0.0
 42
0.249251844929002
  0
VERTEX
  5
DF
330
D8
100
AcDbEntity
  8
Make2D$可见线$普通线
100
AcDbVertex
100
AcDb2dVertex
 10
956.059878086325
 20
648.1419971999721
 30
0.0
 42
0.1521119782883321
  0
VERTEX
  5
E0
330
D8
100
AcDbEntity
  8
Make2D$可见线$普通线
100
AcDbVertex
100
AcDb2dVertex
 10
956.2426021488573
 20
648.7425924469171
 30
0.0
  0
VERTEX
  5
E1
330
D8
100
AcDbEntity
  8
Make2D$可见线$普通线
100
AcDbVertex
100
AcDb2dVertex
 10
956.2430030729735
 20
648.7777473792655
 30
0.0
 42
0.1667364057447177
  0
VERTEX
  5
E2
330
D8
100
AcDbEntity
  8
Make2D$可见线$普通线
100
AcDbVertex
100
AcDb2dVertex
 10
956.0740031797865
 20
649.3437472266753
 30
0.0
 42
0.2416102147432443
  0
VERTEX
  5
E3
330
D8
100
AcDbEntity
  8
Make2D$可见线$普通线
100
AcDbVertex
100
AcDb2dVertex
 10
955.6872531378243
 20
649.5647471808983
 30
0.0
 42
0.1954975053897048
  0
VERTEX
  5
E4
330
D8
100
AcDbEntity
  8
Make2D$可见线$普通线
100
AcDbVertex
100
AcDb2dVertex
 10
955.522753191231
 20
649.5048722438418
 30
0.0
 42
0.2139986378657292
  0
VERTEX
  5
E5
330
D8
100
AcDbEntity
  8
Make2D$可见线$普通线
100
AcDbVertex
100
AcDb2dVertex
 10
955.4590030729735
 20
649.3407471808983
 30
0.0
 42
-0.1322170608579863
  0
VERTEX
  5
E6
330
D8
100
AcDbEntity
  8
Make2D$可见线$普通线
100
AcDbVertex
100
AcDb2dVertex
 10
955.6397531454538
 20
649.3887471808982
 30
0.0
 42
-0.2462437860514769
  0
VERTEX
  5
E7
330
D8
100
AcDbEntity
  8
Make2D$可见线$普通线
100
AcDbVertex
100
AcDb2dVertex
 10
955.9721280901399
 20
649.1964972991557
 30
0.0
 42
-0.2102680661734226
  0
VERTEX
  5
E8
330
D8
100
AcDbEntity
  8
Make2D$可见线$普通线
100
AcDbVertex
100
AcDb2dVertex
 10
956.1045031568982
 20
648.6232472190459
 30
0.0
 42
0.1587148844279117
  0
VERTEX
  5
E9
330
D8
100
AcDbEntity
  8
Make2D$可见线$普通线
100
AcDbVertex
100
AcDb2dVertex
 10
955.9733270104199
 20
648.7425924469171
 30
0.0
 42
0.1020321139482391
  0
VERTEX
  5
EA
330
D8
100
AcDbEntity
  8
Make2D$可见线$普通线
100
AcDbVertex
100
AcDb2dVertex
 10
955.8582533056735
 20
648.7647471808984
 30
0.0
 42
0.0875149745801449
  0
VERTEX
  5
EB
330
D8
100
AcDbEntity
  8
Make2D$可见线$普通线
100
AcDbVertex
100
AcDb2dVertex
 10
955.7374388706581
 20
648.7425924469171
 30
0.0
 42
0.0612633768392612
  0
VERTEX
  5
EC
330
D8
100
AcDbEntity
  8
Make2D$可见线$普通线
100
AcDbVertex
100
AcDb2dVertex
 10
955.6255179246409
 20
648.6844328743099
 30
0.0
 42
0.0973824384863567
  0
VERTEX
  5
ED
330
D8
100
AcDbEntity
  8
Make2D$可见线$普通线
100
AcDbVertex
100
AcDb2dVertex
 10
955.2483364096549
 20
648.2522222204079
 30
0.0
  0
SEQEND
  5
EE
330
D8
100
AcDbEntity
  8
Make2D$可见线$普通线
  0
POLYLINE
  5
EF
330
1F
100
AcDbEntity
  8
Make2D$可见线$普通线
100
AcDb2dPolyline
 66
     1
 10
0.0
 20
0.0
 30
0.0
  0
VERTEX
  5
F0
330
EF
100
AcDbEntity
  8
Make2D$可见线$普通线
100
AcDbVertex
100
AcDb2dVertex
 10
941.7676740778218
 20
648.207230209458
 30
0.0
  0
VERTEX
  5
F1
330
EF
100
AcDbEntity
  8
Make2D$可见线$普通线
100
AcDbVertex
100
AcDb2dVertex
 10
941.8290294347183
 20
648.3069972762672
 30
0.0
  0
VERTEX
  5
F2
330
EF
100
AcDbEntity
  8
Make2D$可见线$普通线
100
AcDbVertex
100
AcDb2dVertex
 10
941.8290294347183
 20
648.2312473411181
 30
0.0
 42
0.1796895790108465
  0
VERTEX
  5
F3
330
EF
100
AcDbEntity
  8
Make2D$可见线$普通线
100
AcDbVertex
100
AcDb2dVertex
 10
941.9090294347183
 20
647.9789972762673
 30
0.0
 42
0.2306143607336286
  0
VERTEX
  5
F4
330
EF
100
AcDbEntity
  8
Make2D$可见线$普通线
100
AcDbVertex
100
AcDb2dVertex
 10
942.1245295491609
 20
647.8847471808982
 30
0.0
 42
0.1121991402106036
  0
VERTEX
  5
F5
330
EF
100
AcDbEntity
  8
Make2D$可见线$普通线
100
AcDbVertex
100
AcDb2dVertex
 10
942.2905295186429
 20
647.9194972228606
 30
0.0
 42
0.0845668897222523
  0
VERTEX
  5
F6
330
EF
100
AcDbEntity
  8
Make2D$可见线$普通线
100
AcDbVertex
100
AcDb2dVertex
 10
942.4690294347183
 20
648.0687473029705
 30
0.0
 42
0.1482500801428644
  0
VERTEX
  5
F7
330
EF
100
AcDbEntity
  8
Make2D$可见线$普通线
100
AcDbVertex
100
AcDb2dVertex
 10
942.503279469051
 20
647.920247234305
 30
0.0
 42
0.2048897258254129
  0
VERTEX
  5
F8
330
EF
100
AcDbEntity
  8
Make2D$可见线$普通线
100
AcDbVertex
100
AcDb2dVertex
 10
942.6100296330856
 20
647.8847471808983
 30
0.0
 42
0.229770693277078
  0
VERTEX
  5
F9
330
EF
100
AcDbEntity
  8
Make2D$可见线$普通线
100
AcDbVertex
100
AcDb2dVertex
 10
943.0130294347183
 20
648.2057471961573
 30
0.0
  0
VERTEX
  5
FA
330
EF
100
AcDbEntity
  8
Make2D$可见线$普通线
100
AcDbVertex
100
AcDb2dVertex
 10
942.9582795758641
 20
648.2527471808984
 30
0.0
 42
-0.0513524987675129
  0
VERTEX
  5
FB
330
EF
100
AcDbEntity
  8
Make2D$可见线$普通线
100
AcDbVertex
100
AcDb2dVertex
 10
942.8071545892158
 20
648.0632472190459
 30
0.0
 42
-0.1428378110138711
  0
VERTEX
  5
FC
330
EF
100
AcDbEntity
  8
Make2D$可见线$普通线
100
AcDbVertex
100
AcDb2dVertex
 10
942.7032795911233
 20
647.9967471808984
 30
0.0
 42
-0.2761877879031544
  0
VERTEX
  5
FD
330
EF
100
AcDbEntity
  8
Make2D$可见线$普通线
100
AcDbVertex
100
AcDb2dVertex
 10
942.6541544518844
 20
648.0169972457492
 30
0.0
 42
-0.0571749277137398
  0
VERTEX
  5
FE
330
EF
100
AcDbEntity
  8
Make2D$可见线$普通线
100
AcDbVertex
100
AcDb2dVertex
 10
942.6450294347184
 20
648.1369973678213
 30
0.0
  0
VERTEX
  5
FF
330
EF
100
AcDbEntity
  8
Make2D$可见线$普通线
100
AcDbVertex
100
AcDb2dVertex
 10
942.6450294347183
 20
648.7647471808983
 30
0.0
  0
VERTEX
  5
100
330
EF
100
AcDbEntity
  8
Make2D$可见线$普通线
100
AcDbVertex
100
AcDb2dVertex
 10
942.4932795606052
 20
648.6737472571934
 30
0.0
 42
0.1502501413436852
  0
VERTEX
  5
101
330
EF
100
AcDbEntity
  8
Make2D$可见线$普通线
100
AcDbVertex
100
AcDb2dVertex
 10
942.3155295339019
 20
648.7327471808984
 30
0.0
 42
0.1599176099072012
  0
VERTEX
  5
102
330
EF
100
AcDbEntity
  8
Make2D$可见线$普通线
100
AcDbVertex
100
AcDb2dVertex
 10
942.021154558698
 20
648.5963722972484
 30
0.0
 42
0.0758635892724402
  0
VERTEX
  5
103
330
EF
100
AcDbEntity
  8
Make2D$可见线$普通线
100
AcDbVertex
100
AcDb2dVertex
 10
941.7227862871054
 20
648.2543914233263
 30
0.0
  0
SEQEND
  5
104
330
EF
100
AcDbEntity
  8
Make2D$可见线$普通线
  0
POLYLINE
  5
105
330
1F
100
AcDbEntity
  8
Make2D$可见线$普通线
100
AcDb2dPolyline
 66
     1
 10
0.0
 20
0.0
 30
0.0
  0
VERTEX
  5
106
330
105
100
AcDbEntity
  8
Make2D$可见线$普通线
100
AcDbVertex
100
AcDb2dVertex
 10
944.1610964843854
 20
648.2076568309291
 30
0.0
 42
-0.1662242512747505
  0
VERTEX
  5
107
330
105
100
AcDbEntity
  8
Make2D$可见线$普通线
100
AcDbVertex
100
AcDb2dVertex
 10
943.9307795224577
 20
647.9967471808984
 30
0.0
 42
-0.409609669636472
  0
VERTEX
  5
108
330
105
100
AcDbEntity
  8
Make2D$可见线$普通线
100
AcDbVertex
100
AcDb2dVertex
 10
943.8850294347181
 20
648.0378721980647
 30
0.0
 42
-0.0359875033189764
  0
VERTEX
  5
109
330
105
100
AcDbEntity
  8
Make2D$可见线$普通线
100
AcDbVertex
100
AcDb2dVertex
 10
943.8770294347183
 20
648.1924972381197
 30
0.0
  0
VERTEX
  5
10A
330
105
100
AcDbEntity
  8
Make2D$可见线$普通线
100
AcDbVertex
100
AcDb2dVertex
 10
943.8770294347183
 20
648.7647471808983
 30
0.0
  0
VERTEX
  5
10B
330
105
100
AcDbEntity
  8
Make2D$可见线$普通线
100
AcDbVertex
100
AcDb2dVertex
 10
943.7010294347183
 20
648.6687471808983
 30
0.0
  0
VERTEX
  5
10C
330
105
100
AcDbEntity
  8
Make2D$可见线$普通线
100
AcDbVertex
100
AcDb2dVertex
 10
943.7010294347183
 20
648.4102473868952
 30
0.0
 42
-0.03150063404511
  0
VERTEX
  5
10D
330
105
100
AcDbEntity
  8
Make2D$可见线$普通线
100
AcDbVertex
100
AcDb2dVertex
 10
943.6150294652363
 20
648.2596222858042
 30
0.0
 42
-0.0495947407589857
  0
VERTEX
  5
10E
330
105
100
AcDbEntity
  8
Make2D$可见线$普通线
100
AcDbVertex
100
AcDb2dVertex
 10
943.4672795300872
 20
648.0592472800821
 30
0.0
 42
-0.1635456750384661
  0
VERTEX
  5
10F
330
105
100
AcDbEntity
  8
Make2D$可见线$普通线
100
AcDbVertex
100
AcDb2dVertex
 10
943.3675294728658
 20
647.9967471808985
 30
0.0
 42
-0.3454524552615382
  0
VERTEX
  5
110
330
105
100
AcDbEntity
  8
Make2D$可见线$普通线
100
AcDbVertex
100
AcDb2dVertex
 10
943.324904554883
 20
648.020997184713
 30
0.0
 42
-0.058453830304215
  0
VERTEX
  5
111
330
105
100
AcDbEntity
  8
Make2D$可见线$普通线
100
AcDbVertex
100
AcDb2dVertex
 10
943.3170294347183
 20
648.115247280082
 30
0.0
  0
VERTEX
  5
112
330
105
100
AcDbEntity
  8
Make2D$可见线$普通线
100
AcDbVertex
100
AcDb2dVertex
 10
943.3170294347183
 20
648.7647471808983
 30
0.0
  0
VERTEX
  5
113
330
105
100
AcDbEntity
  8
Make2D$可见线$普通线
100
AcDbVertex
100
AcDb2dVertex
 10
943.1410294347182
 20
648.6687471808983
 30
0.0
 42
-0.0854035441351392
  0
VERTEX
  5
114
330
105
100
AcDbEntity
  8
Make2D$可见线$普通线
100
AcDbVertex
100
AcDb2dVertex
 10
942.9556611441849
 20
648.2544601974746
 30
0.0
  0
SEQEND
  5
115
330
105
100
AcDbEntity
  8
Make2D$可见线$普通线
  0
POLYLINE
  5
116
330
1F
100
AcDbEntity
  8
Make2D$可见线$普通线
100
AcDb2dPolyline
 66
     1
 10
0.0
 20
0.0
 30
0.0
  0
VERTEX
  5
117
330
116
100
AcDbEntity
  8
Make2D$可见线$普通线
100
AcDbVertex
100
AcDb2dVertex
 10
944.2193174928234
 20
648.1648040628468
 30
0.0
  0
VERTEX
  5
118
330
116
100
AcDbEntity
  8
Make2D$可见线$普通线
100
AcDbVertex
100
AcDb2dVertex
 10
944.2965294881249
 20
648.2802473563771
 30
0.0
  0
VERTEX
  5
119
330
116
100
AcDbEntity
  8
Make2D$可见线$普通线
100
AcDbVertex
100
AcDb2dVertex
 10
944.2930294347183
 20
648.2152473411181
 30
0.0
  0
VERTEX
  5
11A
330
116
100
AcDbEntity
  8
Make2D$可见线$普通线
100
AcDbVertex
100
AcDb2dVertex
 10
944.2930294347183
 20
648.1542473868951
 30
0.0
 42
0.4272756914203519
  0
VERTEX
  5
11B
330
116
100
AcDbEntity
  8
Make2D$可见线$普通线
100
AcDbVertex
100
AcDb2dVertex
 10
944.5880295415316
 20
647.8847471808982
 30
0.0
 42
0.248727151490313
  0
VERTEX
  5
11C
330
116
100
AcDbEntity
  8
Make2D$可见线$普通线
100
AcDbVertex
100
AcDb2dVertex
 10
945.0059044480699
 20
648.1419971999721
 30
0.0
 42
0.1520076421306113
  0
VERTEX
  5
11D
330
116
100
AcDbEntity
  8
Make2D$可见线$普通线
100
AcDbVertex
100
AcDb2dVertex
 10
945.1886285106023
 20
648.7425924469171
 30
0.0
  0
VERTEX
  5
11E
330
116
100
AcDbEntity
  8
Make2D$可见线$普通线
100
AcDbVertex
100
AcDb2dVertex
 10
945.1890294347183
 20
648.7777473792656
 30
0.0
 42
0.1665147948458523
  0
VERTEX
  5
11F
330
116
100
AcDbEntity
  8
Make2D$可见线$普通线
100
AcDbVertex
100
AcDb2dVertex
 10
945.0200295415314
 20
649.3437472266754
 30
0.0
 42
0.2411988715892287
  0
VERTEX
  5
120
330
116
100
AcDbEntity
  8
Make2D$可见线$普通线
100
AcDbVertex
100
AcDb2dVertex
 10
944.6332794995691
 20
649.5647471808984
 30
0.0
 42
0.1965046676532748
  0
VERTEX
  5
121
330
116
100
AcDbEntity
  8
Make2D$可见线$普通线
100
AcDbVertex
100
AcDb2dVertex
 10
944.4687795529758
 20
649.5048722438419
 30
0.0
 42
0.2138201024067988
  0
VERTEX
  5
122
330
116
100
AcDbEntity
  8
Make2D$可见线$普通线
100
AcDbVertex
100
AcDb2dVertex
 10
944.4050294347182
 20
649.3407471808982
 30
0.0
 42
-0.1324401692703122
  0
VERTEX
  5
123
330
116
100
AcDbEntity
  8
Make2D$可见线$普通线
100
AcDbVertex
100
AcDb2dVertex
 10
944.5857795071987
 20
649.3887471808985
 30
0.0
 42
-0.245845560688637
  0
VERTEX
  5
124
330
116
100
AcDbEntity
  8
Make2D$可见线$普通线
100
AcDbVertex
100
AcDb2dVertex
 10
944.9181544518847
 20
649.1964972991559
 30
0.0
 42
-0.2102634964979954
  0
VERTEX
  5
125
330
116
100
AcDbEntity
  8
Make2D$可见线$普通线
100
AcDbVertex
100
AcDb2dVertex
 10
945.0505295186427
 20
648.6232472190459
 30
0.0
 42
0.1585956739377291
  0
VERTEX
  5
126
330
116
100
AcDbEntity
  8
Make2D$可见线$普通线
100
AcDbVertex
100
AcDb2dVertex
 10
944.9193533721648
 20
648.742592446917
 30
0.0
 42
0.1020400573922974
  0
VERTEX
  5
127
330
116
100
AcDbEntity
  8
Make2D$可见线$普通线
100
AcDbVertex
100
AcDb2dVertex
 10
944.8042796674184
 20
648.7647471808983
 30
0.0
  0
VERTEX
  5
128
330
116
100
AcDbEntity
  8
Make2D$可见线$普通线
100
AcDbVertex
100
AcDb2dVertex
 10
944.7965972080519
 20
648.7646115039255
 30
0.0
  0
VERTEX
  5
129
330
116
100
AcDbEntity
  8
Make2D$可见线$普通线
100
AcDbVertex
100
AcDb2dVertex
 10
944.7889067211121
 20
648.7643082863261
 30
0.0
  0
VERTEX
  5
12A
330
116
100
AcDbEntity
  8
Make2D$可见线$普通线
100
AcDbVertex
100
AcDb2dVertex
 10
944.7812136737128
 20
648.7638369656671
 30
0.0
  0
VERTEX
  5
12B
330
116
100
AcDbEntity
  8
Make2D$可见线$普通线
100
AcDbVertex
100
AcDb2dVertex
 10
944.7735235679754
 20
648.7631972171891
 30
0.0
  0
VERTEX
  5
12C
330
116
100
AcDbEntity
  8
Make2D$可见线$普通线
100
AcDbVertex
100
AcDb2dVertex
 10
944.7658419281062
 20
648.7623889561451
 30
0.0
  0
VERTEX
  5
12D
330
116
100
AcDbEntity
  8
Make2D$可见线$普通线
100
AcDbVertex
100
AcDb2dVertex
 10
944.7581742873039
 20
648.7614123392962
 30
0.0
  0
VERTEX
  5
12E
330
116
100
AcDbEntity
  8
Make2D$可见线$普通线
100
AcDbVertex
100
AcDb2dVertex
 10
944.750526174556
 20
648.7602677655451
 30
0.0
  0
VERTEX
  5
12F
330
116
100
AcDbEntity
  8
Make2D$可见线$普通线
100
AcDbVertex
100
AcDb2dVertex
 10
944.742903101397
 20
648.7589558757088
 30
0.0
  0
VERTEX
  5
130
330
116
100
AcDbEntity
  8
Make2D$可见线$普通线
100
AcDbVertex
100
AcDb2dVertex
 10
944.7353105486893
 20
648.7574775514172
 30
0.0
  0
VERTEX
  5
131
330
116
100
AcDbEntity
  8
Make2D$可见线$普通线
100
AcDbVertex
100
AcDb2dVertex
 10
944.7277539534956
 20
648.7558339131499
 30
0.0
  0
VERTEX
  5
132
330
116
100
AcDbEntity
  8
Make2D$可见线$普通线
100
AcDbVertex
100
AcDb2dVertex
 10
944.7202386961081
 20
648.7540263174136
 30
0.0
  0
VERTEX
  5
133
330
116
100
AcDbEntity
  8
Make2D$可见线$普通线
100
AcDbVertex
100
AcDb2dVertex
 10
944.7127700873006
 20
648.7520563530811
 30
0.0
  0
VERTEX
  5
134
330
116
100
AcDbEntity
  8
Make2D$可见线$普通线
100
AcDbVertex
100
AcDb2dVertex
 10
944.7053533558642
 20
648.7499258369062
 30
0.0
  0
VERTEX
  5
135
330
116
100
AcDbEntity
  8
Make2D$可见线$普通线
100
AcDbVertex
100
AcDb2dVertex
 10
944.6979936364917
 20
648.7476368082455
 30
0.0
  0
VERTEX
  5
136
330
116
100
AcDbEntity
  8
Make2D$可见线$普通线
100
AcDbVertex
100
AcDb2dVertex
 10
944.6906959580649
 20
648.7451915230146
 30
0.0
  0
VERTEX
  5
137
330
116
100
AcDbEntity
  8
Make2D$可见线$普通线
100
AcDbVertex
100
AcDb2dVertex
 10
944.683465232403
 20
648.7425924469171
 30
0.0
  0
VERTEX
  5
138
330
116
100
AcDbEntity
  8
Make2D$可见线$普通线
100
AcDbVertex
100
AcDb2dVertex
 10
944.6732857011896
 20
648.7387561490139
 30
0.0
  0
VERTEX
  5
139
330
116
100
AcDbEntity
  8
Make2D$可见线$普通线
100
AcDbVertex
100
AcDb2dVertex
 10
944.6631478919091
 20
648.7346373864393
 30
0.0
  0
VERTEX
  5
13A
330
116
100
AcDbEntity
  8
Make2D$可见线$普通线
100
AcDbVertex
100
AcDb2dVertex
 10
944.6530529814382
 20
648.7302428142436
 30
0.0
  0
VERTEX
  5
13B
330
116
100
AcDbEntity
  8
Make2D$可见线$普通线
100
AcDbVertex
100
AcDb2dVertex
 10
944.6430021466533
 20
648.7255790874767
 30
0.0
  0
VERTEX
  5
13C
330
116
100
AcDbEntity
  8
Make2D$可见线$普通线
100
AcDbVertex
100
AcDb2dVertex
 10
944.6329965644308
 20
648.7206528611883
 30
0.0
  0
VERTEX
  5
13D
330
116
100
AcDbEntity
  8
Make2D$可见线$普通线
100
AcDbVertex
100
AcDb2dVertex
 10
944.6230374116471
 20
648.7154707904286
 30
0.0
  0
VERTEX
  5
13E
330
116
100
AcDbEntity
  8
Make2D$可见线$普通线
100
AcDbVertex
100
AcDb2dVertex
 10
944.6131258651791
 20
648.7100395302474
 30
0.0
  0
VERTEX
  5
13F
330
116
100
AcDbEntity
  8
Make2D$可见线$普通线
100
AcDbVertex
100
AcDb2dVertex
 10
944.6032631019027
 20
648.7043657356948
 30
0.0
  0
VERTEX
  5
140
330
116
100
AcDbEntity
  8
Make2D$可见线$普通线
100
AcDbVertex
100
AcDb2dVertex
 10
944.5934502986947
 20
648.6984560618205
 30
0.0
  0
VERTEX
  5
141
330
116
100
AcDbEntity
  8
Make2D$可见线$普通线
100
AcDbVertex
100
AcDb2dVertex
 10
944.5836886324316
 20
648.6923171636747
 30
0.0
  0
VERTEX
  5
142
330
116
100
AcDbEntity
  8
Make2D$可见线$普通线
100
AcDbVertex
100
AcDb2dVertex
 10
944.5739792799898
 20
648.6859556963071
 30
0.0
  0
VERTEX
  5
143
330
116
100
AcDbEntity
  8
Make2D$可见线$普通线
100
AcDbVertex
100
AcDb2dVertex
 10
944.5643234182454
 20
648.6793783147677
 30
0.0
  0
VERTEX
  5
144
330
116
100
AcDbEntity
  8
Make2D$可见线$普通线
100
AcDbVertex
100
AcDb2dVertex
 10
944.545176874356
 20
648.6656024293737
 30
0.0
  0
VERTEX
  5
145
330
116
100
AcDbEntity
  8
Make2D$可见线$普通线
100
AcDbVertex
100
AcDb2dVertex
 10
944.5262584157754
 20
648.6510427478921
 30
0.0
  0
VERTEX
  5
146
330
116
100
AcDbEntity
  8
Make2D$可见线$普通线
100
AcDbVertex
100
AcDb2dVertex
 10
944.5075774575151
 20
648.6357525107225
 30
0.0
  0
VERTEX
  5
147
330
116
100
AcDbEntity
  8
Make2D$可见线$普通线
100
AcDbVertex
100
AcDb2dVertex
 10
944.489143414587
 20
648.6197849582643
 30
0.0
  0
VERTEX
  5
148
330
116
100
AcDbEntity
  8
Make2D$可见线$普通线
100
AcDbVertex
100
AcDb2dVertex
 10
944.4709657020028
 20
648.6031933309171
 30
0.0
  0
VERTEX
  5
149
330
116
100
AcDbEntity
  8
Make2D$可见线$普通线
100
AcDbVertex
100
AcDb2dVertex
 10
944.4530537347745
 20
648.5860308690806
 30
0.0
  0
VERTEX
  5
14A
330
116
100
AcDbEntity
  8
Make2D$可见线$普通线
100
AcDbVertex
100
AcDb2dVertex
 10
944.4354169279136
 20
648.5683508131542
 30
0.0
  0
VERTEX
  5
14B
330
116
100
AcDbEntity
  8
Make2D$可见线$普通线
100
AcDbVertex
100
AcDb2dVertex
 10
944.4180646964319
 20
648.5502064035375
 30
0.0
  0
VERTEX
  5
14C
330
116
100
AcDbEntity
  8
Make2D$可见线$普通线
100
AcDbVertex
100
AcDb2dVertex
 10
944.4010064553413
 20
648.53165088063
 30
0.0
  0
VERTEX
  5
14D
330
116
100
AcDbEntity
  8
Make2D$可见线$普通线
100
AcDbVertex
100
AcDb2dVertex
 10
944.3842516196535
 20
648.5127374848312
 30
0.0
  0
VERTEX
  5
14E
330
116
100
AcDbEntity
  8
Make2D$可见线$普通线
100
AcDbVertex
100
AcDb2dVertex
 10
944.3516898245334
 20
648.4740500361584
 30
0.0
  0
VERTEX
  5
14F
330
116
100
AcDbEntity
  8
Make2D$可见线$普通线
100
AcDbVertex
100
AcDb2dVertex
 10
944.320454631166
 20
648.4345699807152
 30
0.0
  0
VERTEX
  5
150
330
116
100
AcDbEntity
  8
Make2D$可见线$普通线
100
AcDbVertex
100
AcDb2dVertex
 10
944.2906213596452
 20
648.3947232416982
 30
0.0
  0
VERTEX
  5
151
330
116
100
AcDbEntity
  8
Make2D$可见线$普通线
100
AcDbVertex
100
AcDb2dVertex
 10
944.2622653300655
 20
648.3549357423037
 30
0.0
  0
VERTEX
  5
152
330
116
100
AcDbEntity
  8
Make2D$可见线$普通线
100
AcDbVertex
100
AcDb2dVertex
 10
944.2354618625209
 20
648.3156334057282
 30
0.0
  0
VERTEX
  5
153
330
116
100
AcDbEntity
  8
Make2D$可见线$普通线
100
AcDbVertex
100
AcDb2dVertex
 10
944.2102862771056
 20
648.277242155168
 30
0.0
  0
VERTEX
  5
154
330
116
100
AcDbEntity
  8
Make2D$可见线$普通线
100
AcDbVertex
100
AcDb2dVertex
 10
944.16512003304
 20
648.2048966048791
 30
0.0
  0
VERTEX
  5
155
330
116
100
AcDbEntity
  8
Make2D$可见线$普通线
100
AcDbVertex
100
AcDb2dVertex
 10
944.2174386379454
 20
648.1660833397344
 30
0.0
 42
-0.2213892331653634
  0
VERTEX
  5
156
330
116
100
AcDbEntity
  8
Make2D$可见线$普通线
100
AcDbVertex
100
AcDb2dVertex
 10
943.8357795377167
 20
647.8847471808982
 30
0.0
 42
-0.2440020583170697
  0
VERTEX
  5
157
330
116
100
AcDbEntity
  8
Make2D$可见线$普通线
100
AcDbVertex
100
AcDb2dVertex
 10
943.7355294728659
 20
647.9296222552862
 30
0.0
 42
-0.1247645786024783
  0
VERTEX
  5
158
330
116
100
AcDbEntity
  8
Make2D$可见线$普通线
100
AcDbVertex
100
AcDb2dVertex
 10
943.7010294347184
 20
648.1247471808983
 30
0.0
  0
VERTEX
  5
159
330
116
100
AcDbEntity
  8
Make2D$可见线$普通线
100
AcDbVertex
100
AcDb2dVertex
 10
943.7010294347183
 20
648.2784973296739
 30
0.0
 42
-0.0543742809401498
  0
VERTEX
  5
15A
330
116
100
AcDbEntity
  8
Make2D$可见线$普通线
100
AcDbVertex
100
AcDb2dVertex
 10
943.4357795377168
 20
647.9418721980647
 30
0.0
 42
-0.1590639597033181
  0
VERTEX
  5
15B
330
116
100
AcDbEntity
  8
Make2D$可见线$普通线
100
AcDbVertex
100
AcDb2dVertex
 10
943.2910295262724
 20
647.8847471808982
 30
0.0
 42
-0.2371829143711849
  0
VERTEX
  5
15C
330
116
100
AcDbEntity
  8
Make2D$可见线$普通线
100
AcDbVertex
100
AcDb2dVertex
 10
943.1802795453461
 20
647.9333721904352
 30
0.0
 42
-0.1241480925054305
  0
VERTEX
  5
15D
330
116
100
AcDbEntity
  8
Make2D$可见线$普通线
100
AcDbVertex
100
AcDb2dVertex
 10
943.1410294347182
 20
648.1594972228606
 30
0.0
  0
VERTEX
  5
15E
330
116
100
AcDbEntity
  8
Make2D$可见线$普通线
100
AcDbVertex
100
AcDb2dVertex
 10
943.1410294347182
 20
648.4474972228606
 30
0.0
 42
-0.0501400011437397
  0
VERTEX
  5
15F
330
116
100
AcDbEntity
  8
Make2D$可见线$普通线
100
AcDbVertex
100
AcDb2dVertex
 10
943.0110163713285
 20
648.2071735228523
 30
0.0
  0
SEQEND
  5
160
330
116
100
AcDbEntity
  8
Make2D$可见线$普通线
  0
LINE
  5
161
330
1F
100
AcDbEntity
  8
Make2D$可见线$普通线
100
AcDbLine
 10
944.2450294347183
 20
648.2069972152311
 30
0.0
 11
944.1922796063823
 21
648.2527471808983
 31
0.0
  0
LINE
  5
162
330
1F
100
AcDbEntity
  8
Make2D$可见线$普通线
100
AcDbLine
 10
942.9337990236429
 20
648.2202097984609
 30
0.0
 11
942.9910295873085
 21
648.180247295341
 31
0.0
  0
LINE
  5
163
330
1F
100
AcDbEntity
  8
Make2D$可见线$普通线
100
AcDbLine
 10
941.7013048448586
 20
648.220522468886
 30
0.0
 11
941.7512794690512
 21
648.1797472877115
 31
0.0
  0
LINE
  5
164
330
1F
100
AcDbEntity
  8
Make2D$可见线$普通线
100
AcDbLine
 10
955.2190030729735
 20
648.2047471808984
 30
0.0
 11
955.2717824857792
 21
648.1658316719949
 31
0.0
  0
LINE
  5
165
330
1F
100
AcDbEntity
  8
Make2D$可见线$普通线
100
AcDbLine
 10
957.9158790889093
 20
625.7737385689385
 30
0.0
 11
957.9463991768721
 21
625.8419580244321
 31
0.0
  0
ARC
  5
166
330
1F
100
AcDbEntity
  8
Make2D$可见线$普通线
100
AcDbCircle
 10
947.5336220713824
 20
648.7425924469155
 30
0.0
 40
22.89822952859901
100
AcDbArc
 50
301.0793849797258
 51
238.9206150202742
  0
ARC
  5
167
330
1F
100
AcDbEntity
  8
Make2D$可见线$普通线
100
AcDbCircle
 10
947.5336220713823
 20
648.7425915935926
 30
0.0
 40
20.99092758776059
100
AcDbArc
 50
311.1813601752057
 51
228.8186398247945
  0
ARC
  5
168
330
1F
100
AcDbEntity
  8
Make2D$可见线$普通线
100
AcDbCircle
 10
947.5336220713821
 20
648.7425920909243
 30
0.0
 40
30.36114923704519
100
AcDbArc
 50
286.1719795081638
 51
253.8280204918373
  0
POLYLINE
  5
169
330
1F
100
AcDbEntity
  8
Make2D$可见线$普通线
100
AcDb2dPolyline
 66
     1
 10
0.0
 20
0.0
 30
0.0
  0
VERTEX
  5
16A
330
169
100
AcDbEntity
  8
Make2D$可见线$普通线
100
AcDbVertex
100
AcDb2dVertex
 10
959.0453718404677
 20
628.4627819376716
 30
0.0
 42
-0.0449377325889241
  0
VERTEX
  5
16B
330
169
100
AcDbEntity
  8
Make2D$可见线$普通线
100
AcDbVertex
100
AcDb2dVertex
 10
963.4649389273472
 20
636.2676302127422
 30
0.0
  0
VERTEX
  5
16C
330
169
100
AcDbEntity
  8
Make2D$可见线$普通线
100
AcDbVertex
100
AcDb2dVertex
 10
963.9649930963932
 20
636.9774172126833
 30
0.0
 42
0.2813624112374721
  0
VERTEX
  5
16D
330
169
100
AcDbEntity
  8
Make2D$可见线$普通线
100
AcDbVertex
100
AcDb2dVertex
 10
965.5255101680418
 20
657.9915658635865
 30
0.0
 42
0.2811016120540422
  0
VERTEX
  5
16E
330
169
100
AcDbEntity
  8
Make2D$可见线$普通线
100
AcDbVertex
100
AcDb2dVertex
 10
947.542741328487
 20
668.9752048180045
 30
0.0
  0
SEQEND
  5
16F
330
169
100
AcDbEntity
  8
Make2D$可见线$普通线
  0
POLYLINE
  5
170
330
1F
100
AcDbEntity
  8
Make2D$可见线$普通线
100
AcDb2dPolyline
 66
     1
 10
0.0
 20
0.0
 30
0.0
  0
VERTEX
  5
171
330
170
100
AcDbEntity
  8
Make2D$可见线$普通线
100
AcDbVertex
100
AcDb2dVertex
 10
947.5427413284873
 20
665.9709266528951
 30
0.0
 42
-0.6297913561579449
  0
VERTEX
  5
172
330
170
100
AcDbEntity
  8
Make2D$可见线$普通线
100
AcDbVertex
100
AcDb2dVertex
 10
960.9549384812359
 20
637.9681413447144
 30
0.0
  0
VERTEX
  5
173
330
170
100
AcDbEntity
  8
Make2D$可见线$普通线
100
AcDbVertex
100
AcDb2dVertex
 10
960.9950482058175
 20
637.9675442908335
 30
0.0
 42
0.0644049821710345
  0
VERTEX
  5
174
330
170
100
AcDbEntity
  8
Make2D$可见线$普通线
100
AcDbVertex
100
AcDb2dVertex
 10
955.0927293195664
 20
628.2356401822267
 30
0.0
 42
0.0446243710640356
  0
VERTEX
  5
175
330
170
100
AcDbEntity
  8
Make2D$可见线$普通线
100
AcDbVertex
100
AcDb2dVertex
 10
952.4776196368332
 20
618.7760871355867
 30
0.0
 42
0.0275563103810951
  0
VERTEX
  5
176
330
170
100
AcDbEntity
  8
Make2D$可见线$普通线
100
AcDbVertex
100
AcDb2dVertex
 10
951.3362675862109
 20
609.7362252425839
 30
0.0
 42
0.0322659099578544
  0
VERTEX
  5
177
330
170
100
AcDbEntity
  8
Make2D$可见线$普通线
100
AcDbVertex
100
AcDb2dVertex
 10
951.3096167598299
 20
597.436614861904
 30
0.0
  0
VERTEX
  5
178
330
170
100
AcDbEntity
  8
Make2D$可见线$普通线
100
AcDbVertex
100
AcDb2dVertex
 10
951.4656813183203
 20
595.1373269281258
 30
0.0
  0
VERTEX
  5
179
330
170
100
AcDbEntity
  8
Make2D$可见线$普通线
100
AcDbVertex
100
AcDb2dVertex
 10
951.647972401579
 20
592.8398191241647
 30
0.0
  0
VERTEX
  5
17A
330
170
100
AcDbEntity
  8
Make2D$可见线$普通线
100
AcDbVertex
100
AcDb2dVertex
 10
951.8564569942994
 20
590.5445399858253
 30
0.0
  0
VERTEX
  5
17B
330
170
100
AcDbEntity
  8
Make2D$可见线$普通线
100
AcDbVertex
100
AcDb2dVertex
 10
952.5597020971592
 20
583.7370658962667
 30
0.0
  0
VERTEX
  5
17C
330
170
100
AcDbEntity
  8
Make2D$可见线$普通线
100
AcDbVertex
100
AcDb2dVertex
 10
952.7859772840743
 20
581.4610717778409
 30
0.0
  0
VERTEX
  5
17D
330
170
100
AcDbEntity
  8
Make2D$可见线$普通线
100
AcDbVertex
100
AcDb2dVertex
 10
952.9197307400877
 20
580.0220393029681
 30
0.0
  0
VERTEX
  5
17E
330
170
100
AcDbEntity
  8
Make2D$可见线$普通线
100
AcDbVertex
100
AcDb2dVertex
 10
953.0430612280893
 20
578.577159319864
 30
0.0
  0
VERTEX
  5
17F
330
170
100
AcDbEntity
  8
Make2D$可见线$普通线
100
AcDbVertex
100
AcDb2dVertex
 10
953.152240842551
 20
577.1285827826014
 30
0.0
  0
VERTEX
  5
180
330
170
100
AcDbEntity
  8
Make2D$可见线$普通线
100
AcDbVertex
100
AcDb2dVertex
 10
953.2435416779446
 20
575.6784606452525
 30
0.0
  0
VERTEX
  5
181
330
170
100
AcDbEntity
  8
Make2D$可见线$普通线
100
AcDbVertex
100
AcDb2dVertex
 10
953.3168534857109
 20
574.0883755808243
 30
0.0
  0
VERTEX
  5
182
330
170
100
AcDbEntity
  8
Make2D$可见线$普通线
100
AcDbVertex
100
AcDb2dVertex
 10
953.3559528109632
 20
572.5317407666378
 30
0.0
  0
VERTEX
  5
183
330
170
100
AcDbEntity
  8
Make2D$可见线$普通线
100
AcDbVertex
100
AcDb2dVertex
 10
953.3589822633088
 20
571.7674546236667
 30
0.0
  0
VERTEX
  5
184
330
170
100
AcDbEntity
  8
Make2D$可见线$普通线
100
AcDbVertex
100
AcDb2dVertex
 10
953.3490299598201
 20
571.0133159475936
 30
0.0
  0
VERTEX
  5
185
330
170
100
AcDbEntity
  8
Make2D$可见线$普通线
100
AcDbVertex
100
AcDb2dVertex
 10
953.324619688762
 20
570.269919706531
 30
0.0
  0
VERTEX
  5
186
330
170
100
AcDbEntity
  8
Make2D$可见线$普通线
100
AcDbVertex
100
AcDb2dVertex
 10
953.2842752383993
 20
569.5378608685917
 30
0.0
  0
VERTEX
  5
187
330
170
100
AcDbEntity
  8
Make2D$可见线$普通线
100
AcDbVertex
100
AcDb2dVertex
 10
953.228112966097
 20
568.8394035916757
 30
0.0
  0
VERTEX
  5
188
330
170
100
AcDbEntity
  8
Make2D$可见线$普通线
100
AcDbVertex
100
AcDb2dVertex
 10
953.1516061904452
 20
568.1521419496577
 30
0.0
  0
VERTEX
  5
189
330
170
100
AcDbEntity
  8
Make2D$可见线$普通线
100
AcDbVertex
100
AcDb2dVertex
 10
953.1044801552699
 20
567.812703064638
 30
0.0
  0
VERTEX
  5
18A
330
170
100
AcDbEntity
  8
Make2D$可见线$普通线
100
AcDbVertex
100
AcDb2dVertex
 10
953.0507758439455
 20
567.4760553758263
 30
0.0
  0
VERTEX
  5
18B
330
170
100
AcDbEntity
  8
Make2D$可见线$普通线
100
AcDbVertex
100
AcDb2dVertex
 10
952.9899958730339
 20
567.1421963123829
 30
0.0
  0
VERTEX
  5
18C
330
170
100
AcDbEntity
  8
Make2D$可见线$普通线
100
AcDbVertex
100
AcDb2dVertex
 10
952.9216428590983
 20
566.8111233034693
 30
0.0
  0
VERTEX
  5
18D
330
170
100
AcDbEntity
  8
Make2D$可见线$普通线
100
AcDbVertex
100
AcDb2dVertex
 10
952.8626539975669
 20
566.5547371028115
 30
0.0
  0
VERTEX
  5
18E
330
170
100
AcDbEntity
  8
Make2D$可见线$普通线
100
AcDbVertex
100
AcDb2dVertex
 10
952.7981358442606
 20
566.3003890252999
 30
0.0
  0
VERTEX
  5
18F
330
170
100
AcDbEntity
  8
Make2D$可见线$普通线
100
AcDbVertex
100
AcDb2dVertex
 10
952.7274745003059
 20
566.048421878965
 30
0.0
  0
VERTEX
  5
190
330
170
100
AcDbEntity
  8
Make2D$可见线$普通线
100
AcDbVertex
100
AcDb2dVertex
 10
952.6500560668287
 20
565.7991784718367
 30
0.0
  0
VERTEX
  5
191
330
170
100
AcDbEntity
  8
Make2D$可见线$普通线
100
AcDbVertex
100
AcDb2dVertex
 10
952.5652666449555
 20
565.5530016119457
 30
0.0
  0
VERTEX
  5
192
330
170
100
AcDbEntity
  8
Make2D$可见线$普通线
100
AcDbVertex
100
AcDb2dVertex
 10
952.4724923358125
 20
565.3102341073217
 30
0.0
  0
VERTEX
  5
193
330
170
100
AcDbEntity
  8
Make2D$可见线$普通线
100
AcDbVertex
100
AcDb2dVertex
 10
952.4229190051169
 20
565.1902359907443
 30
0.0
  0
VERTEX
  5
194
330
170
100
AcDbEntity
  8
Make2D$可见线$普通线
100
AcDbVertex
100
AcDb2dVertex
 10
952.3711192405261
 20
565.0712187659952
 30
0.0
  0
VERTEX
  5
195
330
170
100
AcDbEntity
  8
Make2D$可见线$普通线
100
AcDbVertex
100
AcDb2dVertex
 10
952.3170163046809
 20
564.9532252840779
 30
0.0
  0
VERTEX
  5
196
330
170
100
AcDbEntity
  8
Make2D$可见线$普通线
100
AcDbVertex
100
AcDb2dVertex
 10
952.2605334602224
 20
564.8362983959962
 30
0.0
  0
VERTEX
  5
197
330
170
100
AcDbEntity
  8
Make2D$可见线$普通线
100
AcDbVertex
100
AcDb2dVertex
 10
952.2092008080253
 20
564.7361331190818
 30
0.0
  0
VERTEX
  5
198
330
170
100
AcDbEntity
  8
Make2D$可见线$普通线
100
AcDbVertex
100
AcDb2dVertex
 10
952.1559634673786
 20
564.6365786921997
 30
0.0
  0
VERTEX
  5
199
330
170
100
AcDbEntity
  8
Make2D$可见线$普通线
100
AcDbVertex
100
AcDb2dVertex
 10
952.100689752557
 20
564.5377590025694
 30
0.0
  0
VERTEX
  5
19A
330
170
100
AcDbEntity
  8
Make2D$可见线$普通线
100
AcDbVertex
100
AcDb2dVertex
 10
952.0432479778364
 20
564.4397979374102
 30
0.0
  0
VERTEX
  5
19B
330
170
100
AcDbEntity
  8
Make2D$可见线$普通线
100
AcDbVertex
100
AcDb2dVertex
 10
951.983506457492
 20
564.3428193839414
 30
0.0
  0
VERTEX
  5
19C
330
170
100
AcDbEntity
  8
Make2D$可见线$普通线
100
AcDbVertex
100
AcDb2dVertex
 10
951.9213335057991
 20
564.2469472293825
 30
0.0
  0
VERTEX
  5
19D
330
170
100
AcDbEntity
  8
Make2D$可见线$普通线
100
AcDbVertex
100
AcDb2dVertex
 10
951.8565974370335
 20
564.1523053609528
 30
0.0
  0
VERTEX
  5
19E
330
170
100
AcDbEntity
  8
Make2D$可见线$普通线
100
AcDbVertex
100
AcDb2dVertex
 10
951.7891665654704
 20
564.0590176658716
 30
0.0
  0
VERTEX
  5
19F
330
170
100
AcDbEntity
  8
Make2D$可见线$普通线
100
AcDbVertex
100
AcDb2dVertex
 10
951.7110348703657
 20
563.9572165909108
 30
0.0
  0
VERTEX
  5
1A0
330
170
100
AcDbEntity
  8
Make2D$可见线$普通线
100
AcDbVertex
100
AcDb2dVertex
 10
951.6294427958433
 20
563.8574902134484
 30
0.0
  0
VERTEX
  5
1A1
330
170
100
AcDbEntity
  8
Make2D$可见线$普通线
100
AcDbVertex
100
AcDb2dVertex
 10
951.5444126134621
 20
563.760092042239
 30
0.0
  0
VERTEX
  5
1A2
330
170
100
AcDbEntity
  8
Make2D$可见线$普通线
100
AcDbVertex
100
AcDb2dVertex
 10
951.4559665947811
 20
563.6652755860373
 30
0.0
  0
VERTEX
  5
1A3
330
170
100
AcDbEntity
  8
Make2D$可见线$普通线
100
AcDbVertex
100
AcDb2dVertex
 10
951.3641270113593
 20
563.5732943535982
 30
0.0
  0
VERTEX
  5
1A4
330
170
100
AcDbEntity
  8
Make2D$可见线$普通线
100
AcDbVertex
100
AcDb2dVertex
 10
951.3169415927325
 20
563.5284461677754
 30
0.0
  0
VERTEX
  5
1A5
330
170
100
AcDbEntity
  8
Make2D$可见线$普通线
100
AcDbVertex
100
AcDb2dVertex
 10
951.2689161347553
 20
563.4844018536762
 30
0.0
  0
VERTEX
  5
1A6
330
170
100
AcDbEntity
  8
Make2D$可见线$普通线
100
AcDbVertex
100
AcDb2dVertex
 10
951.2200534213721
 20
563.4411930998951
 30
0.0
  0
VERTEX
  5
1A7
330
170
100
AcDbEntity
  8
Make2D$可见线$普通线
100
AcDbVertex
100
AcDb2dVertex
 10
951.1703562365279
 20
563.3988515950264
 30
0.0
  0
VERTEX
  5
1A8
330
170
100
AcDbEntity
  8
Make2D$可见线$普通线
100
AcDbVertex
100
AcDb2dVertex
 10
951.1198273641677
 20
563.3574090276643
 30
0.0
  0
VERTEX
  5
1A9
330
170
100
AcDbEntity
  8
Make2D$可见线$普通线
100
AcDbVertex
100
AcDb2dVertex
 10
951.0684695882362
 20
563.3168970864032
 30
0.0
  0
VERTEX
  5
1AA
330
170
100
AcDbEntity
  8
Make2D$可见线$普通线
100
AcDbVertex
100
AcDb2dVertex
 10
951.0116283291338
 20
563.2738834894191
 30
0.0
  0
VERTEX
  5
1AB
330
170
100
AcDbEntity
  8
Make2D$可见线$普通线
100
AcDbVertex
100
AcDb2dVertex
 10
950.9538441662394
 20
563.2320050223808
 30
0.0
  0
VERTEX
  5
1AC
330
170
100
AcDbEntity
  8
Make2D$可见线$普通线
100
AcDbVertex
100
AcDb2dVertex
 10
950.895153173012
 20
563.1912564426234
 30
0.0
  0
VERTEX
  5
1AD
330
170
100
AcDbEntity
  8
Make2D$可见线$普通线
100
AcDbVertex
100
AcDb2dVertex
 10
950.835591422911
 20
563.1516325074815
 30
0.0
  0
VERTEX
  5
1AE
330
170
100
AcDbEntity
  8
Make2D$可见线$普通线
100
AcDbVertex
100
AcDb2dVertex
 10
950.7751949893957
 20
563.1131279742898
 30
0.0
  0
VERTEX
  5
1AF
330
170
100
AcDbEntity
  8
Make2D$可见线$普通线
100
AcDbVertex
100
AcDb2dVertex
 10
950.7139999459253
 20
563.0757376003833
 30
0.0
  0
VERTEX
  5
1B0
330
170
100
AcDbEntity
  8
Make2D$可见线$普通线
100
AcDbVertex
100
AcDb2dVertex
 10
950.6520423659592
 20
563.0394561430962
 30
0.0
  0
VERTEX
  5
1B1
330
170
100
AcDbEntity
  8
Make2D$可见线$普通线
100
AcDbVertex
100
AcDb2dVertex
 10
950.5893583229567
 20
563.0042783597639
 30
0.0
  0
VERTEX
  5
1B2
330
170
100
AcDbEntity
  8
Make2D$可见线$普通线
100
AcDbVertex
100
AcDb2dVertex
 10
950.525983890377
 20
562.9701990077207
 30
0.0
  0
VERTEX
  5
1B3
330
170
100
AcDbEntity
  8
Make2D$可见线$普通线
100
AcDbVertex
100
AcDb2dVertex
 10
950.4619551416795
 20
562.9372128443015
 30
0.0
  0
VERTEX
  5
1B4
330
170
100
AcDbEntity
  8
Make2D$可见线$普通线
100
AcDbVertex
100
AcDb2dVertex
 10
950.3320789897682
 20
562.8744991126741
 30
0.0
  0
VERTEX
  5
1B5
330
170
100
AcDbEntity
  8
Make2D$可见线$普通线
100
AcDbVertex
100
AcDb2dVertex
 10
950.200018454897
 20
562.8160952235596
 30
0.0
  0
VERTEX
  5
1B6
330
170
100
AcDbEntity
  8
Make2D$可见线$普通线
100
AcDbVertex
100
AcDb2dVertex
 10
950.0660621247403
 20
562.7619592356359
 30
0.0
  0
VERTEX
  5
1B7
330
170
100
AcDbEntity
  8
Make2D$可见线$普通线
100
AcDbVertex
100
AcDb2dVertex
 10
949.9195607768704
 20
562.7082118203041
 30
0.0
  0
VERTEX
  5
1B8
330
170
100
AcDbEntity
  8
Make2D$可见线$普通线
100
AcDbVertex
100
AcDb2dVertex
 10
949.7713630901217
 20
562.6591876969168
 30
0.0
  0
VERTEX
  5
1B9
330
170
100
AcDbEntity
  8
Make2D$可见线$普通线
100
AcDbVertex
100
AcDb2dVertex
 10
949.6216473998404
 20
562.6146809261307
 30
0.0
  0
VERTEX
  5
1BA
330
170
100
AcDbEntity
  8
Make2D$可见线$普通线
100
AcDbVertex
100
AcDb2dVertex
 10
949.4705920413736
 20
562.5744855686028
 30
0.0
  0
VERTEX
  5
1BB
330
170
100
AcDbEntity
  8
Make2D$可见线$普通线
100
AcDbVertex
100
AcDb2dVertex
 10
949.3183753500673
 20
562.5383956849895
 30
0.0
  0
VERTEX
  5
1BC
330
170
100
AcDbEntity
  8
Make2D$可见线$普通线
100
AcDbVertex
100
AcDb2dVertex
 10
949.165175661268
 20
562.5062053359476
 30
0.0
  0
VERTEX
  5
1BD
330
170
100
AcDbEntity
  8
Make2D$可见线$普通线
100
AcDbVertex
100
AcDb2dVertex
 10
949.0111713103223
 20
562.4777085821336
 30
0.0
  0
VERTEX
  5
1BE
330
170
100
AcDbEntity
  8
Make2D$可见线$普通线
100
AcDbVertex
100
AcDb2dVertex
 10
948.8565406325766
 20
562.4526994842045
 30
0.0
  0
VERTEX
  5
1BF
330
170
100
AcDbEntity
  8
Make2D$可见线$普通线
100
AcDbVertex
100
AcDb2dVertex
 10
948.6933793002194
 20
562.4299469361206
 30
0.0
  0
VERTEX
  5
1C0
330
170
100
AcDbEntity
  8
Make2D$可见线$普通线
100
AcDbVertex
100
AcDb2dVertex
 10
948.529786202984
 20
562.410687392959
 30
0.0
  0
VERTEX
  5
1C1
330
170
100
AcDbEntity
  8
Make2D$可见线$普通线
100
AcDbVertex
100
AcDb2dVertex
 10
948.365825283216
 20
562.3947826060013
 30
0.0
  0
VERTEX
  5
1C2
330
170
100
AcDbEntity
  8
Make2D$可见线$普通线
100
AcDbVertex
100
AcDb2dVertex
 10
948.2015604832613
 20
562.3820943265299
 30
0.0
  0
VERTEX
  5
1C3
330
170
100
AcDbEntity
  8
Make2D$可见线$普通线
100
AcDbVertex
100
AcDb2dVertex
 10
948.0370557454654
 20
562.3724843058269
 30
0.0
  0
VERTEX
  5
1C4
330
170
100
AcDbEntity
  8
Make2D$可见线$普通线
100
AcDbVertex
100
AcDb2dVertex
 10
947.872375012174
 20
562.3658142951745
 30
0.0
  0
VERTEX
  5
1C5
330
170
100
AcDbEntity
  8
Make2D$可见线$普通线
100
AcDbVertex
100
AcDb2dVertex
 10
947.5427413284872
 20
562.3607413091495
 30
0.0
  0
SEQEND
  5
1C6
330
170
100
AcDbEntity
  8
Make2D$可见线$普通线
  0
POLYLINE
  5
1C7
330
1F
100
AcDbEntity
  8
Make2D$可见线$普通线
100
AcDb2dPolyline
 66
     1
 10
0.0
 20
0.0
 30
0.0
  0
VERTEX
  5
1C8
330
1C7
100
AcDbEntity
  8
Make2D$可见线$普通线
100
AcDbVertex
100
AcDb2dVertex
 10
947.5427413284871
 20
508.310189514016
 30
0.0
 42
0.0549170920644582
  0
VERTEX
  5
1C9
330
1C7
100
AcDbEntity
  8
Make2D$可见线$普通线
100
AcDbVertex
100
AcDb2dVertex
 10
957.8479078617784
 20
509.4404885279606
 30
0.0
  0
VERTEX
  5
1CA
330
1C7
100
AcDbEntity
  8
Make2D$可见线$普通线
100
AcDbVertex
100
AcDb2dVertex
 10
958.6003192708738
 20
509.6125677955721
 30
0.0
 42
0.0085774275082323
  0
VERTEX
  5
1CB
330
1C7
100
AcDbEntity
  8
Make2D$可见线$普通线
100
AcDbVertex
100
AcDb2dVertex
 10
960.2791509066185
 20
510.0407908692315
 30
0.0
  0
VERTEX
  5
1CC
330
1C7
100
AcDbEntity
  8
Make2D$可见线$普通线
100
AcDbVertex
100
AcDb2dVertex
 10
960.9928289847321
 20
510.2414890481388
 30
0.0
 42
0.0665592424302563
  0
VERTEX
  5
1CD
330
1C7
100
AcDbEntity
  8
Make2D$可见线$普通线
100
AcDbVertex
100
AcDb2dVertex
 10
974.1161153237014
 20
516.0577106518922
 30
0.0
  0
VERTEX
  5
1CE
330
1C7
100
AcDbEntity
  8
Make2D$可见线$普通线
100
AcDbVertex
100
AcDb2dVertex
 10
974.5321767423467
 20
516.3127401693481
 30
0.0
  0
VERTEX
  5
1CF
330
1C7
100
AcDbEntity
  8
Make2D$可见线$普通线
100
AcDbVertex
100
AcDb2dVertex
 10
974.9206153049761
 20
516.5550303250255
 30
0.0
  0
VERTEX
  5
1D0
330
1C7
100
AcDbEntity
  8
Make2D$可见线$普通线
100
AcDbVertex
100
AcDb2dVertex
 10
975.722816860027
 20
517.0683441617374
 30
0.0
  0
VERTEX
  5
1D1
330
1C7
100
AcDbEntity
  8
Make2D$可见线$普通线
100
AcDbVertex
100
AcDb2dVertex
 10
976.5225207048228
 20
517.5976283571022
 30
0.0
  0
VERTEX
  5
1D2
330
1C7
100
AcDbEntity
  8
Make2D$可见线$普通线
100
AcDbVertex
100
AcDb2dVertex
 10
976.9558804128303
 20
517.8918736017631
 30
0.0
  0
VERTEX
  5
1D3
330
1C7
100
AcDbEntity
  8
Make2D$可见线$普通线
100
AcDbVertex
100
AcDb2dVertex
 10
977.3195251039429
 20
518.1428553801377
 30
0.0
  0
VERTEX
  5
1D4
330
1C7
100
AcDbEntity
  8
Make2D$可见线$普通线
100
AcDbVertex
100
AcDb2dVertex
 10
978.1136204470455
 20
518.7040014412801
 30
0.0
 42
0.0074994992518799
  0
VERTEX
  5
1D5
330
1C7
100
AcDbEntity
  8
Make2D$可见线$普通线
100
AcDbVertex
100
AcDb2dVertex
 10
979.6922159787595
 20
519.8739496643276
 30
0.0
  0
VERTEX
  5
1D6
330
1C7
100
AcDbEntity
  8
Make2D$可见线$普通线
100
AcDbVertex
100
AcDb2dVertex
 10
980.4413656984293
 20
520.4551710458148
 30
0.0
 42
0.007498577524758
  0
VERTEX
  5
1D7
330
1C7
100
AcDbEntity
  8
Make2D$可见线$普通线
100
AcDbVertex
100
AcDb2dVertex
 10
982.0328740212881
 20
521.7473819906245
 30
0.0
  0
VERTEX
  5
1D8
330
1C7
100
AcDbEntity
  8
Make2D$可见线$普通线
100
AcDbVertex
100
AcDb2dVertex
 10
982.6643791094713
 20
522.2823668841374
 30
0.0
  0
VERTEX
  5
1D9
330
1C7
100
AcDbEntity
  8
Make2D$可见线$普通线
100
AcDbVertex
100
AcDb2dVertex
 10
983.4772176940928
 20
522.9901067277012
 30
0.0
  0
VERTEX
  5
1DA
330
1C7
100
AcDbEntity
  8
Make2D$可见线$普通线
100
AcDbVertex
100
AcDb2dVertex
 10
984.2787051414883
 20
523.7095235057506
 30
0.0
  0
VERTEX
  5
1DB
330
1C7
100
AcDbEntity
  8
Make2D$可见线$普通线
100
AcDbVertex
100
AcDb2dVertex
 10
985.0688347227001
 20
524.4402196639151
 30
0.0
  0
VERTEX
  5
1DC
330
1C7
100
AcDbEntity
  8
Make2D$可见线$普通线
100
AcDbVertex
100
AcDb2dVertex
 10
985.8475997087703
 20
525.1817976478242
 30
0.0
  0
VERTEX
  5
1DD
330
1C7
100
AcDbEntity
  8
Make2D$可见线$普通线
100
AcDbVertex
100
AcDb2dVertex
 10
986.6669531252251
 20
525.9855702444802
 30
0.0
  0
VERTEX
  5
1DE
330
1C7
100
AcDbEntity
  8
Make2D$可见线$普通线
100
AcDbVertex
100
AcDb2dVertex
 10
987.4734227357367
 20
526.8009821946762
 30
0.0
  0
VERTEX
  5
1DF
330
1C7
100
AcDbEntity
  8
Make2D$可见线$普通线
100
AcDbVertex
100
AcDb2dVertex
 10
988.2671006734171
 20
527.6277091382099
 30
0.0
  0
VERTEX
  5
1E0
330
1C7
100
AcDbEntity
  8
Make2D$可见线$普通线
100
AcDbVertex
100
AcDb2dVertex
 10
989.0480790713782
 20
528.4654267148788
 30
0.0
  0
VERTEX
  5
1E1
330
1C7
100
AcDbEntity
  8
Make2D$可见线$普通线
100
AcDbVertex
100
AcDb2dVertex
 10
989.8164500627323
 20
529.313810564481
 30
0.0
  0
VERTEX
  5
1E2
330
1C7
100
AcDbEntity
  8
Make2D$可见线$普通线
100
AcDbVertex
100
AcDb2dVertex
 10
990.5723057805911
 20
530.1725363268142
 30
0.0
  0
VERTEX
  5
1E3
330
1C7
100
AcDbEntity
  8
Make2D$可见线$普通线
100
AcDbVertex
100
AcDb2dVertex
 10
991.3157383580667
 20
531.041279641676
 30
0.0
  0
VERTEX
  5
1E4
330
1C7
100
AcDbEntity
  8
Make2D$可见线$普通线
100
AcDbVertex
100
AcDb2dVertex
 10
992.0468399282713
 20
531.9197161488644
 30
0.0
  0
VERTEX
  5
1E5
330
1C7
100
AcDbEntity
  8
Make2D$可见线$普通线
100
AcDbVertex
100
AcDb2dVertex
 10
992.7657026243166
 20
532.8075214881769
 30
0.0
  0
VERTEX
  5
1E6
330
1C7
100
AcDbEntity
  8
Make2D$可见线$普通线
100
AcDbVertex
100
AcDb2dVertex
 10
993.4724185793148
 20
533.7043712994114
 30
0.0
  0
VERTEX
  5
1E7
330
1C7
100
AcDbEntity
  8
Make2D$可见线$普通线
100
AcDbVertex
100
AcDb2dVertex
 10
994.1670799263778
 20
534.6099412223657
 30
0.0
  0
VERTEX
  5
1E8
330
1C7
100
AcDbEntity
  8
Make2D$可见线$普通线
100
AcDbVertex
100
AcDb2dVertex
 10
994.8497787986178
 20
535.5239068968376
 30
0.0
  0
VERTEX
  5
1E9
330
1C7
100
AcDbEntity
  8
Make2D$可见线$普通线
100
AcDbVertex
100
AcDb2dVertex
 10
995.5206073291465
 20
536.4459439626248
 30
0.0
  0
VERTEX
  5
1EA
330
1C7
100
AcDbEntity
  8
Make2D$可见线$普通线
100
AcDbVertex
100
AcDb2dVertex
 10
996.179657651076
 20
537.375728059525
 30
0.0
  0
VERTEX
  5
1EB
330
1C7
100
AcDbEntity
  8
Make2D$可见线$普通线
100
AcDbVertex
100
AcDb2dVertex
 10
996.8270218975185
 20
538.3129348273362
 30
0.0
  0
VERTEX
  5
1EC
330
1C7
100
AcDbEntity
  8
Make2D$可见线$普通线
100
AcDbVertex
100
AcDb2dVertex
 10
997.462792201586
 20
539.2572399058558
 30
0.0
  0
VERTEX
  5
1ED
330
1C7
100
AcDbEntity
  8
Make2D$可见线$普通线
100
AcDbVertex
100
AcDb2dVertex
 10
998.0507349894851
 20
540.1523357047898
 30
0.0
  0
VERTEX
  5
1EE
330
1C7
100
AcDbEntity
  8
Make2D$可见线$普通线
100
AcDbVertex
100
AcDb2dVertex
 10
998.6285614350833
 20
541.0532934762855
 30
0.0
  0
VERTEX
  5
1EF
330
1C7
100
AcDbEntity
  8
Make2D$可见线$普通线
100
AcDbVertex
100
AcDb2dVertex
 10
999.1963464317346
 20
541.9599731001593
 30
0.0
  0
VERTEX
  5
1F0
330
1C7
100
AcDbEntity
  8
Make2D$可见线$普通线
100
AcDbVertex
100
AcDb2dVertex
 10
999.7541648727931
 20
542.8722344562284
 30
0.0
  0
VERTEX
  5
1F1
330
1C7
100
AcDbEntity
  8
Make2D$可见线$普通线
100
AcDbVertex
100
AcDb2dVertex
 10
1000.302091651613
 20
543.7899374243095
 30
0.0
  0
VERTEX
  5
1F2
330
1C7
100
AcDbEntity
  8
Make2D$可见线$普通线
100
AcDbVertex
100
AcDb2dVertex
 10
1000.840201661549
 20
544.7129418842194
 30
0.0
  0
VERTEX
  5
1F3
330
1C7
100
AcDbEntity
  8
Make2D$可见线$普通线
100
AcDbVertex
100
AcDb2dVertex
 10
1001.368569795956
 20
545.641107715775
 30
0.0
  0
VERTEX
  5
1F4
330
1C7
100
AcDbEntity
  8
Make2D$可见线$普通线
100
AcDbVertex
100
AcDb2dVertex
 10
1001.887270948186
 20
546.5742947987932
 30
0.0
  0
VERTEX
  5
1F5
330
1C7
100
AcDbEntity
  8
Make2D$可见线$普通线
100
AcDbVertex
100
AcDb2dVertex
 10
1002.142428892344
 20
547.0416387172684
 30
0.0
  0
VERTEX
  5
1F6
330
1C7
100
AcDbEntity
  8
Make2D$可见线$普通线
100
AcDbVertex
100
AcDb2dVertex
 10
1002.452207142407
 20
547.6166044140641
 30
0.0
  0
VERTEX
  5
1F7
330
1C7
100
AcDbEntity
  8
Make2D$可见线$普通线
100
AcDbVertex
100
AcDb2dVertex
 10
1002.677914957054
 20
548.040887038429
 30
0.0
  0
VERTEX
  5
1F8
330
1C7
100
AcDbEntity
  8
Make2D$可见线$普通线
100
AcDbVertex
100
AcDb2dVertex
 10
1003.007540664312
 20
548.6688354112167
 30
0.0
  0
VERTEX
  5
1F9
330
1C7
100
AcDbEntity
  8
Make2D$可见线$普通线
100
AcDbVertex
100
AcDb2dVertex
 10
1003.202707385361
 20
549.0453973244112
 30
0.0
  0
VERTEX
  5
1FA
330
1C7
100
AcDbEntity
  8
Make2D$可见线$普通线
100
AcDbVertex
100
AcDb2dVertex
 10
1003.970042278789
 20
550.5616622320655
 30
0.0
  0
VERTEX
  5
1FB
330
1C7
100
AcDbEntity
  8
Make2D$可见线$普通线
100
AcDbVertex
100
AcDb2dVertex
 10
1004.713821537859
 20
552.0888215291916
 30
0.0
  0
VERTEX
  5
1FC
330
1C7
100
AcDbEntity
  8
Make2D$可见线$普通线
100
AcDbVertex
100
AcDb2dVertex
 10
1005.434348220951
 20
553.626308214936
 30
0.0
  0
VERTEX
  5
1FD
330
1C7
100
AcDbEntity
  8
Make2D$可见线$普通线
100
AcDbVertex
100
AcDb2dVertex
 10
1006.131925386444
 20
555.1735552884456
 30
0.0
  0
VERTEX
  5
1FE
330
1C7
100
AcDbEntity
  8
Make2D$可见线$普通线
100
AcDbVertex
100
AcDb2dVertex
 10
1006.867065855273
 20
556.8719299474801
 30
0.0
  0
VERTEX
  5
1FF
330
1C7
100
AcDbEntity
  8
Make2D$可见线$普通线
100
AcDbVertex
100
AcDb2dVertex
 10
1007.575529402968
 20
558.5807418358238
 30
0.0
  0
VERTEX
  5
200
330
1C7
100
AcDbEntity
  8
Make2D$可见线$普通线
100
AcDbVertex
100
AcDb2dVertex
 10
1008.257589144041
 20
560.2994877482297
 30
0.0
  0
VERTEX
  5
201
330
1C7
100
AcDbEntity
  8
Make2D$可见线$普通线
100
AcDbVertex
100
AcDb2dVertex
 10
1008.913518193008
 20
562.0276644794499
 30
0.0
  0
VERTEX
  5
202
330
1C7
100
AcDbEntity
  8
Make2D$可见线$普通线
100
AcDbVertex
100
AcDb2dVertex
 10
1009.543589664383
 20
563.764768824237
 30
0.0
  0
VERTEX
  5
203
330
1C7
100
AcDbEntity
  8
Make2D$可见线$普通线
100
AcDbVertex
100
AcDb2dVertex
 10
1010.148076672679
 20
565.5102975773433
 30
0.0
  0
VERTEX
  5
204
330
1C7
100
AcDbEntity
  8
Make2D$可见线$普通线
100
AcDbVertex
100
AcDb2dVertex
 10
1010.727252332412
 20
567.2637475335215
 30
0.0
  0
VERTEX
  5
205
330
1C7
100
AcDbEntity
  8
Make2D$可见线$普通线
100
AcDbVertex
100
AcDb2dVertex
 10
1011.281389758096
 20
569.0246154875242
 30
0.0
  0
VERTEX
  5
206
330
1C7
100
AcDbEntity
  8
Make2D$可见线$普通线
100
AcDbVertex
100
AcDb2dVertex
 10
1011.810750686885
 20
570.7924239445805
 30
0.0
  0
VERTEX
  5
207
330
1C7
100
AcDbEntity
  8
Make2D$可见线$普通线
100
AcDbVertex
100
AcDb2dVertex
 10
1012.315551346485
 20
572.5667982518266
 30
0.0
  0
VERTEX
  5
208
330
1C7
100
AcDbEntity
  8
Make2D$可见线$普通线
100
AcDbVertex
100
AcDb2dVertex
 10
1012.795996587246
 20
574.3473894668762
 30
0.0
  0
VERTEX
  5
209
330
1C7
100
AcDbEntity
  8
Make2D$可见线$普通线
100
AcDbVertex
100
AcDb2dVertex
 10
1013.252291259513
 20
576.1338486473419
 30
0.0
  0
VERTEX
  5
20A
330
1C7
100
AcDbEntity
  8
Make2D$可见线$普通线
100
AcDbVertex
100
AcDb2dVertex
 10
1013.684640213635
 20
577.9258268508372
 30
0.0
  0
VERTEX
  5
20B
330
1C7
100
AcDbEntity
  8
Make2D$可见线$普通线
100
AcDbVertex
100
AcDb2dVertex
 10
1014.093248299957
 20
579.7229751349751
 30
0.0
  0
VERTEX
  5
20C
330
1C7
100
AcDbEntity
  8
Make2D$可见线$普通线
100
AcDbVertex
100
AcDb2dVertex
 10
1014.478320368828
 20
581.5249445573688
 30
0.0
  0
VERTEX
  5
20D
330
1C7
100
AcDbEntity
  8
Make2D$可见线$普通线
100
AcDbVertex
100
AcDb2dVertex
 10
1014.840061270595
 20
583.3313861756318
 30
0.0
  0
VERTEX
  5
20E
330
1C7
100
AcDbEntity
  8
Make2D$可见线$普通线
100
AcDbVertex
100
AcDb2dVertex
 10
1015.169771893243
 20
585.0927768039453
 30
0.0
  0
VERTEX
  5
20F
330
1C7
100
AcDbEntity
  8
Make2D$可见线$普通线
100
AcDbVertex
100
AcDb2dVertex
 10
1015.477673212518
 20
586.8578173637702
 30
0.0
  0
VERTEX
  5
210
330
1C7
100
AcDbEntity
  8
Make2D$可见线$普通线
100
AcDbVertex
100
AcDb2dVertex
 10
1015.763844089858
 20
588.6262552865903
 30
0.0
  0
VERTEX
  5
211
330
1C7
100
AcDbEntity
  8
Make2D$可见线$普通线
100
AcDbVertex
100
AcDb2dVertex
 10
1016.028363386702
 20
590.3978380038894
 30
0.0
  0
VERTEX
  5
212
330
1C7
100
AcDbEntity
  8
Make2D$可见线$普通线
100
AcDbVertex
100
AcDb2dVertex
 10
1016.271309964488
 20
592.1723129471515
 30
0.0
  0
VERTEX
  5
213
330
1C7
100
AcDbEntity
  8
Make2D$可见线$普通线
100
AcDbVertex
100
AcDb2dVertex
 10
1016.492762684656
 20
593.9494275478603
 30
0.0
  0
VERTEX
  5
214
330
1C7
100
AcDbEntity
  8
Make2D$可见线$普通线
100
AcDbVertex
100
AcDb2dVertex
 10
1016.692800408644
 20
595.7289292374996
 30
0.0
  0
VERTEX
  5
215
330
1C7
100
AcDbEntity
  8
Make2D$可见线$普通线
100
AcDbVertex
100
AcDb2dVertex
 10
1016.871501997892
 20
597.5105654475535
 30
0.0
  0
VERTEX
  5
216
330
1C7
100
AcDbEntity
  8
Make2D$可见线$普通线
100
AcDbVertex
100
AcDb2dVertex
 10
1017.028946313837
 20
599.2940836095056
 30
0.0
  0
VERTEX
  5
217
330
1C7
100
AcDbEntity
  8
Make2D$可见线$普通线
100
AcDbVertex
100
AcDb2dVertex
 10
1017.165212217918
 20
601.0792311548399
 30
0.0
  0
VERTEX
  5
218
330
1C7
100
AcDbEntity
  8
Make2D$可见线$普通线
100
AcDbVertex
100
AcDb2dVertex
 10
1017.280378571574
 20
602.8657555150402
 30
0.0
  0
VERTEX
  5
219
330
1C7
100
AcDbEntity
  8
Make2D$可见线$普通线
100
AcDbVertex
100
AcDb2dVertex
 10
1017.374524236245
 20
604.6534041215903
 30
0.0
  0
VERTEX
  5
21A
330
1C7
100
AcDbEntity
  8
Make2D$可见线$普通线
100
AcDbVertex
100
AcDb2dVertex
 10
1017.447728073369
 20
606.4419244059741
 30
0.0
  0
VERTEX
  5
21B
330
1C7
100
AcDbEntity
  8
Make2D$可见线$普通线
100
AcDbVertex
100
AcDb2dVertex
 10
1017.500068944383
 20
608.2310637996752
 30
0.0
  0
VERTEX
  5
21C
330
1C7
100
AcDbEntity
  8
Make2D$可见线$普通线
100
AcDbVertex
100
AcDb2dVertex
 10
1017.531625710728
 20
610.0205697341779
 30
0.0
  0
VERTEX
  5
21D
330
1C7
100
AcDbEntity
  8
Make2D$可见线$普通线
100
AcDbVertex
100
AcDb2dVertex
 10
1017.542477233842
 20
611.8101896409656
 30
0.0
  0
VERTEX
  5
21E
330
1C7
100
AcDbEntity
  8
Make2D$可见线$普通线
100
AcDbVertex
100
AcDb2dVertex
 10
1017.532310887853
 20
613.5999002023597
 30
0.0
  0
VERTEX
  5
21F
330
1C7
100
AcDbEntity
  8
Make2D$可见线$普通线
100
AcDbVertex
100
AcDb2dVertex
 10
1017.501199724328
 20
615.38944798633
 30
0.0
  0
VERTEX
  5
220
330
1C7
100
AcDbEntity
  8
Make2D$可见线$普通线
100
AcDbVertex
100
AcDb2dVertex
 10
1017.449093460094
 20
617.1785885805244
 30
0.0
  0
VERTEX
  5
221
330
1C7
100
AcDbEntity
  8
Make2D$可见线$普通线
100
AcDbVertex
100
AcDb2dVertex
 10
1017.375941811981
 20
618.9670775725914
 30
0.0
  0
VERTEX
  5
222
330
1C7
100
AcDbEntity
  8
Make2D$可见线$普通线
100
AcDbVertex
100
AcDb2dVertex
 10
1017.281694496817
 20
620.7546705501788
 30
0.0
  0
VERTEX
  5
223
330
1C7
100
AcDbEntity
  8
Make2D$可见线$普通线
100
AcDbVertex
100
AcDb2dVertex
 10
1017.166301231431
 20
622.5411231009348
 30
0.0
  0
VERTEX
  5
224
330
1C7
100
AcDbEntity
  8
Make2D$可见线$普通线
100
AcDbVertex
100
AcDb2dVertex
 10
1017.029711732651
 20
624.3261908125073
 30
0.0
  0
VERTEX
  5
225
330
1C7
100
AcDbEntity
  8
Make2D$可见线$普通线
100
AcDbVertex
100
AcDb2dVertex
 10
1016.871875717307
 20
626.1096292725445
 30
0.0
  0
VERTEX
  5
226
330
1C7
100
AcDbEntity
  8
Make2D$可见线$普通线
100
AcDbVertex
100
AcDb2dVertex
 10
1016.692742902227
 20
627.8911940686944
 30
0.0
  0
VERTEX
  5
227
330
1C7
100
AcDbEntity
  8
Make2D$可见线$普通线
100
AcDbVertex
100
AcDb2dVertex
 10
1016.49226300424
 20
629.6706407886052
 30
0.0
  0
VERTEX
  5
228
330
1C7
100
AcDbEntity
  8
Make2D$可见线$普通线
100
AcDbVertex
100
AcDb2dVertex
 10
1016.270385740174
 20
631.447725019925
 30
0.0
  0
VERTEX
  5
229
330
1C7
100
AcDbEntity
  8
Make2D$可见线$普通线
100
AcDbVertex
100
AcDb2dVertex
 10
1016.027060826858
 20
633.2222023503017
 30
0.0
  0
VERTEX
  5
22A
330
1C7
100
AcDbEntity
  8
Make2D$可见线$普通线
100
AcDbVertex
100
AcDb2dVertex
 10
1015.762237981121
 20
634.9938283673835
 30
0.0
  0
VERTEX
  5
22B
330
1C7
100
AcDbEntity
  8
Make2D$可见线$普通线
100
AcDbVertex
100
AcDb2dVertex
 10
1015.475866919792
 20
636.7623586588182
 30
0.0
  0
VERTEX
  5
22C
330
1C7
100
AcDbEntity
  8
Make2D$可见线$普通线
100
AcDbVertex
100
AcDb2dVertex
 10
1015.167897359698
 20
638.5275488122543
 30
0.0
  0
VERTEX
  5
22D
330
1C7
100
AcDbEntity
  8
Make2D$可见线$普通线
100
AcDbVertex
100
AcDb2dVertex
 10
1014.83827901767
 20
640.2891544153397
 30
0.0
  0
VERTEX
  5
22E
330
1C7
100
AcDbEntity
  8
Make2D$可见线$普通线
100
AcDbVertex
100
AcDb2dVertex
 10
1014.569345709236
 20
641.6446036303294
 30
0.0
  0
VERTEX
  5
22F
330
1C7
100
AcDbEntity
  8
Make2D$可见线$普通线
100
AcDbVertex
100
AcDb2dVertex
 10
1014.287409740458
 20
642.9976108943456
 30
0.0
  0
VERTEX
  5
230
330
1C7
100
AcDbEntity
  8
Make2D$可见线$普通线
100
AcDbVertex
100
AcDb2dVertex
 10
1013.99236463138
 20
644.3480098841189
 30
0.0
  0
VERTEX
  5
231
330
1C7
100
AcDbEntity
  8
Make2D$可见线$普通线
100
AcDbVertex
100
AcDb2dVertex
 10
1013.684103902046
 20
645.6956342763795
 30
0.0
  0
VERTEX
  5
232
330
1C7
100
AcDbEntity
  8
Make2D$可见线$普通线
100
AcDbVertex
100
AcDb2dVertex
 10
1013.362521072498
 20
647.0403177478579
 30
0.0
  0
VERTEX
  5
233
330
1C7
100
AcDbEntity
  8
Make2D$可见线$普通线
100
AcDbVertex
100
AcDb2dVertex
 10
1013.02750966278
 20
648.3818939752846
 30
0.0
  0
VERTEX
  5
234
330
1C7
100
AcDbEntity
  8
Make2D$可见线$普通线
100
AcDbVertex
100
AcDb2dVertex
 10
1012.678963192935
 20
649.7201966353899
 30
0.0
  0
VERTEX
  5
235
330
1C7
100
AcDbEntity
  8
Make2D$可见线$普通线
100
AcDbVertex
100
AcDb2dVertex
 10
1012.316775183007
 20
651.0550594049046
 30
0.0
  0
VERTEX
  5
236
330
1C7
100
AcDbEntity
  8
Make2D$可见线$普通线
100
AcDbVertex
100
AcDb2dVertex
 10
1012.303941201863
 20
651.1013870310198
 30
0.0
 42
0.0326426539997408
  0
VERTEX
  5
237
330
1C7
100
AcDbEntity
  8
Make2D$可见线$普通线
100
AcDbVertex
100
AcDb2dVertex
 10
1006.867723627339
 20
666.744551495912
 30
0.0
  0
VERTEX
  5
238
330
1C7
100
AcDbEntity
  8
Make2D$可见线$普通线
100
AcDbVertex
100
AcDb2dVertex
 10
1006.61656897486
 20
667.3326613902557
 30
0.0
 42
0.0056336580069269
  0
VERTEX
  5
239
330
1C7
100
AcDbEntity
  8
Make2D$可见线$普通线
100
AcDbVertex
100
AcDb2dVertex
 10
1005.533040657324
 20
669.7753492963423
 30
0.0
  0
VERTEX
  5
23A
330
1C7
100
AcDbEntity
  8
Make2D$可见线$普通线
100
AcDbVertex
100
AcDb2dVertex
 10
1005.129389076934
 20
670.6486643547728
 30
0.0
  0
VERTEX
  5
23B
330
1C7
100
AcDbEntity
  8
Make2D$可见线$普通线
100
AcDbVertex
100
AcDb2dVertex
 10
1004.917059719459
 20
671.100531419652
 30
0.0
  0
VERTEX
  5
23C
330
1C7
100
AcDbEntity
  8
Make2D$可见线$普通线
100
AcDbVertex
100
AcDb2dVertex
 10
1004.613586658441
 20
671.7376489006118
 30
0.0
  0
VERTEX
  5
23D
330
1C7
100
AcDbEntity
  8
Make2D$可见线$普通线
100
AcDbVertex
100
AcDb2dVertex
 10
1004.283949503816
 20
672.4183973425719
 30
0.0
  0
VERTEX
  5
23E
330
1C7
100
AcDbEntity
  8
Make2D$可见线$普通线
100
AcDbVertex
100
AcDb2dVertex
 10
1004.087850537411
 20
672.8179380752218
 30
0.0
 42
0.0090012001668848
  0
VERTEX
  5
23F
330
1C7
100
AcDbEntity
  8
Make2D$可见线$普通线
100
AcDbVertex
100
AcDb2dVertex
 10
1002.280019180918
 20
676.3236844231042
 30
0.0
  0
VERTEX
  5
240
330
1C7
100
AcDbEntity
  8
Make2D$可见线$普通线
100
AcDbVertex
100
AcDb2dVertex
 10
1001.887171516135
 20
677.0460298829441
 30
0.0
  0
VERTEX
  5
241
330
1C7
100
AcDbEntity
  8
Make2D$可见线$普通线
100
AcDbVertex
100
AcDb2dVertex
 10
1001.576564879744
 20
677.6078779383968
 30
0.0
  0
VERTEX
  5
242
330
1C7
100
AcDbEntity
  8
Make2D$可见线$普通线
100
AcDbVertex
100
AcDb2dVertex
 10
1001.313044697406
 20
678.0782960384754
 30
0.0
 42
0.0371281135803302
  0
VERTEX
  5
243
330
1C7
100
AcDbEntity
  8
Make2D$可见线$普通线
100
AcDbVertex
100
AcDb2dVertex
 10
993.4288579458944
 20
689.9700683702345
 30
0.0
  0
VERTEX
  5
244
330
1C7
100
AcDbEntity
  8
Make2D$可见线$普通线
100
AcDbVertex
100
AcDb2dVertex
 10
993.0520400282962
 20
690.4504199104368
 30
0.0
 42
0.058788450837973
  0
VERTEX
  5
245
330
1C7
100
AcDbEntity
  8
Make2D$可见线$普通线
100
AcDbVertex
100
AcDb2dVertex
 10
980.4380941151865
 20
703.1696148338478
 30
0.0
  0
VERTEX
  5
246
330
1C7
100
AcDbEntity
  8
Make2D$可见线$普通线
100
AcDbVertex
100
AcDb2dVertex
 10
979.6931791851273
 20
703.74768950361
 30
0.0
 42
0.0075183038736269
  0
VERTEX
  5
247
330
1C7
100
AcDbEntity
  8
Make2D$可见线$普通线
100
AcDbVertex
100
AcDb2dVertex
 10
978.1146792862207
 20
704.9178524225556
 30
0.0
  0
VERTEX
  5
248
330
1C7
100
AcDbEntity
  8
Make2D$可见线$普通线
100
AcDbVertex
100
AcDb2dVertex
 10
977.320583450495
 20
705.4790459024315
 30
0.0
  0
VERTEX
  5
249
330
1C7
100
AcDbEntity
  8
Make2D$可见线$普通线
100
AcDbVertex
100
AcDb2dVertex
 10
976.9503809910921
 20
705.7345099661427
 30
0.0
  0
VERTEX
  5
24A
330
1C7
100
AcDbEntity
  8
Make2D$可见线$普通线
100
AcDbVertex
100
AcDb2dVertex
 10
976.523532673126
 20
706.0242548484507
 30
0.0
  0
VERTEX
  5
24B
330
1C7
100
AcDbEntity
  8
Make2D$可见线$普通线
100
AcDbVertex
100
AcDb2dVertex
 10
975.7237331769311
 20
706.5534434618726
 30
0.0
  0
VERTEX
  5
24C
330
1C7
100
AcDbEntity
  8
Make2D$可见线$普通线
100
AcDbVertex
100
AcDb2dVertex
 10
974.9213910117862
 20
707.0665829518343
 30
0.0
  0
VERTEX
  5
24D
330
1C7
100
AcDbEntity
  8
Make2D$可见线$普通线
100
AcDbVertex
100
AcDb2dVertex
 10
974.5280533435753
 20
707.3117381402678
 30
0.0
  0
VERTEX
  5
24E
330
1C7
100
AcDbEntity
  8
Make2D$可见线$普通线
100
AcDbVertex
100
AcDb2dVertex
 10
974.1167119445873
 20
707.563651823275
 30
0.0
 42
0.0662211329479668
  0
VERTEX
  5
24F
330
1C7
100
AcDbEntity
  8
Make2D$可见线$普通线
100
AcDbVertex
100
AcDb2dVertex
 10
960.9950145596142
 20
713.3765281856249
 30
0.0
  0
VERTEX
  5
250
330
1C7
100
AcDbEntity
  8
Make2D$可见线$普通线
100
AcDbVertex
100
AcDb2dVertex
 10
960.2788335199148
 20
713.578437412462
 30
0.0
 42
0.0085561888670336
  0
VERTEX
  5
251
330
1C7
100
AcDbEntity
  8
Make2D$可见线$普通线
100
AcDbVertex
100
AcDb2dVertex
 10
958.6006155989073
 20
714.0077679013389
 30
0.0
  0
VERTEX
  5
252
330
1C7
100
AcDbEntity
  8
Make2D$可见线$普通线
100
AcDbVertex
100
AcDb2dVertex
 10
957.848035215533
 20
714.1804745716549
 30
0.0
 42
0.0555271124184021
  0
VERTEX
  5
253
330
1C7
100
AcDbEntity
  8
Make2D$可见线$普通线
100
AcDbVertex
100
AcDb2dVertex
 10
947.5427413284871
 20
715.3101901042796
 30
0.0
  0
SEQEND
  5
254
330
1C7
100
AcDbEntity
  8
Make2D$可见线$普通线
  0
ARC
  5
255
330
1F
100
AcDbEntity
  8
Make2D$可见线$普通线
100
AcDbCircle
 10
947.5336220713823
 20
648.7425924469173
 30
0.0
 40
14.22400324823276
100
AcDbArc
 50
270.0367333282391
 51
89.96326667176088
  0
ARC
  5
256
330
1F
100
AcDbEntity
  8
Make2D$可见线$普通线
100
AcDbCircle
 10
947.5336220713823
 20
648.7425924469171
 30
0.0
 40
13.46374855692944
100
AcDbArc
 50
270.0388075417579
 51
89.96119245824157
  0
SPLINE
  5
257
330
1F
100
AcDbEntity
  8
Make2D$可见线$普通线
100
AcDbSpline
210
0.0
220
0.0
230
1.0
 70
     8
 71
     3
 72
    24
 73
    20
 74
     0
 42
0.000000001
 43
0.0000000001
 12
1.0
 22
0.0
 32
0.0
 13
1.0
 23
0.0
 33
0.0
 40
398.5106717943364
 40
398.5106717943364
 40
398.5106717943364
 40
398.5106717943364
 40
411.53607113608
 40
418.2210023897718
 40
425.3772064202129
 40
440.0223898717161
 40
456.7823325138697
 40
474.4208886698241
 40
492.4621916604951
 40
511.7102677052205
 40
531.3671864910488
 40
531.3671864910488
 40
531.3671864910488
 40
559.443708342119
 40
588.3034171415432
 40
611.058050072385
 40
623.5771242599071
 40
645.5909750528106
 40
664.1937370720666
 40
664.1937370720666
 40
664.1937370720666
 40
664.1937370720666
 10
947.5427413284872
 20
511.2940886956317
 30
0.0
 10
951.8866753959798
 20
511.2837415995061
 30
0.0
 10
958.4466093240899
 20
512.2863329398432
 30
0.0
 10
966.8583477822281
 20
515.4112984155191
 30
0.0
 10
975.2502220153569
 20
519.9075878746521
 30
0.0
 10
985.3084386792261
 20
528.0445166226447
 30
0.0
 10
995.5837688961554
 20
540.8653094323938
 30
0.0
 10
1003.885793439135
 20
556.3168933963519
 30
0.0
 10
1009.972397621869
 20
573.6354936903449
 30
0.0
 10
1013.719747483968
 20
592.2890723048457
 30
0.0
 10
1014.56523409771
 20
605.2577768584565
 30
0.0
 10
1014.565845941728
 20
611.8101896407848
 30
0.0
 10
1014.56721877753
 20
621.1702089473788
 30
0.0
 10
1012.796855676544
 20
640.155702767892
 30
0.0
 10
1005.106433557866
 20
665.7426279014455
 30
0.0
 10
994.5086148339068
 20
684.4916722288465
 30
0.0
 10
981.9604835289548
 20
698.9440668556132
 30
0.0
 10
967.2568857889299
 20
709.3552932911471
 30
0.0
 10
953.7458149556477
 20
712.3494783444937
 30
0.0
 10
947.5427413284874
 20
712.3262909439712
 30
0.0
  0
LINE
  5
258
330
1F
100
AcDbEntity
  8
Make2D$可见线$普通线
100
AcDbLine
 10
956.348236362735
 20
571.9725458482864
 30
0.0
 11
956.3514046365246
 21
572.1109407667843
 31
0.0
  0
LINE
  5
259
330
1F
100
AcDbEntity
  8
Make2D$可见线$普通线
100
AcDbLine
 10
937.1513650538559
 20
625.7737385689385
 30
0.0
 11
937.1208449658926
 21
625.8419580244321
 31
0.0
  0
LINE
  5
25A
330
1F
100
AcDbEntity
  8
Make2D$可见线$普通线
100
AcDbLine
 10
938.7190077800299
 20
571.9725458482864
 30
0.0
 11
938.7158395062402
 21
572.1109407667843
 31
0.0
  0
SPLINE
  5
25B
330
1F
100
AcDbEntity
  8
Make2D$可见线$普通线
100
AcDbSpline
210
0.0
220
0.0
230
1.0
 70
     8
 71
     3
 72
    24
 73
    20
 74
     0
 42
0.000000001
 43
0.0000000001
 12
1.0
 22
0.0
 32
0.0
 13
1.0
 23
0.0
 33
0.0
 40
398.5106717943364
 40
398.5106717943364
 40
398.5106717943364
 40
398.5106717943364
 40
411.53607113608
 40
418.2210023897718
 40
425.3772064202129
 40
440.0223898717161
 40
456.7823325138697
 40
474.4208886698241
 40
492.4621916604951
 40
511.7102677052205
 40
531.3671864910488
 40
531.3671864910488
 40
531.3671864910488
 40
559.443708342119
 40
588.3034171415432
 40
611.058050072385
 40
623.5771242599071
 40
645.5909750528106
 40
664.1937370720666
 40
664.1937370720666
 40
664.1937370720666
 40
664.1937370720666
 10
947.5245028142776
 20
511.2940886956317
 30
0.0
 10
943.180568746785
 20
511.2837415995061
 30
0.0
 10
936.6206348186747
 20
512.2863329398432
 30
0.0
 10
928.2088963605368
 20
515.4112984155191
 30
0.0
 10
919.8170221274078
 20
519.9075878746521
 30
0.0
 10
909.7588054635386
 20
528.0445166226447
 30
0.0
 10
899.4834752466093
 20
540.8653094323938
 30
0.0
 10
891.1814507036297
 20
556.3168933963519
 30
0.0
 10
885.0948465208961
 20
573.6354936903449
 30
0.0
 10
881.3474966587963
 20
592.2890723048457
 30
0.0
 10
880.5020100450542
 20
605.2577768584565
 30
0.0
 10
880.5013982010367
 20
611.8101896407848
 30
0.0
 10
880.5000253652352
 20
621.1702089473788
 30
0.0
 10
882.2703884662205
 20
640.155702767892
 30
0.0
 10
889.9608105848981
 20
665.7426279014455
 30
0.0
 10
900.5586293088581
 20
684.4916722288465
 30
0.0
 10
913.1067606138099
 20
698.9440668556132
 30
0.0
 10
927.8103583538347
 20
709.3552932911471
 30
0.0
 10
941.321429187117
 20
712.3494783444937
 30
0.0
 10
947.5245028142774
 20
712.3262909439712
 30
0.0
  0
ARC
  5
25C
330
1F
100
AcDbEntity
  8
Make2D$可见线$普通线
100
AcDbCircle
 10
947.5336220713828
 20
648.7425924469172
 30
0.0
 40
13.46374855692955
100
AcDbArc
 50
90.03880754175941
 51
269.9611924582401
  0
ARC
  5
25D
330
1F
100
AcDbEntity
  8
Make2D$可见线$普通线
100
AcDbCircle
 10
947.5336220713824
 20
648.7425924469172
 30
0.0
 40
14.22400324823264
100
AcDbArc
 50
90.03673332823959
 51
269.9632666717604
  0
POLYLINE
  5
25E
330
1F
100
AcDbEntity
  8
Make2D$可见线$普通线
100
AcDb2dPolyline
 66
     1
 10
0.0
 20
0.0
 30
0.0
  0
VERTEX
  5
25F
330
25E
100
AcDbEntity
  8
Make2D$可见线$普通线
100
AcDbVertex
100
AcDb2dVertex
 10
947.5245028142774
 20
508.310189514016
 30
0.0
 42
-0.0549170920644591
  0
VERTEX
  5
260
330
25E
100
AcDbEntity
  8
Make2D$可见线$普通线
100
AcDbVertex
100
AcDb2dVertex
 10
937.2193362809865
 20
509.4404885279606
 30
0.0
  0
VERTEX
  5
261
330
25E
100
AcDbEntity
  8
Make2D$可见线$普通线
100
AcDbVertex
100
AcDb2dVertex
 10
936.466924871891
 20
509.6125677955721
 30
0.0
 42
-0.0085774275082917
  0
VERTEX
  5
262
330
25E
100
AcDbEntity
  8
Make2D$可见线$普通线
100
AcDbVertex
100
AcDb2dVertex
 10
934.7880932361462
 20
510.0407908692315
 30
0.0
  0
VERTEX
  5
263
330
25E
100
AcDbEntity
  8
Make2D$可见线$普通线
100
AcDbVertex
100
AcDb2dVertex
 10
934.0744151580326
 20
510.2414890481388
 30
0.0
 42
-0.0665592424302523
  0
VERTEX
  5
264
330
25E
100
AcDbEntity
  8
Make2D$可见线$普通线
100
AcDbVertex
100
AcDb2dVertex
 10
920.9511288190635
 20
516.0577106518922
 30
0.0
  0
VERTEX
  5
265
330
25E
100
AcDbEntity
  8
Make2D$可见线$普通线
100
AcDbVertex
100
AcDb2dVertex
 10
920.5350674004181
 20
516.3127401693481
 30
0.0
  0
VERTEX
  5
266
330
25E
100
AcDbEntity
  8
Make2D$可见线$普通线
100
AcDbVertex
100
AcDb2dVertex
 10
920.1466288377886
 20
516.5550303250255
 30
0.0
  0
VERTEX
  5
267
330
25E
100
AcDbEntity
  8
Make2D$可见线$普通线
100
AcDbVertex
100
AcDb2dVertex
 10
919.3444272827377
 20
517.0683441617374
 30
0.0
  0
VERTEX
  5
268
330
25E
100
AcDbEntity
  8
Make2D$可见线$普通线
100
AcDbVertex
100
AcDb2dVertex
 10
918.5447234379418
 20
517.5976283571022
 30
0.0
  0
VERTEX
  5
269
330
25E
100
AcDbEntity
  8
Make2D$可见线$普通线
100
AcDbVertex
100
AcDb2dVertex
 10
918.1113637299344
 20
517.8918736017631
 30
0.0
  0
VERTEX
  5
26A
330
25E
100
AcDbEntity
  8
Make2D$可见线$普通线
100
AcDbVertex
100
AcDb2dVertex
 10
917.747719038822
 20
518.1428553801377
 30
0.0
  0
VERTEX
  5
26B
330
25E
100
AcDbEntity
  8
Make2D$可见线$普通线
100
AcDbVertex
100
AcDb2dVertex
 10
916.9536236957193
 20
518.7040014412801
 30
0.0
 42
-0.0074994992518529
  0
VERTEX
  5
26C
330
25E
100
AcDbEntity
  8
Make2D$可见线$普通线
100
AcDbVertex
100
AcDb2dVertex
 10
915.3750281640052
 20
519.8739496643276
 30
0.0
  0
VERTEX
  5
26D
330
25E
100
AcDbEntity
  8
Make2D$可见线$普通线
100
AcDbVertex
100
AcDb2dVertex
 10
914.6258784443354
 20
520.455171045815
 30
0.0
 42
-0.0074985775248016
  0
VERTEX
  5
26E
330
25E
100
AcDbEntity
  8
Make2D$可见线$普通线
100
AcDbVertex
100
AcDb2dVertex
 10
913.0343701214766
 20
521.7473819906245
 30
0.0
  0
VERTEX
  5
26F
330
25E
100
AcDbEntity
  8
Make2D$可见线$普通线
100
AcDbVertex
100
AcDb2dVertex
 10
912.4028650332937
 20
522.2823668841374
 30
0.0
  0
VERTEX
  5
270
330
25E
100
AcDbEntity
  8
Make2D$可见线$普通线
100
AcDbVertex
100
AcDb2dVertex
 10
911.5900266966879
 20
522.9901064996064
 30
0.0
  0
VERTEX
  5
271
330
25E
100
AcDbEntity
  8
Make2D$可见线$普通线
100
AcDbVertex
100
AcDb2dVertex
 10
910.788539283174
 20
523.7095232436424
 30
0.0
  0
VERTEX
  5
272
330
25E
100
AcDbEntity
  8
Make2D$可见线$普通线
100
AcDbVertex
100
AcDb2dVertex
 10
909.9984095948951
 20
524.4402194988475
 30
0.0
  0
VERTEX
  5
273
330
25E
100
AcDbEntity
  8
Make2D$可见线$普通线
100
AcDbVertex
100
AcDb2dVertex
 10
909.2196444339944
 20
525.181797647824
 30
0.0
  0
VERTEX
  5
274
330
25E
100
AcDbEntity
  8
Make2D$可见线$普通线
100
AcDbVertex
100
AcDb2dVertex
 10
908.4002910175398
 20
525.9855702444802
 30
0.0
  0
VERTEX
  5
275
330
25E
100
AcDbEntity
  8
Make2D$可见线$普通线
100
AcDbVertex
100
AcDb2dVertex
 10
907.593821407028
 20
526.8009821946762
 30
0.0
  0
VERTEX
  5
276
330
25E
100
AcDbEntity
  8
Make2D$可见线$普通线
100
AcDbVertex
100
AcDb2dVertex
 10
906.8001434693476
 20
527.6277091382099
 30
0.0
  0
VERTEX
  5
277
330
25E
100
AcDbEntity
  8
Make2D$可见线$普通线
100
AcDbVertex
100
AcDb2dVertex
 10
906.0191650713864
 20
528.4654267148788
 30
0.0
  0
VERTEX
  5
278
330
25E
100
AcDbEntity
  8
Make2D$可见线$普通线
100
AcDbVertex
100
AcDb2dVertex
 10
905.2507940800325
 20
529.313810564481
 30
0.0
  0
VERTEX
  5
279
330
25E
100
AcDbEntity
  8
Make2D$可见线$普通线
100
AcDbVertex
100
AcDb2dVertex
 10
904.4949383621737
 20
530.1725363268142
 30
0.0
  0
VERTEX
  5
27A
330
25E
100
AcDbEntity
  8
Make2D$可见线$普通线
100
AcDbVertex
100
AcDb2dVertex
 10
903.751505784698
 20
531.041279641676
 30
0.0
  0
VERTEX
  5
27B
330
25E
100
AcDbEntity
  8
Make2D$可见线$普通线
100
AcDbVertex
100
AcDb2dVertex
 10
903.0204042144935
 20
531.9197161488644
 30
0.0
  0
VERTEX
  5
27C
330
25E
100
AcDbEntity
  8
Make2D$可见线$普通线
100
AcDbVertex
100
AcDb2dVertex
 10
902.3015415184482
 20
532.8075214881769
 30
0.0
  0
VERTEX
  5
27D
330
25E
100
AcDbEntity
  8
Make2D$可见线$普通线
100
AcDbVertex
100
AcDb2dVertex
 10
901.59482556345
 20
533.7043712994114
 30
0.0
  0
VERTEX
  5
27E
330
25E
100
AcDbEntity
  8
Make2D$可见线$普通线
100
AcDbVertex
100
AcDb2dVertex
 10
900.9001642163869
 20
534.6099412223657
 30
0.0
  0
VERTEX
  5
27F
330
25E
100
AcDbEntity
  8
Make2D$可见线$普通线
100
AcDbVertex
100
AcDb2dVertex
 10
900.2174653441471
 20
535.5239068968376
 30
0.0
  0
VERTEX
  5
280
330
25E
100
AcDbEntity
  8
Make2D$可见线$普通线
100
AcDbVertex
100
AcDb2dVertex
 10
899.5466368136183
 20
536.4459439626248
 30
0.0
  0
VERTEX
  5
281
330
25E
100
AcDbEntity
  8
Make2D$可见线$普通线
100
AcDbVertex
100
AcDb2dVertex
 10
898.8875864916888
 20
537.375728059525
 30
0.0
  0
VERTEX
  5
282
330
25E
100
AcDbEntity
  8
Make2D$可见线$普通线
100
AcDbVertex
100
AcDb2dVertex
 10
898.2402222452463
 20
538.3129348273362
 30
0.0
  0
VERTEX
  5
283
330
25E
100
AcDbEntity
  8
Make2D$可见线$普通线
100
AcDbVertex
100
AcDb2dVertex
 10
897.6044519411788
 20
539.2572399058558
 30
0.0
  0
VERTEX
  5
284
330
25E
100
AcDbEntity
  8
Make2D$可见线$普通线
100
AcDbVertex
100
AcDb2dVertex
 10
897.0165091532795
 20
540.1523357047898
 30
0.0
  0
VERTEX
  5
285
330
25E
100
AcDbEntity
  8
Make2D$可见线$普通线
100
AcDbVertex
100
AcDb2dVertex
 10
896.4386827076814
 20
541.0532934762855
 30
0.0
  0
VERTEX
  5
286
330
25E
100
AcDbEntity
  8
Make2D$可见线$普通线
100
AcDbVertex
100
AcDb2dVertex
 10
895.8708977110302
 20
541.9599731001593
 30
0.0
  0
VERTEX
  5
287
330
25E
100
AcDbEntity
  8
Make2D$可见线$普通线
100
AcDbVertex
100
AcDb2dVertex
 10
895.3130792699717
 20
542.8722344562284
 30
0.0
  0
VERTEX
  5
288
330
25E
100
AcDbEntity
  8
Make2D$可见线$普通线
100
AcDbVertex
100
AcDb2dVertex
 10
894.7651524911514
 20
543.7899374243095
 30
0.0
  0
VERTEX
  5
289
330
25E
100
AcDbEntity
  8
Make2D$可见线$普通线
100
AcDbVertex
100
AcDb2dVertex
 10
894.2270424812154
 20
544.7129418842194
 30
0.0
  0
VERTEX
  5
28A
330
25E
100
AcDbEntity
  8
Make2D$可见线$普通线
100
AcDbVertex
100
AcDb2dVertex
 10
893.6986743468092
 20
545.641107715775
 30
0.0
  0
VERTEX
  5
28B
330
25E
100
AcDbEntity
  8
Make2D$可见线$普通线
100
AcDbVertex
100
AcDb2dVertex
 10
893.1799731945785
 20
546.5742947987932
 30
0.0
  0
VERTEX
  5
28C
330
25E
100
AcDbEntity
  8
Make2D$可见线$普通线
100
AcDbVertex
100
AcDb2dVertex
 10
892.9248152504204
 20
547.0416387172684
 30
0.0
  0
VERTEX
  5
28D
330
25E
100
AcDbEntity
  8
Make2D$可见线$普通线
100
AcDbVertex
100
AcDb2dVertex
 10
892.6150370003581
 20
547.6166044140641
 30
0.0
  0
VERTEX
  5
28E
330
25E
100
AcDbEntity
  8
Make2D$可见线$普通线
100
AcDbVertex
100
AcDb2dVertex
 10
892.389329185711
 20
548.040887038429
 30
0.0
  0
VERTEX
  5
28F
330
25E
100
AcDbEntity
  8
Make2D$可见线$普通线
100
AcDbVertex
100
AcDb2dVertex
 10
892.0597034784528
 20
548.6688354112167
 30
0.0
  0
VERTEX
  5
290
330
25E
100
AcDbEntity
  8
Make2D$可见线$普通线
100
AcDbVertex
100
AcDb2dVertex
 10
891.864536757404
 20
549.0453973244112
 30
0.0
  0
VERTEX
  5
291
330
25E
100
AcDbEntity
  8
Make2D$可见线$普通线
100
AcDbVertex
100
AcDb2dVertex
 10
891.0972018639751
 20
550.5616622320655
 30
0.0
  0
VERTEX
  5
292
330
25E
100
AcDbEntity
  8
Make2D$可见线$普通线
100
AcDbVertex
100
AcDb2dVertex
 10
890.3534226049053
 20
552.0888215291916
 30
0.0
  0
VERTEX
  5
293
330
25E
100
AcDbEntity
  8
Make2D$可见线$普通线
100
AcDbVertex
100
AcDb2dVertex
 10
889.632895921814
 20
553.626308214936
 30
0.0
  0
VERTEX
  5
294
330
25E
100
AcDbEntity
  8
Make2D$可见线$普通线
100
AcDbVertex
100
AcDb2dVertex
 10
888.9353187563212
 20
555.1735552884456
 30
0.0
  0
VERTEX
  5
295
330
25E
100
AcDbEntity
  8
Make2D$可见线$普通线
100
AcDbVertex
100
AcDb2dVertex
 10
888.2001782874914
 20
556.8719299474801
 30
0.0
  0
VERTEX
  5
296
330
25E
100
AcDbEntity
  8
Make2D$可见线$普通线
100
AcDbVertex
100
AcDb2dVertex
 10
887.491714739797
 20
558.5807418358238
 30
0.0
  0
VERTEX
  5
297
330
25E
100
AcDbEntity
  8
Make2D$可见线$普通线
100
AcDbVertex
100
AcDb2dVertex
 10
886.8096549987235
 20
560.2994877482297
 30
0.0
  0
VERTEX
  5
298
330
25E
100
AcDbEntity
  8
Make2D$可见线$普通线
100
AcDbVertex
100
AcDb2dVertex
 10
886.1537259497568
 20
562.0276644794499
 30
0.0
  0
VERTEX
  5
299
330
25E
100
AcDbEntity
  8
Make2D$可见线$普通线
100
AcDbVertex
100
AcDb2dVertex
 10
885.5236544783822
 20
563.764768824237
 30
0.0
  0
VERTEX
  5
29A
330
25E
100
AcDbEntity
  8
Make2D$可见线$普通线
100
AcDbVertex
100
AcDb2dVertex
 10
884.9191674700857
 20
565.5102975773433
 30
0.0
  0
VERTEX
  5
29B
330
25E
100
AcDbEntity
  8
Make2D$可见线$普通线
100
AcDbVertex
100
AcDb2dVertex
 10
884.3399918103524
 20
567.2637475335215
 30
0.0
  0
VERTEX
  5
29C
330
25E
100
AcDbEntity
  8
Make2D$可见线$普通线
100
AcDbVertex
100
AcDb2dVertex
 10
883.7858543846683
 20
569.0246154875242
 30
0.0
  0
VERTEX
  5
29D
330
25E
100
AcDbEntity
  8
Make2D$可见线$普通线
100
AcDbVertex
100
AcDb2dVertex
 10
883.2564934558802
 20
570.7924239445805
 30
0.0
  0
VERTEX
  5
29E
330
25E
100
AcDbEntity
  8
Make2D$可见线$普通线
100
AcDbVertex
100
AcDb2dVertex
 10
882.7516927962795
 20
572.5667982518266
 30
0.0
  0
VERTEX
  5
29F
330
25E
100
AcDbEntity
  8
Make2D$可见线$普通线
100
AcDbVertex
100
AcDb2dVertex
 10
882.271247555519
 20
574.3473894668762
 30
0.0
  0
VERTEX
  5
2A0
330
25E
100
AcDbEntity
  8
Make2D$可见线$普通线
100
AcDbVertex
100
AcDb2dVertex
 10
881.8149528832516
 20
576.1338486473419
 30
0.0
  0
VERTEX
  5
2A1
330
25E
100
AcDbEntity
  8
Make2D$可见线$普通线
100
AcDbVertex
100
AcDb2dVertex
 10
881.3826039291303
 20
577.9258268508372
 30
0.0
  0
VERTEX
  5
2A2
330
25E
100
AcDbEntity
  8
Make2D$可见线$普通线
100
AcDbVertex
100
AcDb2dVertex
 10
880.9739958428075
 20
579.7229751349751
 30
0.0
  0
VERTEX
  5
2A3
330
25E
100
AcDbEntity
  8
Make2D$可见线$普通线
100
AcDbVertex
100
AcDb2dVertex
 10
880.5889237739364
 20
581.5249445573688
 30
0.0
  0
VERTEX
  5
2A4
330
25E
100
AcDbEntity
  8
Make2D$可见线$普通线
100
AcDbVertex
100
AcDb2dVertex
 10
880.2271828721695
 20
583.3313861756318
 30
0.0
  0
VERTEX
  5
2A5
330
25E
100
AcDbEntity
  8
Make2D$可见线$普通线
100
AcDbVertex
100
AcDb2dVertex
 10
879.8974722495213
 20
585.0927768039453
 30
0.0
  0
VERTEX
  5
2A6
330
25E
100
AcDbEntity
  8
Make2D$可见线$普通线
100
AcDbVertex
100
AcDb2dVertex
 10
879.5895709302467
 20
586.8578173637702
 30
0.0
  0
VERTEX
  5
2A7
330
25E
100
AcDbEntity
  8
Make2D$可见线$普通线
100
AcDbVertex
100
AcDb2dVertex
 10
879.3034000529068
 20
588.6262552865903
 30
0.0
  0
VERTEX
  5
2A8
330
25E
100
AcDbEntity
  8
Make2D$可见线$普通线
100
AcDbVertex
100
AcDb2dVertex
 10
879.038880756063
 20
590.3978380038894
 30
0.0
  0
VERTEX
  5
2A9
330
25E
100
AcDbEntity
  8
Make2D$可见线$普通线
100
AcDbVertex
100
AcDb2dVertex
 10
878.7959341782765
 20
592.1723129471515
 30
0.0
  0
VERTEX
  5
2AA
330
25E
100
AcDbEntity
  8
Make2D$可见线$普通线
100
AcDbVertex
100
AcDb2dVertex
 10
878.5744814581085
 20
593.9494275478603
 30
0.0
  0
VERTEX
  5
2AB
330
25E
100
AcDbEntity
  8
Make2D$可见线$普通线
100
AcDbVertex
100
AcDb2dVertex
 10
878.3744437341204
 20
595.7289292374996
 30
0.0
  0
VERTEX
  5
2AC
330
25E
100
AcDbEntity
  8
Make2D$可见线$普通线
100
AcDbVertex
100
AcDb2dVertex
 10
878.1957421448731
 20
597.5105654475535
 30
0.0
  0
VERTEX
  5
2AD
330
25E
100
AcDbEntity
  8
Make2D$可见线$普通线
100
AcDbVertex
100
AcDb2dVertex
 10
878.0382978289281
 20
599.2940836095056
 30
0.0
  0
VERTEX
  5
2AE
330
25E
100
AcDbEntity
  8
Make2D$可见线$普通线
100
AcDbVertex
100
AcDb2dVertex
 10
877.9020319248467
 20
601.0792311548399
 30
0.0
  0
VERTEX
  5
2AF
330
25E
100
AcDbEntity
  8
Make2D$可见线$普通线
100
AcDbVertex
100
AcDb2dVertex
 10
877.7868655711901
 20
602.8657555150402
 30
0.0
  0
VERTEX
  5
2B0
330
25E
100
AcDbEntity
  8
Make2D$可见线$普通线
100
AcDbVertex
100
AcDb2dVertex
 10
877.6927199065194
 20
604.6534041215903
 30
0.0
  0
VERTEX
  5
2B1
330
25E
100
AcDbEntity
  8
Make2D$可见线$普通线
100
AcDbVertex
100
AcDb2dVertex
 10
877.619516069396
 20
606.4419244059741
 30
0.0
  0
VERTEX
  5
2B2
330
25E
100
AcDbEntity
  8
Make2D$可见线$普通线
100
AcDbVertex
100
AcDb2dVertex
 10
877.5671751983814
 20
608.2310637996752
 30
0.0
  0
VERTEX
  5
2B3
330
25E
100
AcDbEntity
  8
Make2D$可见线$普通线
100
AcDbVertex
100
AcDb2dVertex
 10
877.5356184320362
 20
610.0205697341779
 30
0.0
  0
VERTEX
  5
2B4
330
25E
100
AcDbEntity
  8
Make2D$可见线$普通线
100
AcDbVertex
100
AcDb2dVertex
 10
877.5247669089224
 20
611.8101896409656
 30
0.0
  0
VERTEX
  5
2B5
330
25E
100
AcDbEntity
  8
Make2D$可见线$普通线
100
AcDbVertex
100
AcDb2dVertex
 10
877.5349332549113
 20
613.5999002023597
 30
0.0
  0
VERTEX
  5
2B6
330
25E
100
AcDbEntity
  8
Make2D$可见线$普通线
100
AcDbVertex
100
AcDb2dVertex
 10
877.5660444184371
 20
615.38944798633
 30
0.0
  0
VERTEX
  5
2B7
330
25E
100
AcDbEntity
  8
Make2D$可见线$普通线
100
AcDbVertex
100
AcDb2dVertex
 10
877.6181506826708
 20
617.1785885805244
 30
0.0
  0
VERTEX
  5
2B8
330
25E
100
AcDbEntity
  8
Make2D$可见线$普通线
100
AcDbVertex
100
AcDb2dVertex
 10
877.6913023307841
 20
618.9670775725914
 30
0.0
  0
VERTEX
  5
2B9
330
25E
100
AcDbEntity
  8
Make2D$可见线$普通线
100
AcDbVertex
100
AcDb2dVertex
 10
877.785549645948
 20
620.7546705501788
 30
0.0
  0
VERTEX
  5
2BA
330
25E
100
AcDbEntity
  8
Make2D$可见线$普通线
100
AcDbVertex
100
AcDb2dVertex
 10
877.900942911334
 20
622.5411231009348
 30
0.0
  0
VERTEX
  5
2BB
330
25E
100
AcDbEntity
  8
Make2D$可见线$普通线
100
AcDbVertex
100
AcDb2dVertex
 10
878.0375324101135
 20
624.3261908125073
 30
0.0
  0
VERTEX
  5
2BC
330
25E
100
AcDbEntity
  8
Make2D$可见线$普通线
100
AcDbVertex
100
AcDb2dVertex
 10
878.1953684254577
 20
626.1096292725445
 30
0.0
  0
VERTEX
  5
2BD
330
25E
100
AcDbEntity
  8
Make2D$可见线$普通线
100
AcDbVertex
100
AcDb2dVertex
 10
878.3745012405377
 20
627.8911940686944
 30
0.0
  0
VERTEX
  5
2BE
330
25E
100
AcDbEntity
  8
Make2D$可见线$普通线
100
AcDbVertex
100
AcDb2dVertex
 10
878.5749811385251
 20
629.6706407886052
 30
0.0
  0
VERTEX
  5
2BF
330
25E
100
AcDbEntity
  8
Make2D$可见线$普通线
100
AcDbVertex
100
AcDb2dVertex
 10
878.7968584025912
 20
631.447725019925
 30
0.0
  0
VERTEX
  5
2C0
330
25E
100
AcDbEntity
  8
Make2D$可见线$普通线
100
AcDbVertex
100
AcDb2dVertex
 10
879.0401833159069
 20
633.2222023503017
 30
0.0
  0
VERTEX
  5
2C1
330
25E
100
AcDbEntity
  8
Make2D$可见线$普通线
100
AcDbVertex
100
AcDb2dVertex
 10
879.3050061616439
 20
634.9938283673835
 30
0.0
  0
VERTEX
  5
2C2
330
25E
100
AcDbEntity
  8
Make2D$可见线$普通线
100
AcDbVertex
100
AcDb2dVertex
 10
879.5913772229735
 20
636.7623586588182
 30
0.0
  0
VERTEX
  5
2C3
330
25E
100
AcDbEntity
  8
Make2D$可见线$普通线
100
AcDbVertex
100
AcDb2dVertex
 10
879.8993467830668
 20
638.5275488122543
 30
0.0
  0
VERTEX
  5
2C4
330
25E
100
AcDbEntity
  8
Make2D$可见线$普通线
100
AcDbVertex
100
AcDb2dVertex
 10
880.2289651250951
 20
640.2891544153397
 30
0.0
  0
VERTEX
  5
2C5
330
25E
100
AcDbEntity
  8
Make2D$可见线$普通线
100
AcDbVertex
100
AcDb2dVertex
 10
880.4978984335291
 20
641.6446036303294
 30
0.0
  0
VERTEX
  5
2C6
330
25E
100
AcDbEntity
  8
Make2D$可见线$普通线
100
AcDbVertex
100
AcDb2dVertex
 10
880.7798344023067
 20
642.9976108943456
 30
0.0
  0
VERTEX
  5
2C7
330
25E
100
AcDbEntity
  8
Make2D$可见线$普通线
100
AcDbVertex
100
AcDb2dVertex
 10
881.0748795113844
 20
644.3480098841189
 30
0.0
  0
VERTEX
  5
2C8
330
25E
100
AcDbEntity
  8
Make2D$可见线$普通线
100
AcDbVertex
100
AcDb2dVertex
 10
881.3831402407188
 20
645.6956342763795
 30
0.0
  0
VERTEX
  5
2C9
330
25E
100
AcDbEntity
  8
Make2D$可见线$普通线
100
AcDbVertex
100
AcDb2dVertex
 10
881.7047230702667
 20
647.0403177478579
 30
0.0
  0
VERTEX
  5
2CA
330
25E
100
AcDbEntity
  8
Make2D$可见线$普通线
100
AcDbVertex
100
AcDb2dVertex
 10
882.0397344799849
 20
648.3818939752846
 30
0.0
  0
VERTEX
  5
2CB
330
25E
100
AcDbEntity
  8
Make2D$可见线$普通线
100
AcDbVertex
100
AcDb2dVertex
 10
882.3882809498297
 20
649.7201966353899
 30
0.0
  0
VERTEX
  5
2CC
330
25E
100
AcDbEntity
  8
Make2D$可见线$普通线
100
AcDbVertex
100
AcDb2dVertex
 10
882.7504689597581
 20
651.0550594049046
 30
0.0
  0
VERTEX
  5
2CD
330
25E
100
AcDbEntity
  8
Make2D$可见线$普通线
100
AcDbVertex
100
AcDb2dVertex
 10
882.7633029409021
 20
651.1013870310198
 30
0.0
 42
-0.0326426539998138
  0
VERTEX
  5
2CE
330
25E
100
AcDbEntity
  8
Make2D$可见线$普通线
100
AcDbVertex
100
AcDb2dVertex
 10
888.1995205154258
 20
666.744551495912
 30
0.0
  0
VERTEX
  5
2CF
330
25E
100
AcDbEntity
  8
Make2D$可见线$普通线
100
AcDbVertex
100
AcDb2dVertex
 10
888.4506751679048
 20
667.3326613902557
 30
0.0
 42
-0.0056336580070482
  0
VERTEX
  5
2D0
330
25E
100
AcDbEntity
  8
Make2D$可见线$普通线
100
AcDbVertex
100
AcDb2dVertex
 10
889.5342034854403
 20
669.7753492963423
 30
0.0
  0
VERTEX
  5
2D1
330
25E
100
AcDbEntity
  8
Make2D$可见线$普通线
100
AcDbVertex
100
AcDb2dVertex
 10
889.9378550658313
 20
670.6486643547728
 30
0.0
  0
VERTEX
  5
2D2
330
25E
100
AcDbEntity
  8
Make2D$可见线$普通线
100
AcDbVertex
100
AcDb2dVertex
 10
890.1501844233062
 20
671.100531419652
 30
0.0
  0
VERTEX
  5
2D3
330
25E
100
AcDbEntity
  8
Make2D$可见线$普通线
100
AcDbVertex
100
AcDb2dVertex
 10
890.4536574843239
 20
671.7376489006118
 30
0.0
  0
VERTEX
  5
2D4
330
25E
100
AcDbEntity
  8
Make2D$可见线$普通线
100
AcDbVertex
100
AcDb2dVertex
 10
890.7832946389485
 20
672.4183973425719
 30
0.0
  0
VERTEX
  5
2D5
330
25E
100
AcDbEntity
  8
Make2D$可见线$普通线
100
AcDbVertex
100
AcDb2dVertex
 10
890.9793936053535
 20
672.8179380752218
 30
0.0
 42
-0.0090012001668578
  0
VERTEX
  5
2D6
330
25E
100
AcDbEntity
  8
Make2D$可见线$普通线
100
AcDbVertex
100
AcDb2dVertex
 10
892.787224961847
 20
676.3236844231042
 30
0.0
  0
VERTEX
  5
2D7
330
25E
100
AcDbEntity
  8
Make2D$可见线$普通线
100
AcDbVertex
100
AcDb2dVertex
 10
893.1800726266297
 20
677.0460298829441
 30
0.0
  0
VERTEX
  5
2D8
330
25E
100
AcDbEntity
  8
Make2D$可见线$普通线
100
AcDbVertex
100
AcDb2dVertex
 10
893.490679263021
 20
677.6078779383968
 30
0.0
  0
VERTEX
  5
2D9
330
25E
100
AcDbEntity
  8
Make2D$可见线$普通线
100
AcDbVertex
100
AcDb2dVertex
 10
893.754199445359
 20
678.0782960384754
 30
0.0
 42
-0.0371281135802778
  0
VERTEX
  5
2DA
330
25E
100
AcDbEntity
  8
Make2D$可见线$普通线
100
AcDbVertex
100
AcDb2dVertex
 10
901.6383861968703
 20
689.9700683702345
 30
0.0
  0
VERTEX
  5
2DB
330
25E
100
AcDbEntity
  8
Make2D$可见线$普通线
100
AcDbVertex
100
AcDb2dVertex
 10
902.0152041144684
 20
690.4504199104368
 30
0.0
 42
-0.058788450838006
  0
VERTEX
  5
2DC
330
25E
100
AcDbEntity
  8
Make2D$可见线$普通线
100
AcDbVertex
100
AcDb2dVertex
 10
914.6291500275784
 20
703.169614833848
 30
0.0
  0
VERTEX
  5
2DD
330
25E
100
AcDbEntity
  8
Make2D$可见线$普通线
100
AcDbVertex
100
AcDb2dVertex
 10
915.3740649576374
 20
703.74768950361
 30
0.0
 42
-0.0075183038737377
  0
VERTEX
  5
2DE
330
25E
100
AcDbEntity
  8
Make2D$可见线$普通线
100
AcDbVertex
100
AcDb2dVertex
 10
916.952564856544
 20
704.9178524225557
 30
0.0
  0
VERTEX
  5
2DF
330
25E
100
AcDbEntity
  8
Make2D$可见线$普通线
100
AcDbVertex
100
AcDb2dVertex
 10
917.7466606922696
 20
705.4790459024315
 30
0.0
  0
VERTEX
  5
2E0
330
25E
100
AcDbEntity
  8
Make2D$可见线$普通线
100
AcDbVertex
100
AcDb2dVertex
 10
918.1168631516728
 20
705.7345099661427
 30
0.0
  0
VERTEX
  5
2E1
330
25E
100
AcDbEntity
  8
Make2D$可见线$普通线
100
AcDbVertex
100
AcDb2dVertex
 10
918.5437114696387
 20
706.0242548484507
 30
0.0
  0
VERTEX
  5
2E2
330
25E
100
AcDbEntity
  8
Make2D$可见线$普通线
100
AcDbVertex
100
AcDb2dVertex
 10
919.3435109658337
 20
706.5534434618726
 30
0.0
  0
VERTEX
  5
2E3
330
25E
100
AcDbEntity
  8
Make2D$可见线$普通线
100
AcDbVertex
100
AcDb2dVertex
 10
920.1458531309785
 20
707.0665829518343
 30
0.0
  0
VERTEX
  5
2E4
330
25E
100
AcDbEntity
  8
Make2D$可见线$普通线
100
AcDbVertex
100
AcDb2dVertex
 10
920.5391907991896
 20
707.3117381402678
 30
0.0
  0
VERTEX
  5
2E5
330
25E
100
AcDbEntity
  8
Make2D$可见线$普通线
100
AcDbVertex
100
AcDb2dVertex
 10
920.9505321981774
 20
707.563651823275
 30
0.0
 42
-0.0662211329479791
  0
VERTEX
  5
2E6
330
25E
100
AcDbEntity
  8
Make2D$可见线$普通线
100
AcDbVertex
100
AcDb2dVertex
 10
934.0722295831506
 20
713.3765281856248
 30
0.0
  0
VERTEX
  5
2E7
330
25E
100
AcDbEntity
  8
Make2D$可见线$普通线
100
AcDbVertex
100
AcDb2dVertex
 10
934.7884106228499
 20
713.578437412462
 30
0.0
 42
-0.008556188867045
  0
VERTEX
  5
2E8
330
25E
100
AcDbEntity
  8
Make2D$可见线$普通线
100
AcDbVertex
100
AcDb2dVertex
 10
936.4666285438574
 20
714.0077679013389
 30
0.0
  0
VERTEX
  5
2E9
330
25E
100
AcDbEntity
  8
Make2D$可见线$普通线
100
AcDbVertex
100
AcDb2dVertex
 10
937.2192089272318
 20
714.1804745716549
 30
0.0
 42
-0.0555271124184027
  0
VERTEX
  5
2EA
330
25E
100
AcDbEntity
  8
Make2D$可见线$普通线
100
AcDbVertex
100
AcDb2dVertex
 10
947.5245028142775
 20
715.3101901042796
 30
0.0
  0
SEQEND
  5
2EB
330
25E
100
AcDbEntity
  8
Make2D$可见线$普通线
  0
POLYLINE
  5
2EC
330
1F
100
AcDbEntity
  8
Make2D$可见线$普通线
100
AcDb2dPolyline
 66
     1
 10
0.0
 20
0.0
 30
0.0
  0
VERTEX
  5
2ED
330
2EC
100
AcDbEntity
  8
Make2D$可见线$普通线
100
AcDbVertex
100
AcDb2dVertex
 10
947.5245028142776
 20
665.9709266528951
 30
0.0
 42
0.6297913561579481
  0
VERTEX
  5
2EE
330
2EC
100
AcDbEntity
  8
Make2D$可见线$普通线
100
AcDbVertex
100
AcDb2dVertex
 10
934.1123056615286
 20
637.9681413447142
 30
0.0
  0
VERTEX
  5
2EF
330
2EC
100
AcDbEntity
  8
Make2D$可见线$普通线
100
AcDbVertex
100
AcDb2dVertex
 10
934.0721959369473
 20
637.9675442908335
 30
0.0
 42
-0.0644049821710331
  0
VERTEX
  5
2F0
330
2EC
100
AcDbEntity
  8
Make2D$可见线$普通线
100
AcDbVertex
100
AcDb2dVertex
 10
939.9745148231983
 20
628.2356401822267
 30
0.0
 42
-0.0446243710640358
  0
VERTEX
  5
2F1
330
2EC
100
AcDbEntity
  8
Make2D$可见线$普通线
100
AcDbVertex
100
AcDb2dVertex
 10
942.5896245059314
 20
618.7760871355867
 30
0.0
 42
-0.0275563103810488
  0
VERTEX
  5
2F2
330
2EC
100
AcDbEntity
  8
Make2D$可见线$普通线
100
AcDbVertex
100
AcDb2dVertex
 10
943.7309765565541
 20
609.7362252425839
 30
0.0
 42
-0.0322659099578477
  0
VERTEX
  5
2F3
330
2EC
100
AcDbEntity
  8
Make2D$可见线$普通线
100
AcDbVertex
100
AcDb2dVertex
 10
943.7576273829349
 20
597.436614861904
 30
0.0
  0
VERTEX
  5
2F4
330
2EC
100
AcDbEntity
  8
Make2D$可见线$普通线
100
AcDbVertex
100
AcDb2dVertex
 10
943.6015628244445
 20
595.1373269281258
 30
0.0
  0
VERTEX
  5
2F5
330
2EC
100
AcDbEntity
  8
Make2D$可见线$普通线
100
AcDbVertex
100
AcDb2dVertex
 10
943.4192717411859
 20
592.8398191241647
 30
0.0
  0
VERTEX
  5
2F6
330
2EC
100
AcDbEntity
  8
Make2D$可见线$普通线
100
AcDbVertex
100
AcDb2dVertex
 10
943.2107871484656
 20
590.5445399858253
 30
0.0
  0
VERTEX
  5
2F7
330
2EC
100
AcDbEntity
  8
Make2D$可见线$普通线
100
AcDbVertex
100
AcDb2dVertex
 10
942.5075420456052
 20
583.7370658962667
 30
0.0
  0
VERTEX
  5
2F8
330
2EC
100
AcDbEntity
  8
Make2D$可见线$普通线
100
AcDbVertex
100
AcDb2dVertex
 10
942.2812668586905
 20
581.4610717778409
 30
0.0
  0
VERTEX
  5
2F9
330
2EC
100
AcDbEntity
  8
Make2D$可见线$普通线
100
AcDbVertex
100
AcDb2dVertex
 10
942.147513402677
 20
580.0220393029681
 30
0.0
  0
VERTEX
  5
2FA
330
2EC
100
AcDbEntity
  8
Make2D$可见线$普通线
100
AcDbVertex
100
AcDb2dVertex
 10
942.0241829146753
 20
578.577159319864
 30
0.0
  0
VERTEX
  5
2FB
330
2EC
100
AcDbEntity
  8
Make2D$可见线$普通线
100
AcDbVertex
100
AcDb2dVertex
 10
941.9150033002138
 20
577.1285827826014
 30
0.0
  0
VERTEX
  5
2FC
330
2EC
100
AcDbEntity
  8
Make2D$可见线$普通线
100
AcDbVertex
100
AcDb2dVertex
 10
941.8237024648201
 20
575.6784606452525
 30
0.0
  0
VERTEX
  5
2FD
330
2EC
100
AcDbEntity
  8
Make2D$可见线$普通线
100
AcDbVertex
100
AcDb2dVertex
 10
941.7503906570537
 20
574.0883755808243
 30
0.0
  0
VERTEX
  5
2FE
330
2EC
100
AcDbEntity
  8
Make2D$可见线$普通线
100
AcDbVertex
100
AcDb2dVertex
 10
941.7112913318011
 20
572.5317407666378
 30
0.0
  0
VERTEX
  5
2FF
330
2EC
100
AcDbEntity
  8
Make2D$可见线$普通线
100
AcDbVertex
100
AcDb2dVertex
 10
941.7082618794559
 20
571.7674546236667
 30
0.0
  0
VERTEX
  5
300
330
2EC
100
AcDbEntity
  8
Make2D$可见线$普通线
100
AcDbVertex
100
AcDb2dVertex
 10
941.7182141829447
 20
571.0133159475936
 30
0.0
  0
VERTEX
  5
301
330
2EC
100
AcDbEntity
  8
Make2D$可见线$普通线
100
AcDbVertex
100
AcDb2dVertex
 10
941.7426244540028
 20
570.269919706531
 30
0.0
  0
VERTEX
  5
302
330
2EC
100
AcDbEntity
  8
Make2D$可见线$普通线
100
AcDbVertex
100
AcDb2dVertex
 10
941.7829689043655
 20
569.5378608685917
 30
0.0
  0
VERTEX
  5
303
330
2EC
100
AcDbEntity
  8
Make2D$可见线$普通线
100
AcDbVertex
100
AcDb2dVertex
 10
941.8391311766676
 20
568.8394035916757
 30
0.0
  0
VERTEX
  5
304
330
2EC
100
AcDbEntity
  8
Make2D$可见线$普通线
100
AcDbVertex
100
AcDb2dVertex
 10
941.9156379523191
 20
568.1521419496577
 30
0.0
  0
VERTEX
  5
305
330
2EC
100
AcDbEntity
  8
Make2D$可见线$普通线
100
AcDbVertex
100
AcDb2dVertex
 10
941.9627639874942
 20
567.812703064638
 30
0.0
  0
VERTEX
  5
306
330
2EC
100
AcDbEntity
  8
Make2D$可见线$普通线
100
AcDbVertex
100
AcDb2dVertex
 10
942.0164682988193
 20
567.4760553758263
 30
0.0
  0
VERTEX
  5
307
330
2EC
100
AcDbEntity
  8
Make2D$可见线$普通线
100
AcDbVertex
100
AcDb2dVertex
 10
942.0772482697307
 20
567.1421963123829
 30
0.0
  0
VERTEX
  5
308
330
2EC
100
AcDbEntity
  8
Make2D$可见线$普通线
100
AcDbVertex
100
AcDb2dVertex
 10
942.1456012836666
 20
566.8111233034693
 30
0.0
  0
VERTEX
  5
309
330
2EC
100
AcDbEntity
  8
Make2D$可见线$普通线
100
AcDbVertex
100
AcDb2dVertex
 10
942.2045901451979
 20
566.5547371028115
 30
0.0
  0
VERTEX
  5
30A
330
2EC
100
AcDbEntity
  8
Make2D$可见线$普通线
100
AcDbVertex
100
AcDb2dVertex
 10
942.2691082985041
 20
566.3003890252999
 30
0.0
  0
VERTEX
  5
30B
330
2EC
100
AcDbEntity
  8
Make2D$可见线$普通线
100
AcDbVertex
100
AcDb2dVertex
 10
942.339769642459
 20
566.048421878965
 30
0.0
  0
VERTEX
  5
30C
330
2EC
100
AcDbEntity
  8
Make2D$可见线$普通线
100
AcDbVertex
100
AcDb2dVertex
 10
942.4171880759361
 20
565.7991784718367
 30
0.0
  0
VERTEX
  5
30D
330
2EC
100
AcDbEntity
  8
Make2D$可见线$普通线
100
AcDbVertex
100
AcDb2dVertex
 10
942.5019774978093
 20
565.5530016119457
 30
0.0
  0
VERTEX
  5
30E
330
2EC
100
AcDbEntity
  8
Make2D$可见线$普通线
100
AcDbVertex
100
AcDb2dVertex
 10
942.5947518069522
 20
565.3102341073217
 30
0.0
  0
VERTEX
  5
30F
330
2EC
100
AcDbEntity
  8
Make2D$可见线$普通线
100
AcDbVertex
100
AcDb2dVertex
 10
942.6443251376479
 20
565.1902359907443
 30
0.0
  0
VERTEX
  5
310
330
2EC
100
AcDbEntity
  8
Make2D$可见线$普通线
100
AcDbVertex
100
AcDb2dVertex
 10
942.6961249022387
 20
565.0712187659952
 30
0.0
  0
VERTEX
  5
311
330
2EC
100
AcDbEntity
  8
Make2D$可见线$普通线
100
AcDbVertex
100
AcDb2dVertex
 10
942.7502278380836
 20
564.9532252840779
 30
0.0
  0
VERTEX
  5
312
330
2EC
100
AcDbEntity
  8
Make2D$可见线$普通线
100
AcDbVertex
100
AcDb2dVertex
 10
942.8067106825423
 20
564.8362983959962
 30
0.0
  0
VERTEX
  5
313
330
2EC
100
AcDbEntity
  8
Make2D$可见线$普通线
100
AcDbVertex
100
AcDb2dVertex
 10
942.8580433347392
 20
564.7361331190818
 30
0.0
  0
VERTEX
  5
314
330
2EC
100
AcDbEntity
  8
Make2D$可见线$普通线
100
AcDbVertex
100
AcDb2dVertex
 10
942.911280675386
 20
564.6365786921997
 30
0.0
  0
VERTEX
  5
315
330
2EC
100
AcDbEntity
  8
Make2D$可见线$普通线
100
AcDbVertex
100
AcDb2dVertex
 10
942.9665543902075
 20
564.5377590025694
 30
0.0
  0
VERTEX
  5
316
330
2EC
100
AcDbEntity
  8
Make2D$可见线$普通线
100
AcDbVertex
100
AcDb2dVertex
 10
943.0239961649281
 20
564.4397979374102
 30
0.0
  0
VERTEX
  5
317
330
2EC
100
AcDbEntity
  8
Make2D$可见线$普通线
100
AcDbVertex
100
AcDb2dVertex
 10
943.0837376852725
 20
564.3428193839414
 30
0.0
  0
VERTEX
  5
318
330
2EC
100
AcDbEntity
  8
Make2D$可见线$普通线
100
AcDbVertex
100
AcDb2dVertex
 10
943.1459106369653
 20
564.2469472293825
 30
0.0
  0
VERTEX
  5
319
330
2EC
100
AcDbEntity
  8
Make2D$可见线$普通线
100
AcDbVertex
100
AcDb2dVertex
 10
943.210646705731
 20
564.1523053609528
 30
0.0
  0
VERTEX
  5
31A
330
2EC
100
AcDbEntity
  8
Make2D$可见线$普通线
100
AcDbVertex
100
AcDb2dVertex
 10
943.2780775772942
 20
564.0590176658716
 30
0.0
  0
VERTEX
  5
31B
330
2EC
100
AcDbEntity
  8
Make2D$可见线$普通线
100
AcDbVertex
100
AcDb2dVertex
 10
943.356209272399
 20
563.9572165909108
 30
0.0
  0
VERTEX
  5
31C
330
2EC
100
AcDbEntity
  8
Make2D$可见线$普通线
100
AcDbVertex
100
AcDb2dVertex
 10
943.4378013469214
 20
563.8574902134484
 30
0.0
  0
VERTEX
  5
31D
330
2EC
100
AcDbEntity
  8
Make2D$可见线$普通线
100
AcDbVertex
100
AcDb2dVertex
 10
943.5228315293025
 20
563.760092042239
 30
0.0
  0
VERTEX
  5
31E
330
2EC
100
AcDbEntity
  8
Make2D$可见线$普通线
100
AcDbVertex
100
AcDb2dVertex
 10
943.6112775479835
 20
563.6652755860373
 30
0.0
  0
VERTEX
  5
31F
330
2EC
100
AcDbEntity
  8
Make2D$可见线$普通线
100
AcDbVertex
100
AcDb2dVertex
 10
943.7031171314053
 20
563.5732943535982
 30
0.0
  0
VERTEX
  5
320
330
2EC
100
AcDbEntity
  8
Make2D$可见线$普通线
100
AcDbVertex
100
AcDb2dVertex
 10
943.7503025500321
 20
563.5284461677754
 30
0.0
  0
VERTEX
  5
321
330
2EC
100
AcDbEntity
  8
Make2D$可见线$普通线
100
AcDbVertex
100
AcDb2dVertex
 10
943.7983280080093
 20
563.4844018536762
 30
0.0
  0
VERTEX
  5
322
330
2EC
100
AcDbEntity
  8
Make2D$可见线$普通线
100
AcDbVertex
100
AcDb2dVertex
 10
943.8471907213925
 20
563.4411930998951
 30
0.0
  0
VERTEX
  5
323
330
2EC
100
AcDbEntity
  8
Make2D$可见线$普通线
100
AcDbVertex
100
AcDb2dVertex
 10
943.8968879062367
 20
563.3988515950264
 30
0.0
  0
VERTEX
  5
324
330
2EC
100
AcDbEntity
  8
Make2D$可见线$普通线
100
AcDbVertex
100
AcDb2dVertex
 10
943.9474167785969
 20
563.3574090276643
 30
0.0
  0
VERTEX
  5
325
330
2EC
100
AcDbEntity
  8
Make2D$可见线$普通线
100
AcDbVertex
100
AcDb2dVertex
 10
943.9987745545284
 20
563.3168970864032
 30
0.0
  0
VERTEX
  5
326
330
2EC
100
AcDbEntity
  8
Make2D$可见线$普通线
100
AcDbVertex
100
AcDb2dVertex
 10
944.0556158136308
 20
563.2738834894191
 30
0.0
  0
VERTEX
  5
327
330
2EC
100
AcDbEntity
  8
Make2D$可见线$普通线
100
AcDbVertex
100
AcDb2dVertex
 10
944.1133999765252
 20
563.2320050223808
 30
0.0
  0
VERTEX
  5
328
330
2EC
100
AcDbEntity
  8
Make2D$可见线$普通线
100
AcDbVertex
100
AcDb2dVertex
 10
944.1720909697526
 20
563.1912564426234
 30
0.0
  0
VERTEX
  5
329
330
2EC
100
AcDbEntity
  8
Make2D$可见线$普通线
100
AcDbVertex
100
AcDb2dVertex
 10
944.2316527198536
 20
563.1516325074815
 30
0.0
  0
VERTEX
  5
32A
330
2EC
100
AcDbEntity
  8
Make2D$可见线$普通线
100
AcDbVertex
100
AcDb2dVertex
 10
944.2920491533689
 20
563.1131279742898
 30
0.0
  0
VERTEX
  5
32B
330
2EC
100
AcDbEntity
  8
Make2D$可见线$普通线
100
AcDbVertex
100
AcDb2dVertex
 10
944.3532441968393
 20
563.0757376003833
 30
0.0
  0
VERTEX
  5
32C
330
2EC
100
AcDbEntity
  8
Make2D$可见线$普通线
100
AcDbVertex
100
AcDb2dVertex
 10
944.4152017768054
 20
563.0394561430962
 30
0.0
  0
VERTEX
  5
32D
330
2EC
100
AcDbEntity
  8
Make2D$可见线$普通线
100
AcDbVertex
100
AcDb2dVertex
 10
944.4778858198079
 20
563.0042783597639
 30
0.0
  0
VERTEX
  5
32E
330
2EC
100
AcDbEntity
  8
Make2D$可见线$普通线
100
AcDbVertex
100
AcDb2dVertex
 10
944.5412602523876
 20
562.9701990077207
 30
0.0
  0
VERTEX
  5
32F
330
2EC
100
AcDbEntity
  8
Make2D$可见线$普通线
100
AcDbVertex
100
AcDb2dVertex
 10
944.6052890010851
 20
562.9372128443015
 30
0.0
  0
VERTEX
  5
330
330
2EC
100
AcDbEntity
  8
Make2D$可见线$普通线
100
AcDbVertex
100
AcDb2dVertex
 10
944.7351651529964
 20
562.8744991126741
 30
0.0
  0
VERTEX
  5
331
330
2EC
100
AcDbEntity
  8
Make2D$可见线$普通线
100
AcDbVertex
100
AcDb2dVertex
 10
944.8672256878676
 20
562.8160952235596
 30
0.0
  0
VERTEX
  5
332
330
2EC
100
AcDbEntity
  8
Make2D$可见线$普通线
100
AcDbVertex
100
AcDb2dVertex
 10
945.0011820180243
 20
562.7619592356359
 30
0.0
  0
VERTEX
  5
333
330
2EC
100
AcDbEntity
  8
Make2D$可见线$普通线
100
AcDbVertex
100
AcDb2dVertex
 10
945.1476833658944
 20
562.7082118203041
 30
0.0
  0
VERTEX
  5
334
330
2EC
100
AcDbEntity
  8
Make2D$可见线$普通线
100
AcDbVertex
100
AcDb2dVertex
 10
945.2958810526432
 20
562.6591876969168
 30
0.0
  0
VERTEX
  5
335
330
2EC
100
AcDbEntity
  8
Make2D$可见线$普通线
100
AcDbVertex
100
AcDb2dVertex
 10
945.4455967429242
 20
562.6146809261307
 30
0.0
  0
VERTEX
  5
336
330
2EC
100
AcDbEntity
  8
Make2D$可见线$普通线
100
AcDbVertex
100
AcDb2dVertex
 10
945.5966521013911
 20
562.5744855686028
 30
0.0
  0
VERTEX
  5
337
330
2EC
100
AcDbEntity
  8
Make2D$可见线$普通线
100
AcDbVertex
100
AcDb2dVertex
 10
945.7488687926975
 20
562.5383956849895
 30
0.0
  0
VERTEX
  5
338
330
2EC
100
AcDbEntity
  8
Make2D$可见线$普通线
100
AcDbVertex
100
AcDb2dVertex
 10
945.9020684814968
 20
562.5062053359476
 30
0.0
  0
VERTEX
  5
339
330
2EC
100
AcDbEntity
  8
Make2D$可见线$普通线
100
AcDbVertex
100
AcDb2dVertex
 10
946.0560728324425
 20
562.4777085821336
 30
0.0
  0
VERTEX
  5
33A
330
2EC
100
AcDbEntity
  8
Make2D$可见线$普通线
100
AcDbVertex
100
AcDb2dVertex
 10
946.2107035101882
 20
562.4526994842045
 30
0.0
  0
VERTEX
  5
33B
330
2EC
100
AcDbEntity
  8
Make2D$可见线$普通线
100
AcDbVertex
100
AcDb2dVertex
 10
946.3738648425452
 20
562.4299469361206
 30
0.0
  0
VERTEX
  5
33C
330
2EC
100
AcDbEntity
  8
Make2D$可见线$普通线
100
AcDbVertex
100
AcDb2dVertex
 10
946.5374579397807
 20
562.410687392959
 30
0.0
  0
VERTEX
  5
33D
330
2EC
100
AcDbEntity
  8
Make2D$可见线$普通线
100
AcDbVertex
100
AcDb2dVertex
 10
946.7014188595485
 20
562.3947826060013
 30
0.0
  0
VERTEX
  5
33E
330
2EC
100
AcDbEntity
  8
Make2D$可见线$普通线
100
AcDbVertex
100
AcDb2dVertex
 10
946.8656836595034
 20
562.3820943265299
 30
0.0
  0
VERTEX
  5
33F
330
2EC
100
AcDbEntity
  8
Make2D$可见线$普通线
100
AcDbVertex
100
AcDb2dVertex
 10
947.0301883972993
 20
562.3724843058269
 30
0.0
  0
VERTEX
  5
340
330
2EC
100
AcDbEntity
  8
Make2D$可见线$普通线
100
AcDbVertex
100
AcDb2dVertex
 10
947.1948691305909
 20
562.3658142951745
 30
0.0
  0
VERTEX
  5
341
330
2EC
100
AcDbEntity
  8
Make2D$可见线$普通线
100
AcDbVertex
100
AcDb2dVertex
 10
947.5245028142776
 20
562.3607413091495
 30
0.0
  0
SEQEND
  5
342
330
2EC
100
AcDbEntity
  8
Make2D$可见线$普通线
  0
POLYLINE
  5
343
330
1F
100
AcDbEntity
  8
Make2D$可见线$普通线
100
AcDb2dPolyline
 66
     1
 10
0.0
 20
0.0
 30
0.0
  0
VERTEX
  5
344
330
343
100
AcDbEntity
  8
Make2D$可见线$普通线
100
AcDbVertex
100
AcDb2dVertex
 10
936.021872302297
 20
628.4627819376716
 30
0.0
 42
0.0449377325889242
  0
VERTEX
  5
345
330
343
100
AcDbEntity
  8
Make2D$可见线$普通线
100
AcDbVertex
100
AcDb2dVertex
 10
931.6023052154175
 20
636.2676302127421
 30
0.0
  0
VERTEX
  5
346
330
343
100
AcDbEntity
  8
Make2D$可见线$普通线
100
AcDbVertex
100
AcDb2dVertex
 10
931.1022510463715
 20
636.9774172126835
 30
0.0
 42
-0.281362411237525
  0
VERTEX
  5
347
330
343
100
AcDbEntity
  8
Make2D$可见线$普通线
100
AcDbVertex
100
AcDb2dVertex
 10
929.5417339747228
 20
657.9915658635866
 30
0.0
 42
-0.2811016120540387
  0
VERTEX
  5
348
330
343
100
AcDbEntity
  8
Make2D$可见线$普通线
100
AcDbVertex
100
AcDb2dVertex
 10
947.5245028142778
 20
668.9752048180044
 30
0.0
  0
SEQEND
  5
349
330
343
100
AcDbEntity
  8
Make2D$可见线$普通线
  0
POLYLINE
  5
34A
330
1F
100
AcDbEntity
  8
Make2D$可见线$普通线
100
AcDb2dPolyline
 66
     1
 10
0.0
 20
0.0
 30
0.0
  0
VERTEX
  5
34B
330
34A
100
AcDbEntity
  8
Make2D$可见线$普通线
100
AcDbVertex
100
AcDb2dVertex
 10
939.2205035375168
 20
567.4214839898864
 30
0.0
  0
VERTEX
  5
34C
330
34A
100
AcDbEntity
  8
Make2D$可见线$普通线
100
AcDbVertex
100
AcDb2dVertex
 10
939.4756884105918
 20
566.4032326576399
 30
0.0
  0
VERTEX
  5
34D
330
34A
100
AcDbEntity
  8
Make2D$可见线$普通线
100
AcDbVertex
100
AcDb2dVertex
 10
939.8927683491133
 20
565.3404282361748
 30
0.0
 42
0.0364606364307712
  0
VERTEX
  5
34E
330
34A
100
AcDbEntity
  8
Make2D$可见线$普通线
100
AcDbVertex
100
AcDb2dVertex
 10
940.598754984119
 20
564.0025342185558
 30
0.0
  0
VERTEX
  5
34F
330
34A
100
AcDbEntity
  8
Make2D$可见线$普通线
100
AcDbVertex
100
AcDb2dVertex
 10
940.8873686704326
 20
563.6314036751576
 30
0.0
 42
0.0399563254829161
  0
VERTEX
  5
350
330
34A
100
AcDbEntity
  8
Make2D$可见线$普通线
100
AcDbVertex
100
AcDb2dVertex
 10
941.5876272136319
 20
562.865785786874
 30
0.0
 42
0.0447695965735419
  0
VERTEX
  5
351
330
34A
100
AcDbEntity
  8
Make2D$可见线$普通线
100
AcDbVertex
100
AcDb2dVertex
 10
942.479619131363
 20
562.1634685246884
 30
0.0
  0
VERTEX
  5
352
330
34A
100
AcDbEntity
  8
Make2D$可见线$普通线
100
AcDbVertex
100
AcDb2dVertex
 10
942.6964851471804
 20
562.0290307321782
 30
0.0
  0
VERTEX
  5
353
330
34A
100
AcDbEntity
  8
Make2D$可见线$普通线
100
AcDbVertex
100
AcDb2dVertex
 10
943.1381936282728
 20
561.7892603287073
 30
0.0
  0
VERTEX
  5
354
330
34A
100
AcDbEntity
  8
Make2D$可见线$普通线
100
AcDbVertex
100
AcDb2dVertex
 10
943.2075418497284
 20
561.7552999399827
 30
0.0
  0
VERTEX
  5
355
330
34A
100
AcDbEntity
  8
Make2D$可见线$普通线
100
AcDbVertex
100
AcDb2dVertex
 10
943.4184249178883
 20
561.6575655495863
 30
0.0
  0
VERTEX
  5
356
330
34A
100
AcDbEntity
  8
Make2D$可见线$普通线
100
AcDbVertex
100
AcDb2dVertex
 10
944.3032224320488
 20
561.2870963501139
 30
0.0
  0
VERTEX
  5
357
330
34A
100
AcDbEntity
  8
Make2D$可见线$普通线
100
AcDbVertex
100
AcDb2dVertex
 10
945.0906975698081
 20
561.1274409745806
 30
0.0
 42
0.0272866604810639
  0
VERTEX
  5
358
330
34A
100
AcDbEntity
  8
Make2D$可见线$普通线
100
AcDbVertex
100
AcDb2dVertex
 10
946.2560664784487
 20
560.9567060595217
 30
0.0
  0
VERTEX
  5
359
330
34A
100
AcDbEntity
  8
Make2D$可见线$普通线
100
AcDbVertex
100
AcDb2dVertex
 10
947.5336220713846
 20
560.8406619627187
 30
0.0
  0
VERTEX
  5
35A
330
34A
100
AcDbEntity
  8
Make2D$可见线$普通线
100
AcDbVertex
100
AcDb2dVertex
 10
948.8111776643159
 20
560.9567060595218
 30
0.0
 42
0.0272866604810731
  0
VERTEX
  5
35B
330
34A
100
AcDbEntity
  8
Make2D$可见线$普通线
100
AcDbVertex
100
AcDb2dVertex
 10
949.9765465729566
 20
561.1274409745808
 30
0.0
  0
VERTEX
  5
35C
330
34A
100
AcDbEntity
  8
Make2D$可见线$普通线
100
AcDbVertex
100
AcDb2dVertex
 10
950.764021710716
 20
561.2870963501139
 30
0.0
  0
VERTEX
  5
35D
330
34A
100
AcDbEntity
  8
Make2D$可见线$普通线
100
AcDbVertex
100
AcDb2dVertex
 10
951.6488192248764
 20
561.6575655495863
 30
0.0
  0
VERTEX
  5
35E
330
34A
100
AcDbEntity
  8
Make2D$可见线$普通线
100
AcDbVertex
100
AcDb2dVertex
 10
951.8597022930363
 20
561.7552999399827
 30
0.0
  0
VERTEX
  5
35F
330
34A
100
AcDbEntity
  8
Make2D$可见线$普通线
100
AcDbVertex
100
AcDb2dVertex
 10
951.9290505144918
 20
561.7892603287073
 30
0.0
  0
VERTEX
  5
360
330
34A
100
AcDbEntity
  8
Make2D$可见线$普通线
100
AcDbVertex
100
AcDb2dVertex
 10
952.3707589955843
 20
562.0290307321782
 30
0.0
  0
VERTEX
  5
361
330
34A
100
AcDbEntity
  8
Make2D$可见线$普通线
100
AcDbVertex
100
AcDb2dVertex
 10
952.5876250114015
 20
562.1634685246884
 30
0.0
 42
0.0447695965736424
  0
VERTEX
  5
362
330
34A
100
AcDbEntity
  8
Make2D$可见线$普通线
100
AcDbVertex
100
AcDb2dVertex
 10
953.4796169291328
 20
562.865785786874
 30
0.0
 42
0.0399563254830051
  0
VERTEX
  5
363
330
34A
100
AcDbEntity
  8
Make2D$可见线$普通线
100
AcDbVertex
100
AcDb2dVertex
 10
954.1798754723322
 20
563.6314036751576
 30
0.0
  0
VERTEX
  5
364
330
34A
100
AcDbEntity
  8
Make2D$可见线$普通线
100
AcDbVertex
100
AcDb2dVertex
 10
954.4684891586458
 20
564.0025342185558
 30
0.0
 42
0.0364606364308073
  0
VERTEX
  5
365
330
34A
100
AcDbEntity
  8
Make2D$可见线$普通线
100
AcDbVertex
100
AcDb2dVertex
 10
955.1744757936513
 20
565.3404282361748
 30
0.0
  0
VERTEX
  5
366
330
34A
100
AcDbEntity
  8
Make2D$可见线$普通线
100
AcDbVertex
100
AcDb2dVertex
 10
955.5915557321729
 20
566.4032326576399
 30
0.0
  0
VERTEX
  5
367
330
34A
100
AcDbEntity
  8
Make2D$可见线$普通线
100
AcDbVertex
100
AcDb2dVertex
 10
955.8467406052478
 20
567.4214839898864
 30
0.0
  0
SEQEND
  5
368
330
34A
100
AcDbEntity
  8
Make2D$可见线$普通线
  0
POLYLINE
  5
369
330
1F
100
AcDbEntity
  8
Make2D$可见线$普通线
100
AcDb2dPolyline
 66
     1
 10
0.0
 20
0.0
 30
0.0
  0
VERTEX
  5
36A
330
369
100
AcDbEntity
  8
Make2D$可见线$普通线
100
AcDbVertex
100
AcDb2dVertex
 10
958.8363950039171
 20
627.9953730586168
 30
0.0
 42
0.0125344509266424
  0
VERTEX
  5
36B
330
369
100
AcDbEntity
  8
Make2D$可见线$普通线
100
AcDbVertex
100
AcDb2dVertex
 10
957.8943579126435
 20
625.7066381815845
 30
0.0
 42
0.0455988106150377
  0
VERTEX
  5
36C
330
369
100
AcDbEntity
  8
Make2D$可见线$普通线
100
AcDbVertex
100
AcDb2dVertex
 10
955.4272733069704
 20
616.9485709692091
 30
0.0
  0
VERTEX
  5
36D
330
369
100
AcDbEntity
  8
Make2D$可见线$普通线
100
AcDbVertex
100
AcDb2dVertex
 10
954.4922140997601
 20
609.8070148744562
 30
0.0
  0
VERTEX
  5
36E
330
369
100
AcDbEntity
  8
Make2D$可见线$普通线
100
AcDbVertex
100
AcDb2dVertex
 10
954.36309810562
 20
608.7506533882162
 30
0.0
  0
VERTEX
  5
36F
330
369
100
AcDbEntity
  8
Make2D$可见线$普通线
100
AcDbVertex
100
AcDb2dVertex
 10
954.3409571468293
 20
608.5367459577078
 30
0.0
  0
VERTEX
  5
370
330
369
100
AcDbEntity
  8
Make2D$可见线$普通线
100
AcDbVertex
100
AcDb2dVertex
 10
954.3310232177157
 20
608.412608991732
 30
0.0
  0
VERTEX
  5
371
330
369
100
AcDbEntity
  8
Make2D$可见线$普通线
100
AcDbVertex
100
AcDb2dVertex
 10
954.2664989387672
 20
607.4348858865422
 30
0.0
  0
VERTEX
  5
372
330
369
100
AcDbEntity
  8
Make2D$可见线$普通线
100
AcDbVertex
100
AcDb2dVertex
 10
954.2553716492739
 20
607.2441753673518
 30
0.0
  0
VERTEX
  5
373
330
369
100
AcDbEntity
  8
Make2D$可见线$普通线
100
AcDbVertex
100
AcDb2dVertex
 10
954.2241042264732
 20
606.657746569503
 30
0.0
  0
VERTEX
  5
374
330
369
100
AcDbEntity
  8
Make2D$可见线$普通线
100
AcDbVertex
100
AcDb2dVertex
 10
954.1853308593975
 20
605.7754744904039
 30
0.0
  0
VERTEX
  5
375
330
369
100
AcDbEntity
  8
Make2D$可见线$普通线
100
AcDbVertex
100
AcDb2dVertex
 10
954.1765345682834
 20
605.5370971713279
 30
0.0
  0
VERTEX
  5
376
330
369
100
AcDbEntity
  8
Make2D$可见线$普通线
100
AcDbVertex
100
AcDb2dVertex
 10
954.1366118098025
 20
604.0021478672559
 30
0.0
 42
0.015659843678106
  0
VERTEX
  5
377
330
369
100
AcDbEntity
  8
Make2D$可见线$普通线
100
AcDbVertex
100
AcDb2dVertex
 10
954.2253972807474
 20
598.2796286552559
 30
0.0
  0
VERTEX
  5
378
330
369
100
AcDbEntity
  8
Make2D$可见线$普通线
100
AcDbVertex
100
AcDb2dVertex
 10
954.3481145247976
 20
596.0959975593903
 30
0.0
  0
VERTEX
  5
379
330
369
100
AcDbEntity
  8
Make2D$可见线$普通线
100
AcDbVertex
100
AcDb2dVertex
 10
954.4271784565208
 20
594.9756394677579
 30
0.0
  0
VERTEX
  5
37A
330
369
100
AcDbEntity
  8
Make2D$可见线$普通线
100
AcDbVertex
100
AcDb2dVertex
 10
954.4492008925545
 20
594.6869957083446
 30
0.0
  0
VERTEX
  5
37B
330
369
100
AcDbEntity
  8
Make2D$可见线$普通线
100
AcDbVertex
100
AcDb2dVertex
 10
954.5272393297377
 20
593.7225978227204
 30
0.0
  0
VERTEX
  5
37C
330
369
100
AcDbEntity
  8
Make2D$可见线$普通线
100
AcDbVertex
100
AcDb2dVertex
 10
954.6040082565237
 20
592.8403668540536
 30
0.0
  0
VERTEX
  5
37D
330
369
100
AcDbEntity
  8
Make2D$可见线$普通线
100
AcDbVertex
100
AcDb2dVertex
 10
954.6939453808013
 20
591.8701347422827
 30
0.0
  0
VERTEX
  5
37E
330
369
100
AcDbEntity
  8
Make2D$可见线$普通线
100
AcDbVertex
100
AcDb2dVertex
 10
954.8394782394388
 20
590.4057425282211
 30
0.0
  0
VERTEX
  5
37F
330
369
100
AcDbEntity
  8
Make2D$可见线$普通线
100
AcDbVertex
100
AcDb2dVertex
 10
954.8408030260726
 20
590.3928098213335
 30
0.0
  0
VERTEX
  5
380
330
369
100
AcDbEntity
  8
Make2D$可见线$普通线
100
AcDbVertex
100
AcDb2dVertex
 10
954.9154354194491
 20
589.6743383719659
 30
0.0
  0
VERTEX
  5
381
330
369
100
AcDbEntity
  8
Make2D$可见线$普通线
100
AcDbVertex
100
AcDb2dVertex
 10
954.954753819879
 20
589.3029571934972
 30
0.0
  0
VERTEX
  5
382
330
369
100
AcDbEntity
  8
Make2D$可见线$普通线
100
AcDbVertex
100
AcDb2dVertex
 10
955.0733524127472
 20
588.2064448819017
 30
0.0
  0
VERTEX
  5
383
330
369
100
AcDbEntity
  8
Make2D$可见线$普通线
100
AcDbVertex
100
AcDb2dVertex
 10
955.0733606628503
 20
588.2063696582828
 30
0.0
  0
VERTEX
  5
384
330
369
100
AcDbEntity
  8
Make2D$可见线$普通线
100
AcDbVertex
100
AcDb2dVertex
 10
955.7698766633516
 20
581.8541621885706
 30
0.0
  0
VERTEX
  5
385
330
369
100
AcDbEntity
  8
Make2D$可见线$普通线
100
AcDbVertex
100
AcDb2dVertex
 10
955.9055638920106
 20
580.5117535333543
 30
0.0
  0
VERTEX
  5
386
330
369
100
AcDbEntity
  8
Make2D$可见线$普通线
100
AcDbVertex
100
AcDb2dVertex
 10
956.031342652871
 20
579.1646544836833
 30
0.0
  0
VERTEX
  5
387
330
369
100
AcDbEntity
  8
Make2D$可见线$普通线
100
AcDbVertex
100
AcDb2dVertex
 10
956.1433760702325
 20
577.8140287632189
 30
0.0
  0
VERTEX
  5
388
330
369
100
AcDbEntity
  8
Make2D$可见线$普通线
100
AcDbVertex
100
AcDb2dVertex
 10
956.2378272683951
 20
576.4610400956221
 30
0.0
  0
VERTEX
  5
389
330
369
100
AcDbEntity
  8
Make2D$可见线$普通线
100
AcDbVertex
100
AcDb2dVertex
 10
956.2760780424613
 20
575.7773490312967
 30
0.0
 42
-0.0098116104273652
  0
VERTEX
  5
38A
330
369
100
AcDbEntity
  8
Make2D$可见线$普通线
100
AcDbVertex
100
AcDb2dVertex
 10
956.3559505931403
 20
573.4727423587804
 30
0.0
  0
VERTEX
  5
38B
330
369
100
AcDbEntity
  8
Make2D$可见线$普通线
100
AcDbVertex
100
AcDb2dVertex
 10
956.3573950396388
 20
572.3413629511003
 30
0.0
  0
VERTEX
  5
38C
330
369
100
AcDbEntity
  8
Make2D$可见线$普通线
100
AcDbVertex
100
AcDb2dVertex
 10
956.3303614902891
 20
571.426262953799
 30
0.0
  0
VERTEX
  5
38D
330
369
100
AcDbEntity
  8
Make2D$可见线$普通线
100
AcDbVertex
100
AcDb2dVertex
 10
956.3211895856132
 20
571.2176533583449
 30
0.0
  0
VERTEX
  5
38E
330
369
100
AcDbEntity
  8
Make2D$可见线$普通线
100
AcDbVertex
100
AcDb2dVertex
 10
956.3008126605055
 20
570.8344673856993
 30
0.0
  0
VERTEX
  5
38F
330
369
100
AcDbEntity
  8
Make2D$可见线$普通线
100
AcDbVertex
100
AcDb2dVertex
 10
956.2949524331806
 20
570.7381249087896
 30
0.0
 42
-0.0151616759819216
  0
VERTEX
  5
390
330
369
100
AcDbEntity
  8
Make2D$可见线$普通线
100
AcDbVertex
100
AcDb2dVertex
 10
956.157094423401
 20
569.2171332241305
 30
0.0
  0
VERTEX
  5
391
330
369
100
AcDbEntity
  8
Make2D$可见线$普通线
100
AcDbVertex
100
AcDb2dVertex
 10
956.0892054245774
 20
568.7081634844237
 30
0.0
  0
VERTEX
  5
392
330
369
100
AcDbEntity
  8
Make2D$可见线$普通线
100
AcDbVertex
100
AcDb2dVertex
 10
955.9914004892831
 20
568.1326073509342
 30
0.0
 42
-0.0157684409216802
  0
VERTEX
  5
393
330
369
100
AcDbEntity
  8
Make2D$可见线$普通线
100
AcDbVertex
100
AcDb2dVertex
 10
955.7697192905694
 20
567.1061895227393
 30
0.0
  0
SEQEND
  5
394
330
369
100
AcDbEntity
  8
Make2D$可见线$普通线
  0
POLYLINE
  5
395
330
1F
100
AcDbEntity
  8
Make2D$可见线$普通线
100
AcDb2dPolyline
 66
     1
 10
0.0
 20
0.0
 30
0.0
  0
VERTEX
  5
396
330
395
100
AcDbEntity
  8
Make2D$可见线$普通线
100
AcDbVertex
100
AcDb2dVertex
 10
936.2308491388476
 20
627.9953730586168
 30
0.0
 42
-0.0125344509267261
  0
VERTEX
  5
397
330
395
100
AcDbEntity
  8
Make2D$可见线$普通线
100
AcDbVertex
100
AcDb2dVertex
 10
937.1728862301212
 20
625.7066381815845
 30
0.0
 42
-0.0455988106150425
  0
VERTEX
  5
398
330
395
100
AcDbEntity
  8
Make2D$可见线$普通线
100
AcDbVertex
100
AcDb2dVertex
 10
939.6399708357944
 20
616.9485709692091
 30
0.0
  0
VERTEX
  5
399
330
395
100
AcDbEntity
  8
Make2D$可见线$普通线
100
AcDbVertex
100
AcDb2dVertex
 10
940.5750300430045
 20
609.8070148744562
 30
0.0
  0
VERTEX
  5
39A
330
395
100
AcDbEntity
  8
Make2D$可见线$普通线
100
AcDbVertex
100
AcDb2dVertex
 10
940.7041460371447
 20
608.7506533882162
 30
0.0
  0
VERTEX
  5
39B
330
395
100
AcDbEntity
  8
Make2D$可见线$普通线
100
AcDbVertex
100
AcDb2dVertex
 10
940.7262869959353
 20
608.5367459577078
 30
0.0
  0
VERTEX
  5
39C
330
395
100
AcDbEntity
  8
Make2D$可见线$普通线
100
AcDbVertex
100
AcDb2dVertex
 10
940.7362209250491
 20
608.412608991732
 30
0.0
  0
VERTEX
  5
39D
330
395
100
AcDbEntity
  8
Make2D$可见线$普通线
100
AcDbVertex
100
AcDb2dVertex
 10
940.8007452039975
 20
607.4348858865422
 30
0.0
  0
VERTEX
  5
39E
330
395
100
AcDbEntity
  8
Make2D$可见线$普通线
100
AcDbVertex
100
AcDb2dVertex
 10
940.8118724934908
 20
607.2441753673518
 30
0.0
  0
VERTEX
  5
39F
330
395
100
AcDbEntity
  8
Make2D$可见线$普通线
100
AcDbVertex
100
AcDb2dVertex
 10
940.8431399162916
 20
606.657746569503
 30
0.0
  0
VERTEX
  5
3A0
330
395
100
AcDbEntity
  8
Make2D$可见线$普通线
100
AcDbVertex
100
AcDb2dVertex
 10
940.8819132833672
 20
605.7754744904039
 30
0.0
  0
VERTEX
  5
3A1
330
395
100
AcDbEntity
  8
Make2D$可见线$普通线
100
AcDbVertex
100
AcDb2dVertex
 10
940.8907095744813
 20
605.5370971713279
 30
0.0
  0
VERTEX
  5
3A2
330
395
100
AcDbEntity
  8
Make2D$可见线$普通线
100
AcDbVertex
100
AcDb2dVertex
 10
940.9306323329623
 20
604.0021478672559
 30
0.0
 42
-0.0156598436780686
  0
VERTEX
  5
3A3
330
395
100
AcDbEntity
  8
Make2D$可见线$普通线
100
AcDbVertex
100
AcDb2dVertex
 10
940.8418468620175
 20
598.2796286552559
 30
0.0
  0
VERTEX
  5
3A4
330
395
100
AcDbEntity
  8
Make2D$可见线$普通线
100
AcDbVertex
100
AcDb2dVertex
 10
940.7191296179672
 20
596.0959975593903
 30
0.0
  0
VERTEX
  5
3A5
330
395
100
AcDbEntity
  8
Make2D$可见线$普通线
100
AcDbVertex
100
AcDb2dVertex
 10
940.6400656862443
 20
594.9756394677579
 30
0.0
  0
VERTEX
  5
3A6
330
395
100
AcDbEntity
  8
Make2D$可见线$普通线
100
AcDbVertex
100
AcDb2dVertex
 10
940.6180432502105
 20
594.6869957083446
 30
0.0
  0
VERTEX
  5
3A7
330
395
100
AcDbEntity
  8
Make2D$可见线$普通线
100
AcDbVertex
100
AcDb2dVertex
 10
940.5400048449078
 20
593.7225982006173
 30
0.0
  0
VERTEX
  5
3A8
330
395
100
AcDbEntity
  8
Make2D$可见线$普通线
100
AcDbVertex
100
AcDb2dVertex
 10
940.4632358876643
 20
592.8403668695072
 30
0.0
  0
VERTEX
  5
3A9
330
395
100
AcDbEntity
  8
Make2D$可见线$普通线
100
AcDbVertex
100
AcDb2dVertex
 10
940.3732987635498
 20
591.8701347589447
 30
0.0
  0
VERTEX
  5
3AA
330
395
100
AcDbEntity
  8
Make2D$可见线$普通线
100
AcDbVertex
100
AcDb2dVertex
 10
940.2277659033259
 20
590.4057425282211
 30
0.0
  0
VERTEX
  5
3AB
330
395
100
AcDbEntity
  8
Make2D$可见线$普通线
100
AcDbVertex
100
AcDb2dVertex
 10
940.2264411166922
 20
590.3928098213335
 30
0.0
  0
VERTEX
  5
3AC
330
395
100
AcDbEntity
  8
Make2D$可见线$普通线
100
AcDbVertex
100
AcDb2dVertex
 10
940.1518087233158
 20
589.6743383719659
 30
0.0
  0
VERTEX
  5
3AD
330
395
100
AcDbEntity
  8
Make2D$可见线$普通线
100
AcDbVertex
100
AcDb2dVertex
 10
940.1124903228861
 20
589.3029571934972
 30
0.0
  0
VERTEX
  5
3AE
330
395
100
AcDbEntity
  8
Make2D$可见线$普通线
100
AcDbVertex
100
AcDb2dVertex
 10
939.9938917300175
 20
588.2064448819017
 30
0.0
  0
VERTEX
  5
3AF
330
395
100
AcDbEntity
  8
Make2D$可见线$普通线
100
AcDbVertex
100
AcDb2dVertex
 10
939.9938834799144
 20
588.2063696582828
 30
0.0
  0
VERTEX
  5
3B0
330
395
100
AcDbEntity
  8
Make2D$可见线$普通线
100
AcDbVertex
100
AcDb2dVertex
 10
939.2973674794132
 20
581.8541621885706
 30
0.0
  0
VERTEX
  5
3B1
330
395
100
AcDbEntity
  8
Make2D$可见线$普通线
100
AcDbVertex
100
AcDb2dVertex
 10
939.161680250754
 20
580.5117535333543
 30
0.0
  0
VERTEX
  5
3B2
330
395
100
AcDbEntity
  8
Make2D$可见线$普通线
100
AcDbVertex
100
AcDb2dVertex
 10
939.0359014898937
 20
579.1646544836833
 30
0.0
  0
VERTEX
  5
3B3
330
395
100
AcDbEntity
  8
Make2D$可见线$普通线
100
AcDbVertex
100
AcDb2dVertex
 10
938.9238680725323
 20
577.8140287632189
 30
0.0
  0
VERTEX
  5
3B4
330
395
100
AcDbEntity
  8
Make2D$可见线$普通线
100
AcDbVertex
100
AcDb2dVertex
 10
938.8294168743696
 20
576.4610400956221
 30
0.0
  0
VERTEX
  5
3B5
330
395
100
AcDbEntity
  8
Make2D$可见线$普通线
100
AcDbVertex
100
AcDb2dVertex
 10
938.7911661003031
 20
575.7773490312967
 30
0.0
 42
0.0098116104273867
  0
VERTEX
  5
3B6
330
395
100
AcDbEntity
  8
Make2D$可见线$普通线
100
AcDbVertex
100
AcDb2dVertex
 10
938.7112935496245
 20
573.4727423587804
 30
0.0
  0
VERTEX
  5
3B7
330
395
100
AcDbEntity
  8
Make2D$可见线$普通线
100
AcDbVertex
100
AcDb2dVertex
 10
938.7098491031259
 20
572.3413629511003
 30
0.0
  0
VERTEX
  5
3B8
330
395
100
AcDbEntity
  8
Make2D$可见线$普通线
100
AcDbVertex
100
AcDb2dVertex
 10
938.7368826524756
 20
571.426262953799
 30
0.0
  0
VERTEX
  5
3B9
330
395
100
AcDbEntity
  8
Make2D$可见线$普通线
100
AcDbVertex
100
AcDb2dVertex
 10
938.7460545571515
 20
571.2176533583449
 30
0.0
  0
VERTEX
  5
3BA
330
395
100
AcDbEntity
  8
Make2D$可见线$普通线
100
AcDbVertex
100
AcDb2dVertex
 10
938.7664314822593
 20
570.8344673856993
 30
0.0
  0
VERTEX
  5
3BB
330
395
100
AcDbEntity
  8
Make2D$可见线$普通线
100
AcDbVertex
100
AcDb2dVertex
 10
938.772291709584
 20
570.7381249087896
 30
0.0
 42
0.0151616759820346
  0
VERTEX
  5
3BC
330
395
100
AcDbEntity
  8
Make2D$可见线$普通线
100
AcDbVertex
100
AcDb2dVertex
 10
938.9101497193637
 20
569.2171332241305
 30
0.0
  0
VERTEX
  5
3BD
330
395
100
AcDbEntity
  8
Make2D$可见线$普通线
100
AcDbVertex
100
AcDb2dVertex
 10
938.9780387181875
 20
568.7081634844237
 30
0.0
  0
VERTEX
  5
3BE
330
395
100
AcDbEntity
  8
Make2D$可见线$普通线
100
AcDbVertex
100
AcDb2dVertex
 10
939.0758436534817
 20
568.1326073509342
 30
0.0
 42
0.0157684409218535
  0
VERTEX
  5
3BF
330
395
100
AcDbEntity
  8
Make2D$可见线$普通线
100
AcDbVertex
100
AcDb2dVertex
 10
939.2975248521952
 20
567.1061895227393
 30
0.0
  0
SEQEND
  5
3C0
330
395
100
AcDbEntity
  8
Make2D$可见线$普通线
  0
POLYLINE
  5
3C1
330
1F
100
AcDbEntity
  8
Make2D$可见线$普通线
100
AcDb2dPolyline
 66
     1
 10
0.0
 20
0.0
 30
0.0
  0
VERTEX
  5
3C2
330
3C1
100
AcDbEntity
  8
Make2D$可见线$普通线
100
AcDbVertex
100
AcDb2dVertex
 10
947.533840754925
 20
659.978235261407
 30
0.0
  0
VERTEX
  5
3C3
330
3C1
100
AcDbEntity
  8
Make2D$可见线$普通线
100
AcDbVertex
100
AcDb2dVertex
 10
947.5336220713823
 20
659.9782352635351
 30
0.0
  0
VERTEX
  5
3C4
330
3C1
100
AcDbEntity
  8
Make2D$可见线$普通线
100
AcDbVertex
100
AcDb2dVertex
 10
947.5334033878398
 20
659.978235261407
 30
0.0
  0
SEQEND
  5
3C5
330
3C1
100
AcDbEntity
  8
Make2D$可见线$普通线
  0
POLYLINE
  5
3C6
330
1F
100
AcDbEntity
  8
Make2D$可见线$普通线
100
AcDb2dPolyline
 66
     1
 10
0.0
 20
0.0
 30
0.0
  0
VERTEX
  5
3C7
330
3C6
100
AcDbEntity
  8
Make2D$可见线$普通线
100
AcDbVertex
100
AcDb2dVertex
 10
939.5099820553365
 20
583.8389169726142
 30
0.0
 42
0.1982685554588095
  0
VERTEX
  5
3C8
330
3C6
100
AcDbEntity
  8
Make2D$可见线$普通线
100
AcDbVertex
100
AcDb2dVertex
 10
934.6313466365824
 20
575.2014689600657
 30
0.0
  0
VERTEX
  5
3C9
330
3C6
100
AcDbEntity
  8
Make2D$可见线$普通线
100
AcDbVertex
100
AcDb2dVertex
 10
934.5383759915208
 20
575.095431130399
 30
0.0
 42
0.268709139012132
  0
VERTEX
  5
3CA
330
3C6
100
AcDbEntity
  8
Make2D$可见线$普通线
100
AcDbVertex
100
AcDb2dVertex
 10
933.9486152743027
 20
572.1464615879283
 30
0.0
 42
0.0992573229738078
  0
VERTEX
  5
3CB
330
3C6
100
AcDbEntity
  8
Make2D$可见线$普通线
100
AcDbVertex
100
AcDb2dVertex
 10
939.4732532227598
 20
562.5775079724814
 30
0.0
 42
0.2687091348153443
  0
VERTEX
  5
3CC
330
3C6
100
AcDbEntity
  8
Make2D$可见线$普通线
100
AcDbVertex
100
AcDb2dVertex
 10
942.3220160744859
 20
561.6137709564033
 30
0.0
  0
VERTEX
  5
3CD
330
3C6
100
AcDbEntity
  8
Make2D$可见线$普通线
100
AcDbVertex
100
AcDb2dVertex
 10
942.4603328167211
 20
561.6412669729509
 30
0.0
 42
0.2031818939977074
  0
VERTEX
  5
3CE
330
3C6
100
AcDbEntity
  8
Make2D$可见线$普通线
100
AcDbVertex
100
AcDb2dVertex
 10
952.606911302079
 20
561.6412669747084
 30
0.0
  0
VERTEX
  5
3CF
330
3C6
100
AcDbEntity
  8
Make2D$可见线$普通线
100
AcDbVertex
100
AcDb2dVertex
 10
952.7452280664673
 20
561.613770965766
 30
0.0
 42
0.2687091437714649
  0
VERTEX
  5
3D0
330
3C6
100
AcDbEntity
  8
Make2D$可见线$普通线
100
AcDbVertex
100
AcDb2dVertex
 10
955.5939909487433
 20
562.5775080249902
 30
0.0
 42
0.0992572919922097
  0
VERTEX
  5
3D1
330
3C6
100
AcDbEntity
  8
Make2D$可见线$普通线
100
AcDbVertex
100
AcDb2dVertex
 10
961.1186288531002
 20
572.1464615515197
 30
0.0
 42
0.2687091348152486
  0
VERTEX
  5
3D2
330
3C6
100
AcDbEntity
  8
Make2D$可见线$普通线
100
AcDbVertex
100
AcDb2dVertex
 10
960.52886821251
 20
575.0954310717268
 30
0.0
  0
VERTEX
  5
3D3
330
3C6
100
AcDbEntity
  8
Make2D$可见线$普通线
100
AcDbVertex
100
AcDb2dVertex
 10
960.4358974686759
 20
575.2014690374042
 30
0.0
 42
0.1982685531240633
  0
VERTEX
  5
3D4
330
3C6
100
AcDbEntity
  8
Make2D$可见线$普通线
100
AcDbVertex
100
AcDb2dVertex
 10
955.5572620900593
 20
583.8389169486097
 30
0.0
  0
SEQEND
  5
3D5
330
3C6
100
AcDbEntity
  8
Make2D$可见线$普通线
  0
POLYLINE
  5
3D6
330
1F
100
AcDbEntity
  8
Make2D$可见线$普通线
100
AcDb2dPolyline
 66
     1
 10
0.0
 20
0.0
 30
0.0
  0
VERTEX
  5
3D7
330
3D6
100
AcDbEntity
  8
Make2D$可见线$普通线
100
AcDbVertex
100
AcDb2dVertex
 10
953.9865033094883
 20
647.9967471808983
 30
0.0
 42
-0.4944711583158877
  0
VERTEX
  5
3D8
330
3D6
100
AcDbEntity
  8
Make2D$可见线$普通线
100
AcDbVertex
100
AcDb2dVertex
 10
953.7310030729736
 20
648.2882472343049
 30
0.0
 42
-0.1727495767039678
  0
VERTEX
  5
3D9
330
3D6
100
AcDbEntity
  8
Make2D$可见线$普通线
100
AcDbVertex
100
AcDb2dVertex
 10
953.8066281282875
 20
648.5448722438418
 30
0.0
 42
-0.2355852892476936
  0
VERTEX
  5
3DA
330
3D6
100
AcDbEntity
  8
Make2D$可见线$普通线
100
AcDbVertex
100
AcDb2dVertex
 10
954.0090031645276
 20
648.6367471808983
 30
0.0
 42
-0.2139093365286958
  0
VERTEX
  5
3DB
330
3D6
100
AcDbEntity
  8
Make2D$可见线$普通线
100
AcDbVertex
100
AcDb2dVertex
 10
954.2020031797867
 20
648.5596222247678
 30
0.0
 42
-0.194459614487713
  0
VERTEX
  5
3DC
330
3D6
100
AcDbEntity
  8
Make2D$可见线$普通线
100
AcDbVertex
100
AcDb2dVertex
 10
954.2750030729736
 20
648.3452473716361
 30
0.0
 42
-0.1751002038663043
  0
VERTEX
  5
3DD
330
3D6
100
AcDbEntity
  8
Make2D$可见线$普通线
100
AcDbVertex
100
AcDb2dVertex
 10
954.1967530996769
 20
648.0921222934337
 30
0.0
 42
-0.2360418704015402
  0
VERTEX
  5
3DE
330
3D6
100
AcDbEntity
  8
Make2D$可见线$普通线
100
AcDbVertex
100
AcDb2dVertex
 10
953.9865033094883
 20
647.9967471808985
 30
0.0
  0
SEQEND
  5
3DF
330
3D6
100
AcDbEntity
  8
Make2D$可见线$普通线
  0
POLYLINE
  5
3E0
330
1F
100
AcDbEntity
  8
Make2D$可见线$普通线
100
AcDb2dPolyline
 66
     1
 10
0.0
 20
0.0
 30
0.0
  0
VERTEX
  5
3E1
330
3E0
100
AcDbEntity
  8
Make2D$可见线$普通线
100
AcDbVertex
100
AcDb2dVertex
 10
955.7330031034916
 20
647.9967471808983
 30
0.0
 42
-0.2443769270272803
  0
VERTEX
  5
3E2
330
3E0
100
AcDbEntity
  8
Make2D$可见线$普通线
100
AcDbVertex
100
AcDb2dVertex
 10
955.5810031034916
 20
648.0714972228607
 30
0.0
 42
-0.1680251431007726
  0
VERTEX
  5
3E3
330
3E0
100
AcDbEntity
  8
Make2D$可见线$普通线
100
AcDbVertex
100
AcDb2dVertex
 10
955.5230030729734
 20
648.2659973830803
 30
0.0
 42
-0.1698059501847895
  0
VERTEX
  5
3E4
330
3E0
100
AcDbEntity
  8
Make2D$可见线$普通线
100
AcDbVertex
100
AcDb2dVertex
 10
955.6237531454539
 20
648.5537472571934
 30
0.0
 42
-0.2414809695512539
  0
VERTEX
  5
3E5
330
3E0
100
AcDbEntity
  8
Make2D$可见线$普通线
100
AcDbVertex
100
AcDb2dVertex
 10
955.8560032713407
 20
648.6847471808982
 30
0.0
 42
-0.2169448551985743
  0
VERTEX
  5
3E6
330
3E0
100
AcDbEntity
  8
Make2D$可见线$普通线
100
AcDbVertex
100
AcDb2dVertex
 10
956.013878116843
 20
648.6211221866204
 30
0.0
 42
-0.1917783985106461
  0
VERTEX
  5
3E7
330
3E0
100
AcDbEntity
  8
Make2D$可见线$普通线
100
AcDbVertex
100
AcDb2dVertex
 10
956.0727531607129
 20
648.4467472114163
 30
0.0
 42
-0.1654571122386276
  0
VERTEX
  5
3E8
330
3E0
100
AcDbEntity
  8
Make2D$可见线$普通线
100
AcDbVertex
100
AcDb2dVertex
 10
955.9677531454537
 20
648.1378722591007
 30
0.0
 42
-0.2425083582997475
  0
VERTEX
  5
3E9
330
3E0
100
AcDbEntity
  8
Make2D$可见线$普通线
100
AcDbVertex
100
AcDb2dVertex
 10
955.7330031034916
 20
647.9967471808983
 30
0.0
  0
SEQEND
  5
3EA
330
3E0
100
AcDbEntity
  8
Make2D$可见线$普通线
  0
POLYLINE
  5
3EB
330
1F
100
AcDbEntity
  8
Make2D$可见线$普通线
100
AcDb2dPolyline
 66
     1
 10
0.0
 20
0.0
 30
0.0
  0
VERTEX
  5
3EC
330
3EB
100
AcDbEntity
  8
Make2D$可见线$普通线
100
AcDbVertex
100
AcDb2dVertex
 10
940.8370294347183
 20
648.9302472648229
 30
0.0
  0
VERTEX
  5
3ED
330
3EB
100
AcDbEntity
  8
Make2D$可见线$普通线
100
AcDbVertex
100
AcDb2dVertex
 10
940.8370294347183
 20
649.5547472724525
 30
0.0
 42
-0.0984147910619709
  0
VERTEX
  5
3EE
330
3EB
100
AcDbEntity
  8
Make2D$可见线$普通线
100
AcDbVertex
100
AcDb2dVertex
 10
940.8854044404403
 20
649.8556222247681
 30
0.0
 42
-0.3065756277457137
  0
VERTEX
  5
3EF
330
3EB
100
AcDbEntity
  8
Make2D$可见线$普通线
100
AcDbVertex
100
AcDb2dVertex
 10
941.0167794919397
 20
649.9647471808984
 30
0.0
 42
-0.2780273593296101
  0
VERTEX
  5
3F0
330
3EB
100
AcDbEntity
  8
Make2D$可见线$普通线
100
AcDbVertex
100
AcDb2dVertex
 10
941.106529518643
 20
649.9076222858041
 30
0.0
 42
-0.1357765653159975
  0
VERTEX
  5
3F1
330
3EB
100
AcDbEntity
  8
Make2D$可见线$普通线
100
AcDbVertex
100
AcDb2dVertex
 10
941.1410294347183
 20
649.7624972686377
 30
0.0
 42
-0.0848483966042549
  0
VERTEX
  5
3F2
330
3EB
100
AcDbEntity
  8
Make2D$可见线$普通线
100
AcDbVertex
100
AcDb2dVertex
 10
941.0754045319945
 20
649.4272474021541
 30
0.0
 42
-0.0362415767759277
  0
VERTEX
  5
3F3
330
3EB
100
AcDbEntity
  8
Make2D$可见线$普通线
100
AcDbVertex
100
AcDb2dVertex
 10
940.8370294347183
 20
648.9302472648229
 30
0.0
  0
SEQEND
  5
3F4
330
3EB
100
AcDbEntity
  8
Make2D$可见线$普通线
  0
POLYLINE
  5
3F5
330
1F
100
AcDbEntity
  8
Make2D$可见线$普通线
100
AcDb2dPolyline
 66
     1
 10
0.0
 20
0.0
 30
0.0
  0
VERTEX
  5
3F6
330
3F5
100
AcDbEntity
  8
Make2D$可见线$普通线
100
AcDbVertex
100
AcDb2dVertex
 10
942.4690294347182
 20
648.5767472419344
 30
0.0
  0
VERTEX
  5
3F7
330
3F5
100
AcDbEntity
  8
Make2D$可见线$普通线
100
AcDbVertex
100
AcDb2dVertex
 10
942.4690294347183
 20
648.2037474097837
 30
0.0
 42
-0.1038800685406975
  0
VERTEX
  5
3F8
330
3F5
100
AcDbEntity
  8
Make2D$可见线$普通线
100
AcDbVertex
100
AcDb2dVertex
 10
942.3987794614216
 20
648.1041222323975
 30
0.0
 42
-0.463299510166902
  0
VERTEX
  5
3F9
330
3F5
100
AcDbEntity
  8
Make2D$可见线$普通线
100
AcDbVertex
100
AcDb2dVertex
 10
942.0815295033839
 20
648.0999972915262
 30
0.0
 42
-0.1767269398272037
  0
VERTEX
  5
3FA
330
3F5
100
AcDbEntity
  8
Make2D$可见线$普通线
100
AcDbVertex
100
AcDb2dVertex
 10
942.0210294347182
 20
648.3009971847131
 30
0.0
 42
-0.1820413154726154
  0
VERTEX
  5
3FB
330
3F5
100
AcDbEntity
  8
Make2D$可见线$普通线
100
AcDbVertex
100
AcDb2dVertex
 10
942.1064045167354
 20
648.5517472266754
 30
0.0
 42
-0.2279223017326588
  0
VERTEX
  5
3FC
330
3F5
100
AcDbEntity
  8
Make2D$可见线$普通线
100
AcDbVertex
100
AcDb2dVertex
 10
942.2982795148282
 20
648.6527471808984
 30
0.0
 42
-0.2170032818999879
  0
VERTEX
  5
3FD
330
3F5
100
AcDbEntity
  8
Make2D$可见线$普通线
100
AcDbVertex
100
AcDb2dVertex
 10
942.4690294347182
 20
648.5767472419343
 30
0.0
  0
SEQEND
  5
3FE
330
3F5
100
AcDbEntity
  8
Make2D$可见线$普通线
  0
POLYLINE
  5
3FF
330
1F
100
AcDbEntity
  8
Make2D$可见线$普通线
100
AcDb2dPolyline
 66
     1
 10
0.0
 20
0.0
 30
0.0
  0
VERTEX
  5
400
330
3FF
100
AcDbEntity
  8
Make2D$可见线$普通线
100
AcDbVertex
100
AcDb2dVertex
 10
944.6790294652363
 20
647.9967471808984
 30
0.0
 42
-0.2449047009562299
  0
VERTEX
  5
401
330
3FF
100
AcDbEntity
  8
Make2D$可见线$普通线
100
AcDbVertex
100
AcDb2dVertex
 10
944.5270294652362
 20
648.0714972228606
 30
0.0
 42
-0.1678952691662889
  0
VERTEX
  5
402
330
3FF
100
AcDbEntity
  8
Make2D$可见线$普通线
100
AcDbVertex
100
AcDb2dVertex
 10
944.4690294347184
 20
648.2659973830804
 30
0.0
 42
-0.1698696505814289
  0
VERTEX
  5
403
330
3FF
100
AcDbEntity
  8
Make2D$可见线$普通线
100
AcDbVertex
100
AcDb2dVertex
 10
944.5697795071987
 20
648.5537472571933
 30
0.0
 42
-0.2411224336042553
  0
VERTEX
  5
404
330
3FF
100
AcDbEntity
  8
Make2D$可见线$普通线
100
AcDbVertex
100
AcDb2dVertex
 10
944.8020296330856
 20
648.6847471808984
 30
0.0
 42
-0.217051707108843
  0
VERTEX
  5
405
330
3FF
100
AcDbEntity
  8
Make2D$可见线$普通线
100
AcDbVertex
100
AcDb2dVertex
 10
944.959904478588
 20
648.6211221866205
 30
0.0
 42
-0.1915665817506239
  0
VERTEX
  5
406
330
3FF
100
AcDbEntity
  8
Make2D$可见线$普通线
100
AcDbVertex
100
AcDb2dVertex
 10
945.0187795224576
 20
648.4467472114163
 30
0.0
 42
-0.1654568475270933
  0
VERTEX
  5
407
330
3FF
100
AcDbEntity
  8
Make2D$可见线$普通线
100
AcDbVertex
100
AcDb2dVertex
 10
944.9137795071987
 20
648.137872259101
 30
0.0
 42
-0.2419930270515234
  0
VERTEX
  5
408
330
3FF
100
AcDbEntity
  8
Make2D$可见线$普通线
100
AcDbVertex
100
AcDb2dVertex
 10
944.6790294652363
 20
647.9967471808984
 30
0.0
  0
SEQEND
  5
409
330
3FF
100
AcDbEntity
  8
Make2D$可见线$普通线
  0
POLYLINE
  5
40A
330
1F
100
AcDbEntity
  8
Make2D$可见线$普通线
100
AcDb2dPolyline
 66
     1
 10
0.0
 20
0.0
 30
0.0
  0
VERTEX
  5
40B
330
40A
100
AcDbEntity
  8
Make2D$可见线$普通线
100
AcDbVertex
100
AcDb2dVertex
 10
947.5336220713824
 20
642.2889990752143
 30
0.0
 42
-0.3044020933006295
  0
VERTEX
  5
40C
330
40A
100
AcDbEntity
  8
Make2D$可见线$普通线
100
AcDbVertex
100
AcDb2dVertex
 10
941.5617790447553
 20
646.2959706386658
 30
0.0
  0
VERTEX
  5
40D
330
40A
100
AcDbEntity
  8
Make2D$可见线$普通线
100
AcDbVertex
100
AcDb2dVertex
 10
941.6538947660272
 20
646.6229878005466
 30
0.0
  0
VERTEX
  5
40E
330
40A
100
AcDbEntity
  8
Make2D$可见线$普通线
100
AcDbVertex
100
AcDb2dVertex
 10
941.3036360523985
 20
646.8751164056812
 30
0.0
  0
VERTEX
  5
40F
330
40A
100
AcDbEntity
  8
Make2D$可见线$普通线
100
AcDbVertex
100
AcDb2dVertex
 10
941.1866239025745
 20
646.4597152058832
 30
0.0
  0
VERTEX
  5
410
330
40A
100
AcDbEntity
  8
Make2D$可见线$普通线
100
AcDbVertex
100
AcDb2dVertex
 10
941.4702815214144
 20
646.2555284233962
 30
0.0
 42
0.6706747402176179
  0
VERTEX
  5
411
330
40A
100
AcDbEntity
  8
Make2D$可见线$普通线
100
AcDbVertex
100
AcDb2dVertex
 10
953.5969626213321
 20
646.2555284234219
 30
0.0
  0
VERTEX
  5
412
330
40A
100
AcDbEntity
  8
Make2D$可见线$普通线
100
AcDbVertex
100
AcDb2dVertex
 10
953.8806202401904
 20
646.4597152058832
 30
0.0
  0
VERTEX
  5
413
330
40A
100
AcDbEntity
  8
Make2D$可见线$普通线
100
AcDbVertex
100
AcDb2dVertex
 10
953.7636080903663
 20
646.8751164056812
 30
0.0
  0
VERTEX
  5
414
330
40A
100
AcDbEntity
  8
Make2D$可见线$普通线
100
AcDbVertex
100
AcDb2dVertex
 10
953.4133493767376
 20
646.6229878005466
 30
0.0
  0
VERTEX
  5
415
330
40A
100
AcDbEntity
  8
Make2D$可见线$普通线
100
AcDbVertex
100
AcDb2dVertex
 10
953.5054650980097
 20
646.2959706386657
 30
0.0
 42
-0.3044020594195886
  0
VERTEX
  5
416
330
40A
100
AcDbEntity
  8
Make2D$可见线$普通线
100
AcDbVertex
100
AcDb2dVertex
 10
947.5336220713824
 20
642.2889990752146
 30
0.0
  0
SEQEND
  5
417
330
40A
100
AcDbEntity
  8
Make2D$可见线$普通线
  0
POLYLINE
  5
418
330
1F
100
AcDbEntity
  8
Make2D$可见线$普通线
100
AcDb2dPolyline
 66
     1
 10
0.0
 20
0.0
 30
0.0
  0
VERTEX
  5
419
330
418
100
AcDbEntity
  8
Make2D$可见线$普通线
100
AcDbVertex
100
AcDb2dVertex
 10
952.1470030729735
 20
650.0057473182296
 30
0.0
 42
0.2403900169034854
  0
VERTEX
  5
41A
330
418
100
AcDbEntity
  8
Make2D$可见线$普通线
100
AcDbVertex
100
AcDb2dVertex
 10
952.6270030729734
 20
650.134247325859
 30
0.0
  0
VERTEX
  5
41B
330
418
100
AcDbEntity
  8
Make2D$可见线$普通线
100
AcDbVertex
100
AcDb2dVertex
 10
952.6022531836014
 20
650.1887471808983
 30
0.0
 42
-0.1927497743901488
  0
VERTEX
  5
41C
330
418
100
AcDbEntity
  8
Make2D$可见线$普通线
100
AcDbVertex
100
AcDb2dVertex
 10
952.478753252267
 20
650.1407471808983
 30
0.0
 42
-0.0278356523452553
  0
VERTEX
  5
41D
330
418
100
AcDbEntity
  8
Make2D$可见线$普通线
100
AcDbVertex
100
AcDb2dVertex
 10
952.2190031950456
 20
650.1887471808983
 30
0.0
 42
0.0543108890207317
  0
VERTEX
  5
41E
330
418
100
AcDbEntity
  8
Make2D$可见线$普通线
100
AcDbVertex
100
AcDb2dVertex
 10
951.8357532064899
 20
650.2367471808982
 30
0.0
 42
0.1690065740880005
  0
VERTEX
  5
41F
330
418
100
AcDbEntity
  8
Make2D$可见线$普通线
100
AcDbVertex
100
AcDb2dVertex
 10
951.2441280901397
 20
650.0557472266754
 30
0.0
 42
0.243007090937246
  0
VERTEX
  5
420
330
418
100
AcDbEntity
  8
Make2D$可见线$普通线
100
AcDbVertex
100
AcDb2dVertex
 10
951.0110030729733
 20
649.6159972304902
 30
0.0
 42
0.1916556348343128
  0
VERTEX
  5
421
330
418
100
AcDbEntity
  8
Make2D$可见线$普通线
100
AcDbVertex
100
AcDb2dVertex
 10
951.0975031721571
 20
649.3719972915262
 30
0.0
 42
0.2212129891462752
  0
VERTEX
  5
422
330
418
100
AcDbEntity
  8
Make2D$可见线$普通线
100
AcDbVertex
100
AcDb2dVertex
 10
951.3077532064899
 20
649.2767471808985
 30
0.0
 42
0.2248997654905611
  0
VERTEX
  5
423
330
418
100
AcDbEntity
  8
Make2D$可见线$普通线
100
AcDbVertex
100
AcDb2dVertex
 10
951.4950031340095
 20
649.3624972686379
 30
0.0
 42
0.18969201051725
  0
VERTEX
  5
424
330
418
100
AcDbEntity
  8
Make2D$可见线$普通线
100
AcDbVertex
100
AcDb2dVertex
 10
951.5710030729733
 20
649.5637474097837
 30
0.0
  0
VERTEX
  5
425
330
418
100
AcDbEntity
  8
Make2D$可见线$普通线
100
AcDbVertex
100
AcDb2dVertex
 10
951.5675032637113
 20
649.6127471808983
 30
0.0
  0
VERTEX
  5
426
330
418
100
AcDbEntity
  8
Make2D$可见线$普通线
100
AcDbVertex
100
AcDb2dVertex
 10
951.5312531988606
 20
649.6127471808983
 30
0.0
 42
-0.1827913787833212
  0
VERTEX
  5
427
330
418
100
AcDbEntity
  8
Make2D$可见线$普通线
100
AcDbVertex
100
AcDb2dVertex
 10
951.4563781549907
 20
649.507872289619
 30
0.0
 42
-0.1546528398527929
  0
VERTEX
  5
428
330
418
100
AcDbEntity
  8
Make2D$可见线$普通线
100
AcDbVertex
100
AcDb2dVertex
 10
951.3380031797866
 20
649.4687471808983
 30
0.0
 42
-0.2048485348906726
  0
VERTEX
  5
429
330
418
100
AcDbEntity
  8
Make2D$可见线$普通线
100
AcDbVertex
100
AcDb2dVertex
 10
951.1898781168433
 20
649.5353722209533
 30
0.0
 42
-0.2068403881358809
  0
VERTEX
  5
42A
330
418
100
AcDbEntity
  8
Make2D$可见线$普通线
100
AcDbVertex
100
AcDb2dVertex
 10
951.1230030729737
 20
649.7064973907098
 30
0.0
 42
-0.4195703350715189
  0
VERTEX
  5
42B
330
418
100
AcDbEntity
  8
Make2D$可见线$普通线
100
AcDbVertex
100
AcDb2dVertex
 10
951.6057531149357
 20
650.0927471808984
 30
0.0
 42
-0.0673342793913893
  0
VERTEX
  5
42C
330
418
100
AcDbEntity
  8
Make2D$可见线$普通线
100
AcDbVertex
100
AcDb2dVertex
 10
952.0830030729735
 20
650.0189972762672
 30
0.0
 42
0.2389885915426503
  0
VERTEX
  5
42D
330
418
100
AcDbEntity
  8
Make2D$可见线$普通线
100
AcDbVertex
100
AcDb2dVertex
 10
951.8430030729734
 20
649.526247325859
 30
0.0
 42
0.0516133502575529
  0
VERTEX
  5
42E
330
418
100
AcDbEntity
  8
Make2D$可见线$普通线
100
AcDbVertex
100
AcDb2dVertex
 10
951.9012532293783
 20
649.180497421228
 30
0.0
 42
0.0392335480070827
  0
VERTEX
  5
42F
330
418
100
AcDbEntity
  8
Make2D$可见线$普通线
100
AcDbVertex
100
AcDb2dVertex
 10
951.7470030729735
 20
648.9679973525623
 30
0.0
  0
VERTEX
  5
430
330
418
100
AcDbEntity
  8
Make2D$可见线$普通线
100
AcDbVertex
100
AcDb2dVertex
 10
951.8040032103047
 20
648.9247471808983
 30
0.0
 42
-0.1415158369095817
  0
VERTEX
  5
431
330
418
100
AcDbEntity
  8
Make2D$可见线$普通线
100
AcDbVertex
100
AcDb2dVertex
 10
951.9247530996768
 20
649.0934973144148
 30
0.0
  0
VERTEX
  5
432
330
418
100
AcDbEntity
  8
Make2D$可见线$普通线
100
AcDbVertex
100
AcDb2dVertex
 10
952.0012532904145
 20
648.8754974059689
 30
0.0
 42
-0.0791838976360979
  0
VERTEX
  5
433
330
418
100
AcDbEntity
  8
Make2D$可见线$普通线
100
AcDbVertex
100
AcDb2dVertex
 10
952.0670030729735
 20
648.5644972991557
 30
0.0
 42
-0.2237280482961736
  0
VERTEX
  5
434
330
418
100
AcDbEntity
  8
Make2D$可见线$普通线
100
AcDbVertex
100
AcDb2dVertex
 10
951.878128120658
 20
648.1494971923426
 30
0.0
 42
-0.1908352365360779
  0
VERTEX
  5
435
330
418
100
AcDbEntity
  8
Make2D$可见线$普通线
100
AcDbVertex
100
AcDb2dVertex
 10
951.4375032331932
 20
647.9807471808982
 30
0.0
 42
-0.4307291773742793
  0
VERTEX
  5
436
330
418
100
AcDbEntity
  8
Make2D$可见线$普通线
100
AcDbVertex
100
AcDb2dVertex
 10
950.9150030729735
 20
648.4727473640065
 30
0.0
 42
-0.1674669767426698
  0
VERTEX
  5
437
330
418
100
AcDbEntity
  8
Make2D$可见线$普通线
100
AcDbVertex
100
AcDb2dVertex
 10
950.998860411731
 20
648.7425924469171
 30
0.0
  0
VERTEX
  5
438
330
418
100
AcDbEntity
  8
Make2D$可见线$普通线
100
AcDbVertex
100
AcDb2dVertex
 10
951.0260031797866
 20
648.774622209509
 30
0.0
 42
-0.2162622388471336
  0
VERTEX
  5
439
330
418
100
AcDbEntity
  8
Make2D$可见线$普通线
100
AcDbVertex
100
AcDb2dVertex
 10
951.2985033094884
 20
648.8927471808986
 30
0.0
  0
VERTEX
  5
43A
330
418
100
AcDbEntity
  8
Make2D$可见线$普通线
100
AcDbVertex
100
AcDb2dVertex
 10
951.3042975834658
 20
648.8929272673829
 30
0.0
  0
VERTEX
  5
43B
330
418
100
AcDbEntity
  8
Make2D$可见线$普通线
100
AcDbVertex
100
AcDb2dVertex
 10
951.3101200243154
 20
648.8929695935742
 30
0.0
  0
VERTEX
  5
43C
330
418
100
AcDbEntity
  8
Make2D$可见线$普通线
100
AcDbVertex
100
AcDb2dVertex
 10
951.3159658351826
 20
648.8928723521511
 30
0.0
  0
VERTEX
  5
43D
330
418
100
AcDbEntity
  8
Make2D$可见线$普通线
100
AcDbVertex
100
AcDb2dVertex
 10
951.3218300980186
 20
648.8926339540221
 30
0.0
  0
VERTEX
  5
43E
330
418
100
AcDbEntity
  8
Make2D$可见线$普通线
100
AcDbVertex
100
AcDb2dVertex
 10
951.3277077857765
 20
648.892253037435
 30
0.0
  0
VERTEX
  5
43F
330
418
100
AcDbEntity
  8
Make2D$可见线$普通线
100
AcDbVertex
100
AcDb2dVertex
 10
951.3335937753775
 20
648.8917284762786
 30
0.0
  0
VERTEX
  5
440
330
418
100
AcDbEntity
  8
Make2D$可见线$普通线
100
AcDbVertex
100
AcDb2dVertex
 10
951.3394828613887
 20
648.8910593875072
 30
0.0
  0
VERTEX
  5
441
330
418
100
AcDbEntity
  8
Make2D$可见线$普通线
100
AcDbVertex
100
AcDb2dVertex
 10
951.3453697703412
 20
648.8902451376176
 30
0.0
  0
VERTEX
  5
442
330
418
100
AcDbEntity
  8
Make2D$可见线$普通线
100
AcDbVertex
100
AcDb2dVertex
 10
951.3512491756142
 20
648.8892853481178
 30
0.0
  0
VERTEX
  5
443
330
418
100
AcDbEntity
  8
Make2D$可见线$普通线
100
AcDbVertex
100
AcDb2dVertex
 10
951.3571157128008
 20
648.8881798999316
 30
0.0
  0
VERTEX
  5
444
330
418
100
AcDbEntity
  8
Make2D$可见线$普通线
100
AcDbVertex
100
AcDb2dVertex
 10
951.3629639954678
 20
648.8869289366941
 30
0.0
  0
VERTEX
  5
445
330
418
100
AcDbEntity
  8
Make2D$可见线$普通线
100
AcDbVertex
100
AcDb2dVertex
 10
951.3687886312151
 20
648.8855328668969
 30
0.0
  0
VERTEX
  5
446
330
418
100
AcDbEntity
  8
Make2D$可见线$普通线
100
AcDbVertex
100
AcDb2dVertex
 10
951.3745842379373
 20
648.8839923648569
 30
0.0
  0
VERTEX
  5
447
330
418
100
AcDbEntity
  8
Make2D$可见线$普通线
100
AcDbVertex
100
AcDb2dVertex
 10
951.3803454601857
 20
648.8823083704839
 30
0.0
  0
VERTEX
  5
448
330
418
100
AcDbEntity
  8
Make2D$可见线$普通线
100
AcDbVertex
100
AcDb2dVertex
 10
951.3860669855286
 20
648.8804820878423
 30
0.0
  0
VERTEX
  5
449
330
418
100
AcDbEntity
  8
Make2D$可见线$普通线
100
AcDbVertex
100
AcDb2dVertex
 10
951.3917435608062
 20
648.8785149825055
 30
0.0
  0
VERTEX
  5
44A
330
418
100
AcDbEntity
  8
Make2D$可见线$普通线
100
AcDbVertex
100
AcDb2dVertex
 10
951.3973700081726
 20
648.8764087777093
 30
0.0
  0
VERTEX
  5
44B
330
418
100
AcDbEntity
  8
Make2D$可见线$普通线
100
AcDbVertex
100
AcDb2dVertex
 10
951.4029412408279
 20
648.8741654493318
 30
0.0
  0
VERTEX
  5
44C
330
418
100
AcDbEntity
  8
Make2D$可见线$普通线
100
AcDbVertex
100
AcDb2dVertex
 10
951.4084522783367
 20
648.8717872197259
 30
0.0
  0
VERTEX
  5
44D
330
418
100
AcDbEntity
  8
Make2D$可见线$普通线
100
AcDbVertex
100
AcDb2dVertex
 10
951.4138982614332
 20
648.8692765504436
 30
0.0
  0
VERTEX
  5
44E
330
418
100
AcDbEntity
  8
Make2D$可见线$普通线
100
AcDbVertex
100
AcDb2dVertex
 10
951.4192744662313
 20
648.8666361339087
 30
0.0
  0
VERTEX
  5
44F
330
418
100
AcDbEntity
  8
Make2D$可见线$普通线
100
AcDbVertex
100
AcDb2dVertex
 10
951.4245763177382
 20
648.8638688840873
 30
0.0
  0
VERTEX
  5
450
330
418
100
AcDbEntity
  8
Make2D$可见线$普通线
100
AcDbVertex
100
AcDb2dVertex
 10
951.4297994026041
 20
648.8609779262273
 30
0.0
  0
VERTEX
  5
451
330
418
100
AcDbEntity
  8
Make2D$可见线$普通线
100
AcDbVertex
100
AcDb2dVertex
 10
951.4349394810276
 20
648.857966585741
 30
0.0
  0
VERTEX
  5
452
330
418
100
AcDbEntity
  8
Make2D$可见线$普通线
100
AcDbVertex
100
AcDb2dVertex
 10
951.439992497755
 20
648.8548383763078
 30
0.0
  0
VERTEX
  5
453
330
418
100
AcDbEntity
  8
Make2D$可见线$普通线
100
AcDbVertex
100
AcDb2dVertex
 10
951.4449545921153
 20
648.8515969872841
 30
0.0
  0
VERTEX
  5
454
330
418
100
AcDbEntity
  8
Make2D$可见线$普通线
100
AcDbVertex
100
AcDb2dVertex
 10
951.449822107043
 20
648.8482462705073
 30
0.0
  0
VERTEX
  5
455
330
418
100
AcDbEntity
  8
Make2D$可见线$普通线
100
AcDbVertex
100
AcDb2dVertex
 10
951.4545915970522
 20
648.844790226592
 30
0.0
  0
VERTEX
  5
456
330
418
100
AcDbEntity
  8
Make2D$可见线$普通线
100
AcDbVertex
100
AcDb2dVertex
 10
951.4592598351326
 20
648.8412329908065
 30
0.0
  0
VERTEX
  5
457
330
418
100
AcDbEntity
  8
Make2D$可见线$普通线
100
AcDbVertex
100
AcDb2dVertex
 10
951.4638238185453
 20
648.8375788186313
 30
0.0
  0
VERTEX
  5
458
330
418
100
AcDbEntity
  8
Make2D$可见线$普通线
100
AcDbVertex
100
AcDb2dVertex
 10
951.4682807735139
 20
648.8338320710932
 30
0.0
  0
VERTEX
  5
459
330
418
100
AcDbEntity
  8
Make2D$可见线$普通线
100
AcDbVertex
100
AcDb2dVertex
 10
951.4726281588055
 20
648.829997199972
 30
0.0
  0
VERTEX
  5
45A
330
418
100
AcDbEntity
  8
Make2D$可见线$普通线
100
AcDbVertex
100
AcDb2dVertex
 10
951.4772839969932
 20
648.8255046821702
 30
0.0
  0
VERTEX
  5
45B
330
418
100
AcDbEntity
  8
Make2D$可见线$普通线
100
AcDbVertex
100
AcDb2dVertex
 10
951.4818106225744
 20
648.8208494183234
 30
0.0
  0
VERTEX
  5
45C
330
418
100
AcDbEntity
  8
Make2D$可见线$普通线
100
AcDbVertex
100
AcDb2dVertex
 10
951.4861997078168
 20
648.8160369908902
 30
0.0
  0
VERTEX
  5
45D
330
418
100
AcDbEntity
  8
Make2D$可见线$普通线
100
AcDbVertex
100
AcDb2dVertex
 10
951.490443249228
 20
648.8110735407042
 30
0.0
  0
VERTEX
  5
45E
330
418
100
AcDbEntity
  8
Make2D$可见线$普通线
100
AcDbVertex
100
AcDb2dVertex
 10
951.4945336137591
 20
648.8059657430528
 30
0.0
  0
VERTEX
  5
45F
330
418
100
AcDbEntity
  8
Make2D$可见线$普通线
100
AcDbVertex
100
AcDb2dVertex
 10
951.4984635828386
 20
648.8007207792136
 30
0.0
  0
VERTEX
  5
460
330
418
100
AcDbEntity
  8
Make2D$可见线$普通线
100
AcDbVertex
100
AcDb2dVertex
 10
951.5022263937196
 20
648.7953463036862
 30
0.0
  0
VERTEX
  5
461
330
418
100
AcDbEntity
  8
Make2D$可见线$普通线
100
AcDbVertex
100
AcDb2dVertex
 10
951.5058157776554
 20
648.7898504074186
 30
0.0
  0
VERTEX
  5
462
330
418
100
AcDbEntity
  8
Make2D$可见线$普通线
100
AcDbVertex
100
AcDb2dVertex
 10
951.5092259944571
 20
648.7842415773993
 30
0.0
  0
VERTEX
  5
463
330
418
100
AcDbEntity
  8
Make2D$可见线$普通线
100
AcDbVertex
100
AcDb2dVertex
 10
951.5124518630339
 20
648.7785286530304
 30
0.0
  0
VERTEX
  5
464
330
418
100
AcDbEntity
  8
Make2D$可见线$普通线
100
AcDbVertex
100
AcDb2dVertex
 10
951.5154887875805
 20
648.7727207797589
 30
0.0
  0
VERTEX
  5
465
330
418
100
AcDbEntity
  8
Make2D$可见线$普通线
100
AcDbVertex
100
AcDb2dVertex
 10
951.518332779127
 20
648.7668273604687
 30
0.0
  0
VERTEX
  5
466
330
418
100
AcDbEntity
  8
Make2D$可见线$普通线
100
AcDbVertex
100
AcDb2dVertex
 10
951.5209804722498
 20
648.7608580051781
 30
0.0
  0
VERTEX
  5
467
330
418
100
AcDbEntity
  8
Make2D$可见线$普通线
100
AcDbVertex
100
AcDb2dVertex
 10
951.5234291368013
 20
648.7548224796022
 30
0.0
  0
VERTEX
  5
468
330
418
100
AcDbEntity
  8
Make2D$可见线$普通线
100
AcDbVertex
100
AcDb2dVertex
 10
951.5256766845985
 20
648.7487306531488
 30
0.0
  0
VERTEX
  5
469
330
418
100
AcDbEntity
  8
Make2D$可见线$普通线
100
AcDbVertex
100
AcDb2dVertex
 10
951.5277216710742
 20
648.7425924469171
 30
0.0
  0
VERTEX
  5
46A
330
418
100
AcDbEntity
  8
Make2D$可见线$普通线
100
AcDbVertex
100
AcDb2dVertex
 10
951.5291651505731
 20
648.7378731687851
 30
0.0
  0
VERTEX
  5
46B
330
418
100
AcDbEntity
  8
Make2D$可见线$普通线
100
AcDbVertex
100
AcDb2dVertex
 10
951.5305005492761
 20
648.7331296155076
 30
0.0
  0
VERTEX
  5
46C
330
418
100
AcDbEntity
  8
Make2D$可见线$普通线
100
AcDbVertex
100
AcDb2dVertex
 10
951.531729930443
 20
648.7283632627782
 30
0.0
  0
VERTEX
  5
46D
330
418
100
AcDbEntity
  8
Make2D$可见线$普通线
100
AcDbVertex
100
AcDb2dVertex
 10
951.5328553573333
 20
648.7235755862907
 30
0.0
  0
VERTEX
  5
46E
330
418
100
AcDbEntity
  8
Make2D$可见线$普通线
100
AcDbVertex
100
AcDb2dVertex
 10
951.533878893207
 20
648.718768061739
 30
0.0
  0
VERTEX
  5
46F
330
418
100
AcDbEntity
  8
Make2D$可见线$普通线
100
AcDbVertex
100
AcDb2dVertex
 10
951.5348026013235
 20
648.7139421648164
 30
0.0
  0
VERTEX
  5
470
330
418
100
AcDbEntity
  8
Make2D$可见线$普通线
100
AcDbVertex
100
AcDb2dVertex
 10
951.5356285449425
 20
648.709099371217
 30
0.0
  0
VERTEX
  5
471
330
418
100
AcDbEntity
  8
Make2D$可见线$普通线
100
AcDbVertex
100
AcDb2dVertex
 10
951.5363587873238
 20
648.7042411566342
 30
0.0
  0
VERTEX
  5
472
330
418
100
AcDbEntity
  8
Make2D$可见线$普通线
100
AcDbVertex
100
AcDb2dVertex
 10
951.536995391727
 20
648.6993689967619
 30
0.0
  0
VERTEX
  5
473
330
418
100
AcDbEntity
  8
Make2D$可见线$普通线
100
AcDbVertex
100
AcDb2dVertex
 10
951.5375404214117
 20
648.6944843672939
 30
0.0
  0
VERTEX
  5
474
330
418
100
AcDbEntity
  8
Make2D$可见线$普通线
100
AcDbVertex
100
AcDb2dVertex
 10
951.5379959396375
 20
648.6895887439238
 30
0.0
  0
VERTEX
  5
475
330
418
100
AcDbEntity
  8
Make2D$可见线$普通线
100
AcDbVertex
100
AcDb2dVertex
 10
951.5383640096643
 20
648.6846836023452
 30
0.0
  0
VERTEX
  5
476
330
418
100
AcDbEntity
  8
Make2D$可见线$普通线
100
AcDbVertex
100
AcDb2dVertex
 10
951.5388460581592
 20
648.6748506673378
 30
0.0
  0
VERTEX
  5
477
330
418
100
AcDbEntity
  8
Make2D$可见线$普通线
100
AcDbVertex
100
AcDb2dVertex
 10
951.5390030729735
 20
648.6649973678213
 30
0.0
  0
VERTEX
  5
478
330
418
100
AcDbEntity
  8
Make2D$可见线$普通线
100
AcDbVertex
100
AcDb2dVertex
 10
951.5388851177335
 20
648.656391761863
 30
0.0
  0
VERTEX
  5
479
330
418
100
AcDbEntity
  8
Make2D$可见线$普通线
100
AcDbVertex
100
AcDb2dVertex
 10
951.5385340289331
 20
648.647961347089
 30
0.0
  0
VERTEX
  5
47A
330
418
100
AcDbEntity
  8
Make2D$可见线$普通线
100
AcDbVertex
100
AcDb2dVertex
 10
951.5379539719524
 20
648.6397042471381
 30
0.0
  0
VERTEX
  5
47B
330
418
100
AcDbEntity
  8
Make2D$可见线$普通线
100
AcDbVertex
100
AcDb2dVertex
 10
951.5371491121715
 20
648.6316185856494
 30
0.0
  0
VERTEX
  5
47C
330
418
100
AcDbEntity
  8
Make2D$可见线$普通线
100
AcDbVertex
100
AcDb2dVertex
 10
951.5361236149704
 20
648.6237024862621
 30
0.0
  0
VERTEX
  5
47D
330
418
100
AcDbEntity
  8
Make2D$可见线$普通线
100
AcDbVertex
100
AcDb2dVertex
 10
951.5348816457291
 20
648.6159540726151
 30
0.0
  0
VERTEX
  5
47E
330
418
100
AcDbEntity
  8
Make2D$可见线$普通线
100
AcDbVertex
100
AcDb2dVertex
 10
951.5334273698277
 20
648.6083714683475
 30
0.0
  0
VERTEX
  5
47F
330
418
100
AcDbEntity
  8
Make2D$可见线$普通线
100
AcDbVertex
100
AcDb2dVertex
 10
951.531764952646
 20
648.6009527970982
 30
0.0
  0
VERTEX
  5
480
330
418
100
AcDbEntity
  8
Make2D$可见线$普通线
100
AcDbVertex
100
AcDb2dVertex
 10
951.5298985595641
 20
648.5936961825064
 30
0.0
  0
VERTEX
  5
481
330
418
100
AcDbEntity
  8
Make2D$可见线$普通线
100
AcDbVertex
100
AcDb2dVertex
 10
951.5278323559621
 20
648.586599748211
 30
0.0
  0
VERTEX
  5
482
330
418
100
AcDbEntity
  8
Make2D$可见线$普通线
100
AcDbVertex
100
AcDb2dVertex
 10
951.5255705072199
 20
648.5796616178511
 30
0.0
  0
VERTEX
  5
483
330
418
100
AcDbEntity
  8
Make2D$可见线$普通线
100
AcDbVertex
100
AcDb2dVertex
 10
951.5231171787176
 20
648.5728799150659
 30
0.0
  0
VERTEX
  5
484
330
418
100
AcDbEntity
  8
Make2D$可见线$普通线
100
AcDbVertex
100
AcDb2dVertex
 10
951.5204765358351
 20
648.5662527634942
 30
0.0
  0
VERTEX
  5
485
330
418
100
AcDbEntity
  8
Make2D$可见线$普通线
100
AcDbVertex
100
AcDb2dVertex
 10
951.5176527439527
 20
648.5597782867751
 30
0.0
  0
VERTEX
  5
486
330
418
100
AcDbEntity
  8
Make2D$可见线$普通线
100
AcDbVertex
100
AcDb2dVertex
 10
951.5146499684502
 20
648.5534546085476
 30
0.0
  0
VERTEX
  5
487
330
418
100
AcDbEntity
  8
Make2D$可见线$普通线
100
AcDbVertex
100
AcDb2dVertex
 10
951.5114723747074
 20
648.5472798524509
 30
0.0
  0
VERTEX
  5
488
330
418
100
AcDbEntity
  8
Make2D$可见线$普通线
100
AcDbVertex
100
AcDb2dVertex
 10
951.5081241281047
 20
648.5412521421238
 30
0.0
  0
VERTEX
  5
489
330
418
100
AcDbEntity
  8
Make2D$可见线$普通线
100
AcDbVertex
100
AcDb2dVertex
 10
951.5046093940218
 20
648.5353696012054
 30
0.0
  0
VERTEX
  5
48A
330
418
100
AcDbEntity
  8
Make2D$可见线$普通线
100
AcDbVertex
100
AcDb2dVertex
 10
951.500932337839
 20
648.5296303533348
 30
0.0
  0
VERTEX
  5
48B
330
418
100
AcDbEntity
  8
Make2D$可见线$普通线
100
AcDbVertex
100
AcDb2dVertex
 10
951.4970971249361
 20
648.5240325221512
 30
0.0
  0
VERTEX
  5
48C
330
418
100
AcDbEntity
  8
Make2D$可见线$普通线
100
AcDbVertex
100
AcDb2dVertex
 10
951.4931079206932
 20
648.5185742312934
 30
0.0
  0
VERTEX
  5
48D
330
418
100
AcDbEntity
  8
Make2D$可见线$普通线
100
AcDbVertex
100
AcDb2dVertex
 10
951.4889688904902
 20
648.5132536044005
 30
0.0
  0
VERTEX
  5
48E
330
418
100
AcDbEntity
  8
Make2D$可见线$普通线
100
AcDbVertex
100
AcDb2dVertex
 10
951.4846841997074
 20
648.5080687651114
 30
0.0
  0
VERTEX
  5
48F
330
418
100
AcDbEntity
  8
Make2D$可见线$普通线
100
AcDbVertex
100
AcDb2dVertex
 10
951.4802580137246
 20
648.5030178370655
 30
0.0
  0
VERTEX
  5
490
330
418
100
AcDbEntity
  8
Make2D$可见线$普通线
100
AcDbVertex
100
AcDb2dVertex
 10
951.4756944979217
 20
648.4980989439016
 30
0.0
  0
VERTEX
  5
491
330
418
100
AcDbEntity
  8
Make2D$可见线$普通线
100
AcDbVertex
100
AcDb2dVertex
 10
951.470997817679
 20
648.4933102092587
 30
0.0
  0
VERTEX
  5
492
330
418
100
AcDbEntity
  8
Make2D$可见线$普通线
100
AcDbVertex
100
AcDb2dVertex
 10
951.4661721383762
 20
648.4886497567759
 30
0.0
  0
VERTEX
  5
493
330
418
100
AcDbEntity
  8
Make2D$可见线$普通线
100
AcDbVertex
100
AcDb2dVertex
 10
951.4612216253936
 20
648.484115710092
 30
0.0
  0
VERTEX
  5
494
330
418
100
AcDbEntity
  8
Make2D$可见线$普通线
100
AcDbVertex
100
AcDb2dVertex
 10
951.456150444111
 20
648.4797061928464
 30
0.0
  0
VERTEX
  5
495
330
418
100
AcDbEntity
  8
Make2D$可见线$普通线
100
AcDbVertex
100
AcDb2dVertex
 10
951.4509627599086
 20
648.4754193286781
 30
0.0
  0
VERTEX
  5
496
330
418
100
AcDbEntity
  8
Make2D$可见线$普通线
100
AcDbVertex
100
AcDb2dVertex
 10
951.4456627381662
 20
648.4712532412259
 30
0.0
  0
VERTEX
  5
497
330
418
100
AcDbEntity
  8
Make2D$可见线$普通线
100
AcDbVertex
100
AcDb2dVertex
 10
951.440254544264
 20
648.4672060541291
 30
0.0
  0
VERTEX
  5
498
330
418
100
AcDbEntity
  8
Make2D$可见线$普通线
100
AcDbVertex
100
AcDb2dVertex
 10
951.434742343582
 20
648.4632758910266
 30
0.0
  0
VERTEX
  5
499
330
418
100
AcDbEntity
  8
Make2D$可见线$普通线
100
AcDbVertex
100
AcDb2dVertex
 10
951.4291303015
 20
648.4594608755572
 30
0.0
  0
VERTEX
  5
49A
330
418
100
AcDbEntity
  8
Make2D$可见线$普通线
100
AcDbVertex
100
AcDb2dVertex
 10
951.4234225833982
 20
648.4557591313603
 30
0.0
  0
VERTEX
  5
49B
330
418
100
AcDbEntity
  8
Make2D$可见线$普通线
100
AcDbVertex
100
AcDb2dVertex
 10
951.4176233546565
 20
648.4521687820749
 30
0.0
  0
VERTEX
  5
49C
330
418
100
AcDbEntity
  8
Make2D$可见线$普通线
100
AcDbVertex
100
AcDb2dVertex
 10
951.411736780655
 20
648.4486879513398
 30
0.0
  0
VERTEX
  5
49D
330
418
100
AcDbEntity
  8
Make2D$可见线$普通线
100
AcDbVertex
100
AcDb2dVertex
 10
951.4057670267738
 20
648.4453147627944
 30
0.0
  0
VERTEX
  5
49E
330
418
100
AcDbEntity
  8
Make2D$可见线$普通线
100
AcDbVertex
100
AcDb2dVertex
 10
951.3997182583928
 20
648.4420473400774
 30
0.0
  0
VERTEX
  5
49F
330
418
100
AcDbEntity
  8
Make2D$可见线$普通线
100
AcDbVertex
100
AcDb2dVertex
 10
951.3935946408919
 20
648.4388838068278
 30
0.0
  0
VERTEX
  5
4A0
330
418
100
AcDbEntity
  8
Make2D$可见线$普通线
100
AcDbVertex
100
AcDb2dVertex
 10
951.3811395200511
 20
648.4328609032876
 30
0.0
  0
VERTEX
  5
4A1
330
418
100
AcDbEntity
  8
Make2D$可见线$普通线
100
AcDbVertex
100
AcDb2dVertex
 10
951.3684349872913
 20
648.4272310412861
 30
0.0
  0
VERTEX
  5
4A2
330
418
100
AcDbEntity
  8
Make2D$可见线$普通线
100
AcDbVertex
100
AcDb2dVertex
 10
951.3555143656527
 20
648.4219792099354
 30
0.0
  0
VERTEX
  5
4A3
330
418
100
AcDbEntity
  8
Make2D$可见线$普通线
100
AcDbVertex
100
AcDb2dVertex
 10
951.3424109781753
 20
648.4170903983481
 30
0.0
  0
VERTEX
  5
4A4
330
418
100
AcDbEntity
  8
Make2D$可见线$普通线
100
AcDbVertex
100
AcDb2dVertex
 10
951.3291581478993
 20
648.4125495956363
 30
0.0
  0
VERTEX
  5
4A5
330
418
100
AcDbEntity
  8
Make2D$可见线$普通线
100
AcDbVertex
100
AcDb2dVertex
 10
951.3157891978647
 20
648.4083417909122
 30
0.0
  0
VERTEX
  5
4A6
330
418
100
AcDbEntity
  8
Make2D$可见线$普通线
100
AcDbVertex
100
AcDb2dVertex
 10
951.3023374511115
 20
648.4044519732881
 30
0.0
  0
VERTEX
  5
4A7
330
418
100
AcDbEntity
  8
Make2D$可见线$普通线
100
AcDbVertex
100
AcDb2dVertex
 10
951.2888362306802
 20
648.4008651318766
 30
0.0
  0
VERTEX
  5
4A8
330
418
100
AcDbEntity
  8
Make2D$可见线$普通线
100
AcDbVertex
100
AcDb2dVertex
 10
951.2753188596107
 20
648.3975662557896
 30
0.0
  0
VERTEX
  5
4A9
330
418
100
AcDbEntity
  8
Make2D$可见线$普通线
100
AcDbVertex
100
AcDb2dVertex
 10
951.2618186609429
 20
648.3945403341397
 30
0.0
  0
VERTEX
  5
4AA
330
418
100
AcDbEntity
  8
Make2D$可见线$普通线
100
AcDbVertex
100
AcDb2dVertex
 10
951.2350030729734
 20
648.3892473106
 30
0.0
  0
VERTEX
  5
4AB
330
418
100
AcDbEntity
  8
Make2D$可见线$普通线
100
AcDbVertex
100
AcDb2dVertex
 10
951.2350030729734
 20
648.3487471808983
 30
0.0
  0
VERTEX
  5
4AC
330
418
100
AcDbEntity
  8
Make2D$可见线$普通线
100
AcDbVertex
100
AcDb2dVertex
 10
951.2740031797866
 20
648.3487471808982
 30
0.0
 42
0.1853556575324724
  0
VERTEX
  5
4AD
330
418
100
AcDbEntity
  8
Make2D$可见线$普通线
100
AcDbVertex
100
AcDb2dVertex
 10
951.598128120658
 20
648.463372220953
 30
0.0
 42
0.2251731774525913
  0
VERTEX
  5
4AE
330
418
100
AcDbEntity
  8
Make2D$可见线$普通线
100
AcDbVertex
100
AcDb2dVertex
 10
951.7310030729736
 20
648.7207472419344
 30
0.0
 42
0.2308610552028276
  0
VERTEX
  5
4AF
330
418
100
AcDbEntity
  8
Make2D$可见线$普通线
100
AcDbVertex
100
AcDb2dVertex
 10
951.6390031340095
 20
648.9111222171384
 30
0.0
 42
0.1818748687503244
  0
VERTEX
  5
4B0
330
418
100
AcDbEntity
  8
Make2D$可见线$普通线
100
AcDbVertex
100
AcDb2dVertex
 10
951.4120030882325
 20
648.9887471808983
 30
0.0
 42
0.4037502078751881
  0
VERTEX
  5
4B1
330
418
100
AcDbEntity
  8
Make2D$可见线$普通线
100
AcDbVertex
100
AcDb2dVertex
 10
950.7550030729731
 20
648.3834972228607
 30
0.0
 42
0.222913720134481
  0
VERTEX
  5
4B2
330
418
100
AcDbEntity
  8
Make2D$可见线$普通线
100
AcDbVertex
100
AcDb2dVertex
 10
950.9101281206578
 20
648.0238722285826
 30
0.0
 42
0.1878199106378437
  0
VERTEX
  5
4B3
330
418
100
AcDbEntity
  8
Make2D$可见线$普通线
100
AcDbVertex
100
AcDb2dVertex
 10
951.3262532446374
 20
647.8847471808982
 30
0.0
 42
0.4144248210919927
  0
VERTEX
  5
4B4
330
418
100
AcDbEntity
  8
Make2D$可见线$普通线
100
AcDbVertex
100
AcDb2dVertex
 10
952.226536529891
 20
648.7425924469171
 30
0.0
  0
VERTEX
  5
4B5
330
418
100
AcDbEntity
  8
Make2D$可见线$普通线
100
AcDbVertex
100
AcDb2dVertex
 10
952.2121280901398
 20
648.9413723125074
 30
0.0
  0
VERTEX
  5
4B6
330
418
100
AcDbEntity
  8
Make2D$可见线$普通线
100
AcDbVertex
100
AcDb2dVertex
 10
952.1145033094882
 20
649.2747473945246
 30
0.0
 42
-0.6067211618382371
  0
VERTEX
  5
4B7
330
418
100
AcDbEntity
  8
Make2D$可见线$普通线
100
AcDbVertex
100
AcDb2dVertex
 10
952.4355030806029
 20
649.2127471808982
 30
0.0
  0
VERTEX
  5
4B8
330
418
100
AcDbEntity
  8
Make2D$可见线$普通线
100
AcDbVertex
100
AcDb2dVertex
 10
952.4642532751556
 20
649.2177472571934
 30
0.0
  0
VERTEX
  5
4B9
330
418
100
AcDbEntity
  8
Make2D$可见线$普通线
100
AcDbVertex
100
AcDb2dVertex
 10
952.4887531607128
 20
649.2227473334885
 30
0.0
  0
VERTEX
  5
4BA
330
418
100
AcDbEntity
  8
Make2D$可见线$普通线
100
AcDbVertex
100
AcDb2dVertex
 10
952.5150030729734
 20
649.3907472114163
 30
0.0
  0
VERTEX
  5
4BB
330
418
100
AcDbEntity
  8
Make2D$可见线$普通线
100
AcDbVertex
100
AcDb2dVertex
 10
952.5115032637112
 20
649.4324973601919
 30
0.0
 42
0.2117166831395431
  0
VERTEX
  5
4BC
330
418
100
AcDbEntity
  8
Make2D$可见线$普通线
100
AcDbVertex
100
AcDb2dVertex
 10
952.0862531225654
 20
649.3419971999721
 30
0.0
 42
-0.1181802960641133
  0
VERTEX
  5
4BD
330
418
100
AcDbEntity
  8
Make2D$可见线$普通线
100
AcDbVertex
100
AcDb2dVertex
 10
952.0030030729736
 20
649.682247264823
 30
0.0
 42
-0.2476192485070985
  0
VERTEX
  5
4BE
330
418
100
AcDbEntity
  8
Make2D$可见线$普通线
100
AcDbVertex
100
AcDb2dVertex
 10
952.1470030729735
 20
650.0057473182296
 30
0.0
  0
SEQEND
  5
4BF
330
418
100
AcDbEntity
  8
Make2D$可见线$普通线
  0
POLYLINE
  5
4C0
330
1F
100
AcDbEntity
  8
Make2D$可见线$普通线
100
AcDb2dPolyline
 66
     1
 10
0.0
 20
0.0
 30
0.0
  0
VERTEX
  5
4C1
330
4C0
100
AcDbEntity
  8
Make2D$可见线$普通线
100
AcDbVertex
100
AcDb2dVertex
 10
953.5657532370079
 20
648.3299973830804
 30
0.0
  0
VERTEX
  5
4C2
330
4C0
100
AcDbEntity
  8
Make2D$可见线$普通线
100
AcDbVertex
100
AcDb2dVertex
 10
953.5550030729735
 20
648.2034974059688
 30
0.0
 42
0.1985394549947106
  0
VERTEX
  5
4C3
330
4C0
100
AcDbEntity
  8
Make2D$可见线$普通线
100
AcDbVertex
100
AcDb2dVertex
 10
953.6403781549906
 20
647.9747472114161
 30
0.0
 42
0.213223635882492
  0
VERTEX
  5
4C4
330
4C0
100
AcDbEntity
  8
Make2D$可见线$普通线
100
AcDbVertex
100
AcDb2dVertex
 10
953.8682532141194
 20
647.8847471808984
 30
0.0
 42
0.2100469645548184
  0
VERTEX
  5
4C5
330
4C0
100
AcDbEntity
  8
Make2D$可见线$普通线
100
AcDbVertex
100
AcDb2dVertex
 10
954.2536281130284
 20
648.0538721980648
 30
0.0
 42
0.2022223730321221
  0
VERTEX
  5
4C6
330
4C0
100
AcDbEntity
  8
Make2D$可见线$普通线
100
AcDbVertex
100
AcDb2dVertex
 10
954.4190030729735
 20
648.4279974135984
 30
0.0
 42
0.215708242616805
  0
VERTEX
  5
4C7
330
4C0
100
AcDbEntity
  8
Make2D$可见线$普通线
100
AcDbVertex
100
AcDb2dVertex
 10
954.3318780863252
 20
648.6521222934338
 30
0.0
 42
0.191166641471751
  0
VERTEX
  5
4C8
330
4C0
100
AcDbEntity
  8
Make2D$可见线$普通线
100
AcDbVertex
100
AcDb2dVertex
 10
954.0917532064899
 20
648.7327471808983
 30
0.0
 42
0.1433108084100378
  0
VERTEX
  5
4C9
330
4C0
100
AcDbEntity
  8
Make2D$可见线$普通线
100
AcDbVertex
100
AcDb2dVertex
 10
953.7857531759719
 20
648.6413722514714
 30
0.0
 42
0.0789937331436849
  0
VERTEX
  5
4CA
330
4C0
100
AcDbEntity
  8
Make2D$可见线$普通线
100
AcDbVertex
100
AcDb2dVertex
 10
953.4110030729735
 20
648.2367471808983
 30
0.0
  0
VERTEX
  5
4CB
330
4C0
100
AcDbEntity
  8
Make2D$可见线$普通线
100
AcDbVertex
100
AcDb2dVertex
 10
953.4690032255637
 20
648.1927472419344
 30
0.0
  0
VERTEX
  5
4CC
330
4C0
100
AcDbEntity
  8
Make2D$可见线$普通线
100
AcDbVertex
100
AcDb2dVertex
 10
953.5657532370079
 20
648.3299973830804
 30
0.0
  0
SEQEND
  5
4CD
330
4C0
100
AcDbEntity
  8
Make2D$可见线$普通线
  0
POLYLINE
  5
4CE
330
1F
100
AcDbEntity
  8
Make2D$可见线$普通线
100
AcDb2dPolyline
 66
     1
 10
0.0
 20
0.0
 30
0.0
  0
VERTEX
  5
4CF
330
4CE
100
AcDbEntity
  8
Make2D$可见线$普通线
100
AcDbVertex
100
AcDb2dVertex
 10
954.8757532064899
 20
648.9407471808984
 30
0.0
  0
VERTEX
  5
4D0
330
4CE
100
AcDbEntity
  8
Make2D$可见线$普通线
100
AcDbVertex
100
AcDb2dVertex
 10
954.9950030729734
 20
649.095247341118
 30
0.0
  0
VERTEX
  5
4D1
330
4CE
100
AcDbEntity
  8
Make2D$可见线$普通线
100
AcDbVertex
100
AcDb2dVertex
 10
954.8757532064899
 20
649.2447471808982
 30
0.0
  0
VERTEX
  5
4D2
330
4CE
100
AcDbEntity
  8
Make2D$可见线$普通线
100
AcDbVertex
100
AcDb2dVertex
 10
954.7550030729734
 20
649.095247341118
 30
0.0
  0
VERTEX
  5
4D3
330
4CE
100
AcDbEntity
  8
Make2D$可见线$普通线
100
AcDbVertex
100
AcDb2dVertex
 10
954.8757532064899
 20
648.9407471808984
 30
0.0
  0
SEQEND
  5
4D4
330
4CE
100
AcDbEntity
  8
Make2D$可见线$普通线
  0
POLYLINE
  5
4D5
330
1F
100
AcDbEntity
  8
Make2D$可见线$普通线
100
AcDb2dPolyline
 66
     1
 10
0.0
 20
0.0
 30
0.0
  0
VERTEX
  5
4D6
330
4D5
100
AcDbEntity
  8
Make2D$可见线$普通线
100
AcDbVertex
100
AcDb2dVertex
 10
954.7550030729735
 20
648.4447471808983
 30
0.0
  0
VERTEX
  5
4D7
330
4D5
100
AcDbEntity
  8
Make2D$可见线$普通线
100
AcDbVertex
100
AcDb2dVertex
 10
954.7550030729734
 20
648.119247341118
 30
0.0
 42
0.0918171095113658
  0
VERTEX
  5
4D8
330
4D5
100
AcDbEntity
  8
Make2D$可见线$普通线
100
AcDbVertex
100
AcDb2dVertex
 10
954.7797530844177
 20
647.936622240027
 30
0.0
 42
0.2800244047763409
  0
VERTEX
  5
4D9
330
4D5
100
AcDbEntity
  8
Make2D$可见线$普通线
100
AcDbVertex
100
AcDb2dVertex
 10
954.9002530920473
 20
647.8847471808982
 30
0.0
 42
0.1598460747174809
  0
VERTEX
  5
4DA
330
4D5
100
AcDbEntity
  8
Make2D$可见线$普通线
100
AcDbVertex
100
AcDb2dVertex
 10
955.0916282045825
 20
647.9677472266754
 30
0.0
 42
0.0808450722806534
  0
VERTEX
  5
4DB
330
4D5
100
AcDbEntity
  8
Make2D$可见线$普通线
100
AcDbVertex
100
AcDb2dVertex
 10
955.2990030729735
 20
648.2057471961573
 30
0.0
  0
VERTEX
  5
4DC
330
4D5
100
AcDbEntity
  8
Make2D$可见线$普通线
100
AcDbVertex
100
AcDb2dVertex
 10
955.2475032637112
 20
648.2527471808983
 30
0.0
 42
-0.1402907279963333
  0
VERTEX
  5
4DD
330
4D5
100
AcDbEntity
  8
Make2D$可见线$普通线
100
AcDbVertex
100
AcDb2dVertex
 10
954.9897532370079
 20
647.9967471808983
 30
0.0
 42
-0.3761612635762943
  0
VERTEX
  5
4DE
330
4D5
100
AcDbEntity
  8
Make2D$可见线$普通线
100
AcDbVertex
100
AcDb2dVertex
 10
954.9407530996767
 20
648.0312472190458
 30
0.0
 42
-0.0489973200871589
  0
VERTEX
  5
4DF
330
4D5
100
AcDbEntity
  8
Make2D$可见线$普通线
100
AcDbVertex
100
AcDb2dVertex
 10
954.9310030729735
 20
648.172997184713
 30
0.0
  0
VERTEX
  5
4E0
330
4D5
100
AcDbEntity
  8
Make2D$可见线$普通线
100
AcDbVertex
100
AcDb2dVertex
 10
954.9310030729735
 20
648.7487471808984
 30
0.0
  0
VERTEX
  5
4E1
330
4D5
100
AcDbEntity
  8
Make2D$可见线$普通线
100
AcDbVertex
100
AcDb2dVertex
 10
954.7550030729734
 20
648.6554972228606
 30
0.0
 42
-0.0977652175670287
  0
VERTEX
  5
4E2
330
4D5
100
AcDbEntity
  8
Make2D$可见线$普通线
100
AcDbVertex
100
AcDb2dVertex
 10
954.5470030729734
 20
648.2207471808983
 30
0.0
  0
VERTEX
  5
4E3
330
4D5
100
AcDbEntity
  8
Make2D$可见线$普通线
100
AcDbVertex
100
AcDb2dVertex
 10
954.6002531530834
 20
648.1767472419344
 30
0.0
 42
0.0730941478155184
  0
VERTEX
  5
4E4
330
4D5
100
AcDbEntity
  8
Make2D$可见线$普通线
100
AcDbVertex
100
AcDb2dVertex
 10
954.7550030729734
 20
648.4447471808983
 30
0.0
  0
SEQEND
  5
4E5
330
4D5
100
AcDbEntity
  8
Make2D$可见线$普通线
  0
POLYLINE
  5
4E6
330
1F
100
AcDbEntity
  8
Make2D$可见线$普通线
100
AcDb2dPolyline
 66
     1
 10
0.0
 20
0.0
 30
0.0
  0
VERTEX
  5
4E7
330
4E6
100
AcDbEntity
  8
Make2D$可见线$普通线
100
AcDbVertex
100
AcDb2dVertex
 10
955.8735032942293
 20
647.8527471808983
 30
0.0
 42
0.2379118279038338
  0
VERTEX
  5
4E8
330
4E6
100
AcDbEntity
  8
Make2D$可见线$普通线
100
AcDbVertex
100
AcDb2dVertex
 10
956.3870030729737
 20
648.1947472724524
 30
0.0
  0
VERTEX
  5
4E9
330
4E6
100
AcDbEntity
  8
Make2D$可见线$普通线
100
AcDbVertex
100
AcDb2dVertex
 10
956.3307531912308
 20
648.2367471808984
 30
0.0
 42
-0.1980384043403038
  0
VERTEX
  5
4EA
330
4E6
100
AcDbEntity
  8
Make2D$可见线$普通线
100
AcDbVertex
100
AcDb2dVertex
 10
955.8577532980441
 20
647.8929973067852
 30
0.0
  0
VERTEX
  5
4EB
330
4E6
100
AcDbEntity
  8
Make2D$可见线$普通线
100
AcDbVertex
100
AcDb2dVertex
 10
955.8735032942293
 20
647.8527471808983
 30
0.0
  0
SEQEND
  5
4EC
330
4E6
100
AcDbEntity
  8
Make2D$可见线$普通线
  0
POLYLINE
  5
4ED
330
1F
100
AcDbEntity
  8
Make2D$可见线$普通线
100
AcDb2dPolyline
 66
     1
 10
0.0
 20
0.0
 30
0.0
  0
VERTEX
  5
4EE
330
4ED
100
AcDbEntity
  8
Make2D$可见线$普通线
100
AcDbVertex
100
AcDb2dVertex
 10
939.8377795682347
 20
649.7087471808983
 30
0.0
 42
0.236022517300954
  0
VERTEX
  5
4EF
330
4ED
100
AcDbEntity
  8
Make2D$可见线$普通线
100
AcDbVertex
100
AcDb2dVertex
 10
939.5890294347184
 20
649.3149972762671
 30
0.0
 42
0.2100001261828061
  0
VERTEX
  5
4F0
330
4ED
100
AcDbEntity
  8
Make2D$可见线$普通线
100
AcDbVertex
100
AcDb2dVertex
 10
939.6727794919395
 20
649.1023722056943
 30
0.0
 42
0.2021687024688029
  0
VERTEX
  5
4F1
330
4ED
100
AcDbEntity
  8
Make2D$可见线$普通线
100
AcDbVertex
100
AcDb2dVertex
 10
939.888529610197
 20
649.0207471808985
 30
0.0
 42
0.2155064334705207
  0
VERTEX
  5
4F2
330
4ED
100
AcDbEntity
  8
Make2D$可见线$普通线
100
AcDbVertex
100
AcDb2dVertex
 10
940.373279438533
 20
649.2648722438418
 30
0.0
 42
0.1939903211124099
  0
VERTEX
  5
4F3
330
4ED
100
AcDbEntity
  8
Make2D$可见线$普通线
100
AcDbVertex
100
AcDb2dVertex
 10
940.5970294347184
 20
649.8172473716361
 30
0.0
 42
0.2126553999483505
  0
VERTEX
  5
4F4
330
4ED
100
AcDbEntity
  8
Make2D$可见线$普通线
100
AcDbVertex
100
AcDb2dVertex
 10
940.4695294423478
 20
650.1479972915263
 30
0.0
 42
0.1957064698478321
  0
VERTEX
  5
4F5
330
4ED
100
AcDbEntity
  8
Make2D$可见线$普通线
100
AcDbVertex
100
AcDb2dVertex
 10
940.1242795453462
 20
650.2687471808985
 30
0.0
 42
0.1495497568746542
  0
VERTEX
  5
4F6
330
4ED
100
AcDbEntity
  8
Make2D$可见线$普通线
100
AcDbVertex
100
AcDb2dVertex
 10
939.5527393511626
 20
650.0796309811282
 30
0.0
 42
0.1248577886578435
  0
VERTEX
  5
4F7
330
4ED
100
AcDbEntity
  8
Make2D$可见线$普通线
100
AcDbVertex
100
AcDb2dVertex
 10
939.0510295262724
 20
649.520247234305
 30
0.0
 42
0.1412849231580975
  0
VERTEX
  5
4F8
330
4ED
100
AcDbEntity
  8
Make2D$可见线$普通线
100
AcDbVertex
100
AcDb2dVertex
 10
938.8716170110462
 20
648.7425924469171
 30
0.0
 42
0.3222772863428611
  0
VERTEX
  5
4F9
330
4ED
100
AcDbEntity
  8
Make2D$可见线$普通线
100
AcDbVertex
100
AcDb2dVertex
 10
939.4825394744264
 20
647.928817261218
 30
0.0
 42
0.073445071211707
  0
VERTEX
  5
4FA
330
4ED
100
AcDbEntity
  8
Make2D$可见线$普通线
100
AcDbVertex
100
AcDb2dVertex
 10
939.8027795224576
 20
647.8847471808983
 30
0.0
 42
0.1121989264265888
  0
VERTEX
  5
4FB
330
4ED
100
AcDbEntity
  8
Make2D$可见线$普通线
100
AcDbVertex
100
AcDb2dVertex
 10
940.2336546273634
 20
647.9679972304901
 30
0.0
 42
0.1305989756231812
  0
VERTEX
  5
4FC
330
4ED
100
AcDbEntity
  8
Make2D$可见线$普通线
100
AcDbVertex
100
AcDb2dVertex
 10
940.5330294347183
 20
648.2427472724523
 30
0.0
  0
VERTEX
  5
4FD
330
4ED
100
AcDbEntity
  8
Make2D$可见线$普通线
100
AcDbVertex
100
AcDb2dVertex
 10
940.4750295262726
 20
648.2847471808982
 30
0.0
 42
-0.12537681354562
  0
VERTEX
  5
4FE
330
4ED
100
AcDbEntity
  8
Make2D$可见线$普通线
100
AcDbVertex
100
AcDb2dVertex
 10
940.2496545052912
 20
648.0626222095091
 30
0.0
 42
-0.1215611017527063
  0
VERTEX
  5
4FF
330
4ED
100
AcDbEntity
  8
Make2D$可见线$普通线
100
AcDbVertex
100
AcDb2dVertex
 10
939.9400296636036
 20
647.9967471808983
 30
0.0
 42
-0.1676244003868066
  0
VERTEX
  5
500
330
4ED
100
AcDbEntity
  8
Make2D$可见线$普通线
100
AcDbVertex
100
AcDb2dVertex
 10
939.4631548557643
 20
648.1512211950774
 30
0.0
 42
-0.0554519237684068
  0
VERTEX
  5
501
330
4ED
100
AcDbEntity
  8
Make2D$可见线$普通线
100
AcDbVertex
100
AcDb2dVertex
 10
939.3217795071987
 20
648.2863722056943
 30
0.0
 42
-0.1272113715182227
  0
VERTEX
  5
502
330
4ED
100
AcDbEntity
  8
Make2D$可见线$普通线
100
AcDbVertex
100
AcDb2dVertex
 10
939.1030654401648
 20
648.7425924469171
 30
0.0
 42
-0.0508350023154275
  0
VERTEX
  5
503
330
4ED
100
AcDbEntity
  8
Make2D$可见线$普通线
100
AcDbVertex
100
AcDb2dVertex
 10
939.0770294347182
 20
649.0107472724525
 30
0.0
 42
-0.1757209423417379
  0
VERTEX
  5
504
330
4ED
100
AcDbEntity
  8
Make2D$可见线$普通线
100
AcDbVertex
100
AcDb2dVertex
 10
939.3480295415316
 20
649.8198722896188
 30
0.0
 42
-0.0629690698651222
  0
VERTEX
  5
505
330
4ED
100
AcDbEntity
  8
Make2D$可见线$普通线
100
AcDbVertex
100
AcDb2dVertex
 10
939.5413675389117
 20
650.0098842539091
 30
0.0
 42
-0.1658297418363627
  0
VERTEX
  5
506
330
4ED
100
AcDbEntity
  8
Make2D$可见线$普通线
100
AcDbVertex
100
AcDb2dVertex
 10
939.9697796292709
 20
650.1567471808983
 30
0.0
 42
-0.2098636572137984
  0
VERTEX
  5
507
330
4ED
100
AcDbEntity
  8
Make2D$可见线$普通线
100
AcDbVertex
100
AcDb2dVertex
 10
940.308529549161
 20
650.0244972381197
 30
0.0
 42
-0.20096620609237
  0
VERTEX
  5
508
330
4ED
100
AcDbEntity
  8
Make2D$可见线$普通线
100
AcDbVertex
100
AcDb2dVertex
 10
940.4370294347184
 20
649.6747473945246
 30
0.0
 42
-0.1807464254289094
  0
VERTEX
  5
509
330
4ED
100
AcDbEntity
  8
Make2D$可见线$普通线
100
AcDbVertex
100
AcDb2dVertex
 10
940.3046544900322
 20
649.2913722819894
 30
0.0
  0
VERTEX
  5
50A
330
4ED
100
AcDbEntity
  8
Make2D$可见线$普通线
100
AcDbVertex
100
AcDb2dVertex
 10
940.2981888788801
 20
649.2828337896993
 30
0.0
  0
VERTEX
  5
50B
330
4ED
100
AcDbEntity
  8
Make2D$可见线$普通线
100
AcDbVertex
100
AcDb2dVertex
 10
940.2914504085778
 20
649.274426718294
 30
0.0
  0
VERTEX
  5
50C
330
4ED
100
AcDbEntity
  8
Make2D$可见线$普通线
100
AcDbVertex
100
AcDb2dVertex
 10
940.2844424340323
 20
649.2661635041162
 30
0.0
  0
VERTEX
  5
50D
330
4ED
100
AcDbEntity
  8
Make2D$可见线$普通线
100
AcDbVertex
100
AcDb2dVertex
 10
940.2771690393413
 20
649.2580565161579
 30
0.0
  0
VERTEX
  5
50E
330
4ED
100
AcDbEntity
  8
Make2D$可见线$普通线
100
AcDbVertex
100
AcDb2dVertex
 10
940.2696350411942
 20
649.25011800401
 30
0.0
  0
VERTEX
  5
50F
330
4ED
100
AcDbEntity
  8
Make2D$可见线$普通线
100
AcDbVertex
100
AcDb2dVertex
 10
940.2618459879016
 20
649.2423600448869
 30
0.0
  0
VERTEX
  5
510
330
4ED
100
AcDbEntity
  8
Make2D$可见线$普通线
100
AcDbVertex
100
AcDb2dVertex
 10
940.2538081539064
 20
649.2347944901504
 30
0.0
  0
VERTEX
  5
511
330
4ED
100
AcDbEntity
  8
Make2D$可见线$普通线
100
AcDbVertex
100
AcDb2dVertex
 10
940.2455285296726
 20
649.227432911772
 30
0.0
  0
VERTEX
  5
512
330
4ED
100
AcDbEntity
  8
Make2D$可见线$普通线
100
AcDbVertex
100
AcDb2dVertex
 10
940.2370148068999
 20
649.2202865492019
 30
0.0
  0
VERTEX
  5
513
330
4ED
100
AcDbEntity
  8
Make2D$可见线$普通线
100
AcDbVertex
100
AcDb2dVertex
 10
940.228275359065
 20
649.2133662571101
 30
0.0
  0
VERTEX
  5
514
330
4ED
100
AcDbEntity
  8
Make2D$可见线$普通线
100
AcDbVertex
100
AcDb2dVertex
 10
940.2193192173431
 20
649.2066824544812
 30
0.0
  0
VERTEX
  5
515
330
4ED
100
AcDbEntity
  8
Make2D$可见线$普通线
100
AcDbVertex
100
AcDb2dVertex
 10
940.2101560420163
 20
649.2002450755294
 30
0.0
  0
VERTEX
  5
516
330
4ED
100
AcDbEntity
  8
Make2D$可见线$普通线
100
AcDbVertex
100
AcDb2dVertex
 10
940.2007960895379
 20
649.1940635229032
 30
0.0
  0
VERTEX
  5
517
330
4ED
100
AcDbEntity
  8
Make2D$可见线$普通线
100
AcDbVertex
100
AcDb2dVertex
 10
940.1912501754674
 20
649.188146623619
 30
0.0
  0
VERTEX
  5
518
330
4ED
100
AcDbEntity
  8
Make2D$可见线$普通线
100
AcDbVertex
100
AcDb2dVertex
 10
940.1815296335438
 20
649.1825025881486
 30
0.0
  0
VERTEX
  5
519
330
4ED
100
AcDbEntity
  8
Make2D$可见线$普通线
100
AcDbVertex
100
AcDb2dVertex
 10
940.1716462712221
 20
649.1771389730472
 30
0.0
  0
VERTEX
  5
51A
330
4ED
100
AcDbEntity
  8
Make2D$可见线$普通线
100
AcDbVertex
100
AcDb2dVertex
 10
940.1616123220277
 20
649.1720626474756
 30
0.0
  0
VERTEX
  5
51B
330
4ED
100
AcDbEntity
  8
Make2D$可见线$普通线
100
AcDbVertex
100
AcDb2dVertex
 10
940.1514403951385
 20
649.1672797639274
 30
0.0
  0
VERTEX
  5
51C
330
4ED
100
AcDbEntity
  8
Make2D$可见线$普通线
100
AcDbVertex
100
AcDb2dVertex
 10
940.1411434226233
 20
649.1627957334189
 30
0.0
  0
VERTEX
  5
51D
330
4ED
100
AcDbEntity
  8
Make2D$可见线$普通线
100
AcDbVertex
100
AcDb2dVertex
 10
940.1307346048053
 20
649.1586152053545
 30
0.0
  0
VERTEX
  5
51E
330
4ED
100
AcDbEntity
  8
Make2D$可见线$普通线
100
AcDbVertex
100
AcDb2dVertex
 10
940.1202273542302
 20
649.1547420522215
 30
0.0
  0
VERTEX
  5
51F
330
4ED
100
AcDbEntity
  8
Make2D$可见线$普通线
100
AcDbVertex
100
AcDb2dVertex
 10
940.1096352387358
 20
649.151179359211
 30
0.0
  0
VERTEX
  5
520
330
4ED
100
AcDbEntity
  8
Make2D$可见线$普通线
100
AcDbVertex
100
AcDb2dVertex
 10
940.0989719241264
 20
649.147929418807
 30
0.0
  0
VERTEX
  5
521
330
4ED
100
AcDbEntity
  8
Make2D$可见线$普通线
100
AcDbVertex
100
AcDb2dVertex
 10
940.0882511169478
 20
649.1449937303231
 30
0.0
  0
VERTEX
  5
522
330
4ED
100
AcDbEntity
  8
Make2D$可见线$普通线
100
AcDbVertex
100
AcDb2dVertex
 10
940.0774865078572
 20
649.1423730043172
 30
0.0
  0
VERTEX
  5
523
330
4ED
100
AcDbEntity
  8
Make2D$可见线$普通线
100
AcDbVertex
100
AcDb2dVertex
 10
940.0666917160582
 20
649.1400671717508
 30
0.0
  0
VERTEX
  5
524
330
4ED
100
AcDbEntity
  8
Make2D$可见线$普通线
100
AcDbVertex
100
AcDb2dVertex
 10
940.0558802352551
 20
649.138075397719
 30
0.0
  0
VERTEX
  5
525
330
4ED
100
AcDbEntity
  8
Make2D$可见线$普通线
100
AcDbVertex
100
AcDb2dVertex
 10
940.0450653815454
 20
649.136396099519
 30
0.0
  0
VERTEX
  5
526
330
4ED
100
AcDbEntity
  8
Make2D$可见线$普通线
100
AcDbVertex
100
AcDb2dVertex
 10
940.0342602436405
 20
649.135026968795
 30
0.0
  0
VERTEX
  5
527
330
4ED
100
AcDbEntity
  8
Make2D$可见线$普通线
100
AcDbVertex
100
AcDb2dVertex
 10
940.0234776357632
 20
649.1339649974485
 30
0.0
  0
VERTEX
  5
528
330
4ED
100
AcDbEntity
  8
Make2D$可见线$普通线
100
AcDbVertex
100
AcDb2dVertex
 10
940.0127300535311
 20
649.1332065069798
 30
0.0
  0
VERTEX
  5
529
330
4ED
100
AcDbEntity
  8
Make2D$可见线$普通线
100
AcDbVertex
100
AcDb2dVertex
 10
940.0020296330856
 20
649.1327471808984
 30
0.0
  0
VERTEX
  5
52A
330
4ED
100
AcDbEntity
  8
Make2D$可见线$普通线
100
AcDbVertex
100
AcDb2dVertex
 10
939.995911187162
 20
649.1326360963927
 30
0.0
  0
VERTEX
  5
52B
330
4ED
100
AcDbEntity
  8
Make2D$可见线$普通线
100
AcDbVertex
100
AcDb2dVertex
 10
939.989761809266
 20
649.132678764278
 30
0.0
  0
VERTEX
  5
52C
330
4ED
100
AcDbEntity
  8
Make2D$可见线$普通线
100
AcDbVertex
100
AcDb2dVertex
 10
939.9835871411124
 20
649.1328773486074
 30
0.0
  0
VERTEX
  5
52D
330
4ED
100
AcDbEntity
  8
Make2D$可见线$普通线
100
AcDbVertex
100
AcDb2dVertex
 10
939.97739297933
 20
649.1332337437012
 30
0.0
  0
VERTEX
  5
52E
330
4ED
100
AcDbEntity
  8
Make2D$可见线$普通线
100
AcDbVertex
100
AcDb2dVertex
 10
939.9711852596644
 20
649.1337495617934
 30
0.0
  0
VERTEX
  5
52F
330
4ED
100
AcDbEntity
  8
Make2D$可见线$普通线
100
AcDbVertex
100
AcDb2dVertex
 10
939.9649700400726
 20
649.13442612177
 30
0.0
  0
VERTEX
  5
530
330
4ED
100
AcDbEntity
  8
Make2D$可见线$普通线
100
AcDbVertex
100
AcDb2dVertex
 10
939.9587534827979
 20
649.1352644391083
 30
0.0
  0
VERTEX
  5
531
330
4ED
100
AcDbEntity
  8
Make2D$可见线$普通线
100
AcDbVertex
100
AcDb2dVertex
 10
939.9525418355212
 20
649.1362652171196
 30
0.0
  0
VERTEX
  5
532
330
4ED
100
AcDbEntity
  8
Make2D$可见线$普通线
100
AcDbVertex
100
AcDb2dVertex
 10
939.9463414117023
 20
649.1374288395939
 30
0.0
  0
VERTEX
  5
533
330
4ED
100
AcDbEntity
  8
Make2D$可见线$普通线
100
AcDbVertex
100
AcDb2dVertex
 10
939.9401585702276
 20
649.1387553649244
 30
0.0
  0
VERTEX
  5
534
330
4ED
100
AcDbEntity
  8
Make2D$可见线$普通线
100
AcDbVertex
100
AcDb2dVertex
 10
939.9339996945001
 20
649.140244521787
 30
0.0
  0
VERTEX
  5
535
330
4ED
100
AcDbEntity
  8
Make2D$可见线$普通线
100
AcDbVertex
100
AcDb2dVertex
 10
939.9278711711065
 20
649.1418957064329
 30
0.0
  0
VERTEX
  5
536
330
4ED
100
AcDbEntity
  8
Make2D$可见线$普通线
100
AcDbVertex
100
AcDb2dVertex
 10
939.9217793682077
 20
649.1437079816357
 30
0.0
  0
VERTEX
  5
537
330
4ED
100
AcDbEntity
  8
Make2D$可见线$普通线
100
AcDbVertex
100
AcDb2dVertex
 10
939.9157306138035
 20
649.145680077326
 30
0.0
  0
VERTEX
  5
538
330
4ED
100
AcDbEntity
  8
Make2D$可见线$普通线
100
AcDbVertex
100
AcDb2dVertex
 10
939.9097311740255
 20
649.147810392924
 30
0.0
  0
VERTEX
  5
539
330
4ED
100
AcDbEntity
  8
Make2D$可见线$普通线
100
AcDbVertex
100
AcDb2dVertex
 10
939.9037872316111
 20
649.1500970013691
 30
0.0
  0
VERTEX
  5
53A
330
4ED
100
AcDbEntity
  8
Make2D$可见线$普通线
100
AcDbVertex
100
AcDb2dVertex
 10
939.8979048647143
 20
649.1525376548266
 30
0.0
  0
VERTEX
  5
53B
330
4ED
100
AcDbEntity
  8
Make2D$可见线$普通线
100
AcDbVertex
100
AcDb2dVertex
 10
939.8920900262069
 20
649.1551297920392
 30
0.0
  0
VERTEX
  5
53C
330
4ED
100
AcDbEntity
  8
Make2D$可见线$普通线
100
AcDbVertex
100
AcDb2dVertex
 10
939.8863485236142
 20
649.1578705472693
 30
0.0
  0
VERTEX
  5
53D
330
4ED
100
AcDbEntity
  8
Make2D$可见线$普通线
100
AcDbVertex
100
AcDb2dVertex
 10
939.880685999831
 20
649.1607567607708
 30
0.0
  0
VERTEX
  5
53E
330
4ED
100
AcDbEntity
  8
Make2D$可见线$普通线
100
AcDbVertex
100
AcDb2dVertex
 10
939.87510791475
 20
649.1637849907077
 30
0.0
  0
VERTEX
  5
53F
330
4ED
100
AcDbEntity
  8
Make2D$可见线$普通线
100
AcDbVertex
100
AcDb2dVertex
 10
939.8696195279263
 20
649.1669515264265
 30
0.0
  0
VERTEX
  5
540
330
4ED
100
AcDbEntity
  8
Make2D$可见线$普通线
100
AcDbVertex
100
AcDb2dVertex
 10
939.864225882394
 20
649.1702524029806
 30
0.0
  0
VERTEX
  5
541
330
4ED
100
AcDbEntity
  8
Make2D$可见线$普通线
100
AcDbVertex
100
AcDb2dVertex
 10
939.858931789737
 20
649.1736834167866
 30
0.0
  0
VERTEX
  5
542
330
4ED
100
AcDbEntity
  8
Make2D$可见线$普通线
100
AcDbVertex
100
AcDb2dVertex
 10
939.8537418165007
 20
649.1772401422924
 30
0.0
  0
VERTEX
  5
543
330
4ED
100
AcDbEntity
  8
Make2D$可见线$普通线
100
AcDbVertex
100
AcDb2dVertex
 10
939.8486602720197
 20
649.1809179495195
 30
0.0
  0
VERTEX
  5
544
330
4ED
100
AcDbEntity
  8
Make2D$可见线$普通线
100
AcDbVertex
100
AcDb2dVertex
 10
939.8436911977262
 20
649.1847120223497
 30
0.0
  0
VERTEX
  5
545
330
4ED
100
AcDbEntity
  8
Make2D$可见线$普通线
100
AcDbVertex
100
AcDb2dVertex
 10
939.8388383579751
 20
649.1886173774044
 30
0.0
  0
VERTEX
  5
546
330
4ED
100
AcDbEntity
  8
Make2D$可见线$普通线
100
AcDbVertex
100
AcDb2dVertex
 10
939.8341052324274
 20
649.1926288833806
 30
0.0
  0
VERTEX
  5
547
330
4ED
100
AcDbEntity
  8
Make2D$可见线$普通线
100
AcDbVertex
100
AcDb2dVertex
 10
939.8294950099973
 20
649.1967412806971
 30
0.0
  0
VERTEX
  5
548
330
4ED
100
AcDbEntity
  8
Make2D$可见线$普通线
100
AcDbVertex
100
AcDb2dVertex
 10
939.8250105843695
 20
649.2009492013052
 30
0.0
  0
VERTEX
  5
549
330
4ED
100
AcDbEntity
  8
Make2D$可见线$普通线
100
AcDbVertex
100
AcDb2dVertex
 10
939.8206545510682
 20
649.2052471885279
 30
0.0
  0
VERTEX
  5
54A
330
4ED
100
AcDbEntity
  8
Make2D$可见线$普通线
100
AcDbVertex
100
AcDb2dVertex
 10
939.8163556525301
 20
649.2097854081394
 30
0.0
  0
VERTEX
  5
54B
330
4ED
100
AcDbEntity
  8
Make2D$可见线$普通线
100
AcDbVertex
100
AcDb2dVertex
 10
939.8121501194647
 20
649.2144502432235
 30
0.0
  0
VERTEX
  5
54C
330
4ED
100
AcDbEntity
  8
Make2D$可见线$普通线
100
AcDbVertex
100
AcDb2dVertex
 10
939.8080432560158
 20
649.2192389947245
 30
0.0
  0
VERTEX
  5
54D
330
4ED
100
AcDbEntity
  8
Make2D$可见线$普通线
100
AcDbVertex
100
AcDb2dVertex
 10
939.8040402721371
 20
649.2241486779251
 30
0.0
  0
VERTEX
  5
54E
330
4ED
100
AcDbEntity
  8
Make2D$可见线$普通线
100
AcDbVertex
100
AcDb2dVertex
 10
939.800146264859
 20
649.2291760258312
 30
0.0
  0
VERTEX
  5
54F
330
4ED
100
AcDbEntity
  8
Make2D$可见线$普通线
100
AcDbVertex
100
AcDb2dVertex
 10
939.7963661996284
 20
649.2343174940052
 30
0.0
  0
VERTEX
  5
550
330
4ED
100
AcDbEntity
  8
Make2D$可见线$普通线
100
AcDbVertex
100
AcDb2dVertex
 10
939.7927048918525
 20
649.2395692668528
 30
0.0
  0
VERTEX
  5
551
330
4ED
100
AcDbEntity
  8
Make2D$可见线$普通线
100
AcDbVertex
100
AcDb2dVertex
 10
939.789166988777
 20
649.2449272653596
 30
0.0
  0
VERTEX
  5
552
330
4ED
100
AcDbEntity
  8
Make2D$可见线$普通线
100
AcDbVertex
100
AcDb2dVertex
 10
939.7857569518286
 20
649.2503871562585
 30
0.0
  0
VERTEX
  5
553
330
4ED
100
AcDbEntity
  8
Make2D$可见线$普通线
100
AcDbVertex
100
AcDb2dVertex
 10
939.7824790395539
 20
649.255944362599
 30
0.0
  0
VERTEX
  5
554
330
4ED
100
AcDbEntity
  8
Make2D$可见线$普通线
100
AcDbVertex
100
AcDb2dVertex
 10
939.7793372912821
 20
649.2615940756689
 30
0.0
  0
VERTEX
  5
555
330
4ED
100
AcDbEntity
  8
Make2D$可见线$普通线
100
AcDbVertex
100
AcDb2dVertex
 10
939.7763355116365
 20
649.2673312682148
 30
0.0
  0
VERTEX
  5
556
330
4ED
100
AcDbEntity
  8
Make2D$可见线$普通线
100
AcDbVertex
100
AcDb2dVertex
 10
939.7734772560113
 20
649.2731507088861
 30
0.0
  0
VERTEX
  5
557
330
4ED
100
AcDbEntity
  8
Make2D$可见线$普通线
100
AcDbVertex
100
AcDb2dVertex
 10
939.7707658171291
 20
649.2790469778204
 30
0.0
  0
VERTEX
  5
558
330
4ED
100
AcDbEntity
  8
Make2D$可见线$普通线
100
AcDbVertex
100
AcDb2dVertex
 10
939.7682042127794
 20
649.2850144832768
 30
0.0
  0
VERTEX
  5
559
330
4ED
100
AcDbEntity
  8
Make2D$可见线$普通线
100
AcDbVertex
100
AcDb2dVertex
 10
939.765795174832
 20
649.2910474792069
 30
0.0
  0
VERTEX
  5
55A
330
4ED
100
AcDbEntity
  8
Make2D$可见线$普通线
100
AcDbVertex
100
AcDb2dVertex
 10
939.7635411396105
 20
649.2971400836537
 30
0.0
  0
VERTEX
  5
55B
330
4ED
100
AcDbEntity
  8
Make2D$可见线$普通线
100
AcDbVertex
100
AcDb2dVertex
 10
939.7614442396936
 20
649.3032862978507
 30
0.0
  0
VERTEX
  5
55C
330
4ED
100
AcDbEntity
  8
Make2D$可见线$普通线
100
AcDbVertex
100
AcDb2dVertex
 10
939.7595062972039
 20
649.3094800258934
 30
0.0
  0
VERTEX
  5
55D
330
4ED
100
AcDbEntity
  8
Make2D$可见线$普通线
100
AcDbVertex
100
AcDb2dVertex
 10
939.7577288186264
 20
649.3157150948466
 30
0.0
  0
VERTEX
  5
55E
330
4ED
100
AcDbEntity
  8
Make2D$可见线$普通线
100
AcDbVertex
100
AcDb2dVertex
 10
939.7561129911908
 20
649.3219852751507
 30
0.0
  0
VERTEX
  5
55F
330
4ED
100
AcDbEntity
  8
Make2D$可见线$普通线
100
AcDbVertex
100
AcDb2dVertex
 10
939.7546596808277
 20
649.3282843011838
 30
0.0
  0
VERTEX
  5
560
330
4ED
100
AcDbEntity
  8
Make2D$可见线$普通线
100
AcDbVertex
100
AcDb2dVertex
 10
939.7533694317065
 20
649.3346058918378
 30
0.0
  0
VERTEX
  5
561
330
4ED
100
AcDbEntity
  8
Make2D$可见线$普通线
100
AcDbVertex
100
AcDb2dVertex
 10
939.7522424673364
 20
649.3409437709726
 30
0.0
  0
VERTEX
  5
562
330
4ED
100
AcDbEntity
  8
Make2D$可见线$普通线
100
AcDbVertex
100
AcDb2dVertex
 10
939.7512786932069
 20
649.347291687607
 30
0.0
  0
VERTEX
  5
563
330
4ED
100
AcDbEntity
  8
Make2D$可见线$普通线
100
AcDbVertex
100
AcDb2dVertex
 10
939.7504777009269
 20
649.3536434357161
 30
0.0
  0
VERTEX
  5
564
330
4ED
100
AcDbEntity
  8
Make2D$可见线$普通线
100
AcDbVertex
100
AcDb2dVertex
 10
939.7498387738085
 20
649.3599928735077
 30
0.0
  0
VERTEX
  5
565
330
4ED
100
AcDbEntity
  8
Make2D$可见线$普通线
100
AcDbVertex
100
AcDb2dVertex
 10
939.7493608938307
 20
649.3663339420593
 30
0.0
  0
VERTEX
  5
566
330
4ED
100
AcDbEntity
  8
Make2D$可见线$普通线
100
AcDbVertex
100
AcDb2dVertex
 10
939.7490427499098
 20
649.3726606832037
 30
0.0
  0
VERTEX
  5
567
330
4ED
100
AcDbEntity
  8
Make2D$可见线$普通线
100
AcDbVertex
100
AcDb2dVertex
 10
939.7488827473858
 20
649.3789672565616
 30
0.0
  0
VERTEX
  5
568
330
4ED
100
AcDbEntity
  8
Make2D$可见线$普通线
100
AcDbVertex
100
AcDb2dVertex
 10
939.7488790186369
 20
649.3852479556327
 30
0.0
  0
VERTEX
  5
569
330
4ED
100
AcDbEntity
  8
Make2D$可见线$普通线
100
AcDbVertex
100
AcDb2dVertex
 10
939.7490294347183
 20
649.3914972228607
 30
0.0
 42
-0.2626149661882295
  0
VERTEX
  5
56A
330
4ED
100
AcDbEntity
  8
Make2D$可见线$普通线
100
AcDbVertex
100
AcDb2dVertex
 10
939.8770294347183
 20
649.6629972152311
 30
0.0
  0
VERTEX
  5
56B
330
4ED
100
AcDbEntity
  8
Make2D$可见线$普通线
100
AcDbVertex
100
AcDb2dVertex
 10
939.8377795682347
 20
649.7087471808983
 30
0.0
  0
SEQEND
  5
56C
330
4ED
100
AcDbEntity
  8
Make2D$可见线$普通线
  0
POLYLINE
  5
56D
330
1F
100
AcDbEntity
  8
Make2D$可见线$普通线
100
AcDb2dPolyline
 66
     1
 10
0.0
 20
0.0
 30
0.0
  0
VERTEX
  5
56E
330
56D
100
AcDbEntity
  8
Make2D$可见线$普通线
100
AcDbVertex
100
AcDb2dVertex
 10
940.8370294347183
 20
647.9667472114163
 30
0.0
  0
VERTEX
  5
56F
330
56D
100
AcDbEntity
  8
Make2D$可见线$普通线
100
AcDbVertex
100
AcDb2dVertex
 10
940.8370294347183
 20
648.2389972152312
 30
0.0
 42
-0.0757485220965151
  0
VERTEX
  5
570
330
56D
100
AcDbEntity
  8
Make2D$可见线$普通线
100
AcDbVertex
100
AcDb2dVertex
 10
940.8935294423478
 20
648.3837472266754
 30
0.0
 42
-0.091668584225596
  0
VERTEX
  5
571
330
56D
100
AcDbEntity
  8
Make2D$可见线$普通线
100
AcDbVertex
100
AcDb2dVertex
 10
941.0217794461626
 20
648.5571221866205
 30
0.0
 42
-0.1780289220001418
  0
VERTEX
  5
572
330
56D
100
AcDbEntity
  8
Make2D$可见线$普通线
100
AcDbVertex
100
AcDb2dVertex
 10
941.1562796674184
 20
648.6207471808984
 30
0.0
 42
-0.4804882816071128
  0
VERTEX
  5
573
330
56D
100
AcDbEntity
  8
Make2D$可见线$普通线
100
AcDbVertex
100
AcDb2dVertex
 10
941.237029434718
 20
648.5177473182296
 30
0.0
  0
VERTEX
  5
574
330
56D
100
AcDbEntity
  8
Make2D$可见线$普通线
100
AcDbVertex
100
AcDb2dVertex
 10
941.2370294347182
 20
648.1217473792657
 30
0.0
 42
0.1147032055739836
  0
VERTEX
  5
575
330
56D
100
AcDbEntity
  8
Make2D$可见线$普通线
100
AcDbVertex
100
AcDb2dVertex
 10
941.2682795453462
 20
647.9299972610082
 30
0.0
 42
0.2612293385933402
  0
VERTEX
  5
576
330
56D
100
AcDbEntity
  8
Make2D$可见线$普通线
100
AcDbVertex
100
AcDb2dVertex
 10
941.3600296025676
 20
647.8847471808983
 30
0.0
 42
0.2255291826018394
  0
VERTEX
  5
577
330
56D
100
AcDbEntity
  8
Make2D$可见线$普通线
100
AcDbVertex
100
AcDb2dVertex
 10
941.7810294347184
 20
648.2057471961572
 30
0.0
  0
VERTEX
  5
578
330
56D
100
AcDbEntity
  8
Make2D$可见线$普通线
100
AcDbVertex
100
AcDb2dVertex
 10
941.7252795606053
 20
648.2527471808983
 30
0.0
  0
VERTEX
  5
579
330
56D
100
AcDbEntity
  8
Make2D$可见线$普通线
100
AcDbVertex
100
AcDb2dVertex
 10
941.7068709663217
 20
648.2247927793949
 30
0.0
  0
VERTEX
  5
57A
330
56D
100
AcDbEntity
  8
Make2D$可见线$普通线
100
AcDbVertex
100
AcDb2dVertex
 10
941.6814770571535
 20
648.1878345909342
 30
0.0
  0
VERTEX
  5
57B
330
56D
100
AcDbEntity
  8
Make2D$可见线$普通线
100
AcDbVertex
100
AcDb2dVertex
 10
941.6666215888748
 20
648.1672053112313
 30
0.0
  0
VERTEX
  5
57C
330
56D
100
AcDbEntity
  8
Make2D$可见线$普通线
100
AcDbVertex
100
AcDb2dVertex
 10
941.6505729671396
 20
648.1457965663526
 30
0.0
  0
VERTEX
  5
57D
330
56D
100
AcDbEntity
  8
Make2D$可见线$普通线
100
AcDbVertex
100
AcDb2dVertex
 10
941.6335155837027
 20
648.1240988501527
 30
0.0
  0
VERTEX
  5
57E
330
56D
100
AcDbEntity
  8
Make2D$可见线$普通线
100
AcDbVertex
100
AcDb2dVertex
 10
941.615633830319
 20
648.1026026564859
 30
0.0
  0
VERTEX
  5
57F
330
56D
100
AcDbEntity
  8
Make2D$可见线$普通线
100
AcDbVertex
100
AcDb2dVertex
 10
941.6064414373205
 20
648.0920834099322
 30
0.0
  0
VERTEX
  5
580
330
56D
100
AcDbEntity
  8
Make2D$可见线$普通线
100
AcDbVertex
100
AcDb2dVertex
 10
941.5971120987435
 20
648.0817984792072
 30
0.0
  0
VERTEX
  5
581
330
56D
100
AcDbEntity
  8
Make2D$可见线$普通线
100
AcDbVertex
100
AcDb2dVertex
 10
941.5876688635573
 20
648.0718091760428
 30
0.0
  0
VERTEX
  5
582
330
56D
100
AcDbEntity
  8
Make2D$可见线$普通线
100
AcDbVertex
100
AcDb2dVertex
 10
941.578134780731
 20
648.062176812171
 30
0.0
  0
VERTEX
  5
583
330
56D
100
AcDbEntity
  8
Make2D$可见线$普通线
100
AcDbVertex
100
AcDb2dVertex
 10
941.5685328992345
 20
648.0529626993232
 30
0.0
  0
VERTEX
  5
584
330
56D
100
AcDbEntity
  8
Make2D$可见线$普通线
100
AcDbVertex
100
AcDb2dVertex
 10
941.5588862680366
 20
648.0442281492316
 30
0.0
  0
VERTEX
  5
585
330
56D
100
AcDbEntity
  8
Make2D$可见线$普通线
100
AcDbVertex
100
AcDb2dVertex
 10
941.5540533741026
 20
648.0400598701356
 30
0.0
  0
VERTEX
  5
586
330
56D
100
AcDbEntity
  8
Make2D$可见线$普通线
100
AcDbVertex
100
AcDb2dVertex
 10
941.549217936107
 20
648.0360344736278
 30
0.0
  0
VERTEX
  5
587
330
56D
100
AcDbEntity
  8
Make2D$可见线$普通线
100
AcDbVertex
100
AcDb2dVertex
 10
941.5443828351706
 20
648.032159623675
 30
0.0
  0
VERTEX
  5
588
330
56D
100
AcDbEntity
  8
Make2D$可见线$普通线
100
AcDbVertex
100
AcDb2dVertex
 10
941.5395509524149
 20
648.0284429842437
 30
0.0
  0
VERTEX
  5
589
330
56D
100
AcDbEntity
  8
Make2D$可见线$普通线
100
AcDbVertex
100
AcDb2dVertex
 10
941.5347251689609
 20
648.0248922193002
 30
0.0
  0
VERTEX
  5
58A
330
56D
100
AcDbEntity
  8
Make2D$可见线$普通线
100
AcDbVertex
100
AcDb2dVertex
 10
941.5299083659297
 20
648.0215149928111
 30
0.0
  0
VERTEX
  5
58B
330
56D
100
AcDbEntity
  8
Make2D$可见线$普通线
100
AcDbVertex
100
AcDb2dVertex
 10
941.5251034244427
 20
648.018318968743
 30
0.0
  0
VERTEX
  5
58C
330
56D
100
AcDbEntity
  8
Make2D$可见线$普通线
100
AcDbVertex
100
AcDb2dVertex
 10
941.5203132256208
 20
648.015311811062
 30
0.0
  0
VERTEX
  5
58D
330
56D
100
AcDbEntity
  8
Make2D$可见线$普通线
100
AcDbVertex
100
AcDb2dVertex
 10
941.5155406505854
 20
648.0125011837348
 30
0.0
  0
VERTEX
  5
58E
330
56D
100
AcDbEntity
  8
Make2D$可见线$普通线
100
AcDbVertex
100
AcDb2dVertex
 10
941.5107885804576
 20
648.0098947507279
 30
0.0
  0
VERTEX
  5
58F
330
56D
100
AcDbEntity
  8
Make2D$可见线$普通线
100
AcDbVertex
100
AcDb2dVertex
 10
941.5060598963587
 20
648.0075001760077
 30
0.0
  0
VERTEX
  5
590
330
56D
100
AcDbEntity
  8
Make2D$可见线$普通线
100
AcDbVertex
100
AcDb2dVertex
 10
941.5037052244203
 20
648.0063847304948
 30
0.0
  0
VERTEX
  5
591
330
56D
100
AcDbEntity
  8
Make2D$可见线$普通线
100
AcDbVertex
100
AcDb2dVertex
 10
941.5013574794095
 20
648.0053251235408
 30
0.0
  0
VERTEX
  5
592
330
56D
100
AcDbEntity
  8
Make2D$可见线$普通线
100
AcDbVertex
100
AcDb2dVertex
 10
941.4990170214666
 20
648.0043223131419
 30
0.0
  0
VERTEX
  5
593
330
56D
100
AcDbEntity
  8
Make2D$可见线$普通线
100
AcDbVertex
100
AcDb2dVertex
 10
941.4966842107316
 20
648.0033772572936
 30
0.0
  0
VERTEX
  5
594
330
56D
100
AcDbEntity
  8
Make2D$可见线$普通线
100
AcDbVertex
100
AcDb2dVertex
 10
941.4943594073445
 20
648.0024909139918
 30
0.0
  0
VERTEX
  5
595
330
56D
100
AcDbEntity
  8
Make2D$可见线$普通线
100
AcDbVertex
100
AcDb2dVertex
 10
941.4920429714458
 20
648.0016642412324
 30
0.0
  0
VERTEX
  5
596
330
56D
100
AcDbEntity
  8
Make2D$可见线$普通线
100
AcDbVertex
100
AcDb2dVertex
 10
941.4897352631754
 20
648.0008981970113
 30
0.0
  0
VERTEX
  5
597
330
56D
100
AcDbEntity
  8
Make2D$可见线$普通线
100
AcDbVertex
100
AcDb2dVertex
 10
941.4874366426734
 20
648.000193739324
 30
0.0
  0
VERTEX
  5
598
330
56D
100
AcDbEntity
  8
Make2D$可见线$普通线
100
AcDbVertex
100
AcDb2dVertex
 10
941.4851474700802
 20
647.9995518261666
 30
0.0
  0
VERTEX
  5
599
330
56D
100
AcDbEntity
  8
Make2D$可见线$普通线
100
AcDbVertex
100
AcDb2dVertex
 10
941.4828681055358
 20
647.9989734155347
 30
0.0
  0
VERTEX
  5
59A
330
56D
100
AcDbEntity
  8
Make2D$可见线$普通线
100
AcDbVertex
100
AcDb2dVertex
 10
941.4805989091803
 20
647.9984594654243
 30
0.0
  0
VERTEX
  5
59B
330
56D
100
AcDbEntity
  8
Make2D$可见线$普通线
100
AcDbVertex
100
AcDb2dVertex
 10
941.4783402411539
 20
647.9980109338311
 30
0.0
  0
VERTEX
  5
59C
330
56D
100
AcDbEntity
  8
Make2D$可见线$普通线
100
AcDbVertex
100
AcDb2dVertex
 10
941.4760924615966
 20
647.9976287787508
 30
0.0
  0
VERTEX
  5
59D
330
56D
100
AcDbEntity
  8
Make2D$可见线$普通线
100
AcDbVertex
100
AcDb2dVertex
 10
941.4738559306488
 20
647.9973139581795
 30
0.0
  0
VERTEX
  5
59E
330
56D
100
AcDbEntity
  8
Make2D$可见线$普通线
100
AcDbVertex
100
AcDb2dVertex
 10
941.4716310084506
 20
647.9970674301128
 30
0.0
  0
VERTEX
  5
59F
330
56D
100
AcDbEntity
  8
Make2D$可见线$普通线
100
AcDbVertex
100
AcDb2dVertex
 10
941.4694180551419
 20
647.9968901525465
 30
0.0
  0
VERTEX
  5
5A0
330
56D
100
AcDbEntity
  8
Make2D$可见线$普通线
100
AcDbVertex
100
AcDb2dVertex
 10
941.4672174308632
 20
647.9967830834764
 30
0.0
  0
VERTEX
  5
5A1
330
56D
100
AcDbEntity
  8
Make2D$可见线$普通线
100
AcDbVertex
100
AcDb2dVertex
 10
941.4650294957544
 20
647.9967471808984
 30
0.0
  0
VERTEX
  5
5A2
330
56D
100
AcDbEntity
  8
Make2D$可见线$普通线
100
AcDbVertex
100
AcDb2dVertex
 10
941.4637811150205
 20
647.996768262337
 30
0.0
  0
VERTEX
  5
5A3
330
56D
100
AcDbEntity
  8
Make2D$可见线$普通线
100
AcDbVertex
100
AcDb2dVertex
 10
941.4625528559679
 20
647.996831106035
 30
0.0
  0
VERTEX
  5
5A4
330
56D
100
AcDbEntity
  8
Make2D$可见线$普通线
100
AcDbVertex
100
AcDb2dVertex
 10
941.4619462210319
 20
647.9968780009417
 30
0.0
  0
VERTEX
  5
5A5
330
56D
100
AcDbEntity
  8
Make2D$可见线$普通线
100
AcDbVertex
100
AcDb2dVertex
 10
941.4613445552682
 20
647.9969351110658
 30
0.0
  0
VERTEX
  5
5A6
330
56D
100
AcDbEntity
  8
Make2D$可见线$普通线
100
AcDbVertex
100
AcDb2dVertex
 10
941.4607478382605
 20
647.9970023612915
 30
0.0
  0
VERTEX
  5
5A7
330
56D
100
AcDbEntity
  8
Make2D$可见线$普通线
100
AcDbVertex
100
AcDb2dVertex
 10
941.460156049593
 20
647.9970796765028
 30
0.0
  0
VERTEX
  5
5A8
330
56D
100
AcDbEntity
  8
Make2D$可见线$普通线
100
AcDbVertex
100
AcDb2dVertex
 10
941.4595691688496
 20
647.9971669815841
 30
0.0
  0
VERTEX
  5
5A9
330
56D
100
AcDbEntity
  8
Make2D$可见线$普通线
100
AcDbVertex
100
AcDb2dVertex
 10
941.4589871756143
 20
647.9972642014193
 30
0.0
  0
VERTEX
  5
5AA
330
56D
100
AcDbEntity
  8
Make2D$可见线$普通线
100
AcDbVertex
100
AcDb2dVertex
 10
941.4584100494708
 20
647.9973712608928
 30
0.0
  0
VERTEX
  5
5AB
330
56D
100
AcDbEntity
  8
Make2D$可见线$普通线
100
AcDbVertex
100
AcDb2dVertex
 10
941.4578377700034
 20
647.9974880848888
 30
0.0
  0
VERTEX
  5
5AC
330
56D
100
AcDbEntity
  8
Make2D$可见线$普通线
100
AcDbVertex
100
AcDb2dVertex
 10
941.457270316796
 20
647.9976145982913
 30
0.0
  0
VERTEX
  5
5AD
330
56D
100
AcDbEntity
  8
Make2D$可见线$普通线
100
AcDbVertex
100
AcDb2dVertex
 10
941.4567076694325
 20
647.9977507259844
 30
0.0
  0
VERTEX
  5
5AE
330
56D
100
AcDbEntity
  8
Make2D$可见线$普通线
100
AcDbVertex
100
AcDb2dVertex
 10
941.4561498074969
 20
647.9978963928525
 30
0.0
  0
VERTEX
  5
5AF
330
56D
100
AcDbEntity
  8
Make2D$可见线$普通线
100
AcDbVertex
100
AcDb2dVertex
 10
941.4555967105732
 20
647.9980515237795
 30
0.0
  0
VERTEX
  5
5B0
330
56D
100
AcDbEntity
  8
Make2D$可见线$普通线
100
AcDbVertex
100
AcDb2dVertex
 10
941.4550483582453
 20
647.9982160436498
 30
0.0
  0
VERTEX
  5
5B1
330
56D
100
AcDbEntity
  8
Make2D$可见线$普通线
100
AcDbVertex
100
AcDb2dVertex
 10
941.4545047300971
 20
647.9983898773477
 30
0.0
  0
VERTEX
  5
5B2
330
56D
100
AcDbEntity
  8
Make2D$可见线$普通线
100
AcDbVertex
100
AcDb2dVertex
 10
941.4539658057126
 20
647.9985729497571
 30
0.0
  0
VERTEX
  5
5B3
330
56D
100
AcDbEntity
  8
Make2D$可见线$普通线
100
AcDbVertex
100
AcDb2dVertex
 10
941.4534315646761
 20
647.9987651857622
 30
0.0
  0
VERTEX
  5
5B4
330
56D
100
AcDbEntity
  8
Make2D$可见线$普通线
100
AcDbVertex
100
AcDb2dVertex
 10
941.4529019865711
 20
647.9989665102472
 30
0.0
  0
VERTEX
  5
5B5
330
56D
100
AcDbEntity
  8
Make2D$可见线$普通线
100
AcDbVertex
100
AcDb2dVertex
 10
941.4523770509817
 20
647.9991768480963
 30
0.0
  0
VERTEX
  5
5B6
330
56D
100
AcDbEntity
  8
Make2D$可见线$普通线
100
AcDbVertex
100
AcDb2dVertex
 10
941.4518567374919
 20
647.9993961241937
 30
0.0
  0
VERTEX
  5
5B7
330
56D
100
AcDbEntity
  8
Make2D$可见线$普通线
100
AcDbVertex
100
AcDb2dVertex
 10
941.4513410256857
 20
647.9996242634236
 30
0.0
  0
VERTEX
  5
5B8
330
56D
100
AcDbEntity
  8
Make2D$可见线$普通线
100
AcDbVertex
100
AcDb2dVertex
 10
941.45032332546
 20
648.0001068308172
 30
0.0
  0
VERTEX
  5
5B9
330
56D
100
AcDbEntity
  8
Make2D$可见线$普通线
100
AcDbVertex
100
AcDb2dVertex
 10
941.4493237869763
 20
648.0006239493508
 30
0.0
  0
VERTEX
  5
5BA
330
56D
100
AcDbEntity
  8
Make2D$可见线$普通线
100
AcDbVertex
100
AcDb2dVertex
 10
941.4483422469061
 20
648.0011750180975
 30
0.0
  0
VERTEX
  5
5BB
330
56D
100
AcDbEntity
  8
Make2D$可见线$普通线
100
AcDbVertex
100
AcDb2dVertex
 10
941.4473785419214
 20
648.0017594361307
 30
0.0
  0
VERTEX
  5
5BC
330
56D
100
AcDbEntity
  8
Make2D$可见线$普通线
100
AcDbVertex
100
AcDb2dVertex
 10
941.4464325086938
 20
648.0023766025238
 30
0.0
  0
VERTEX
  5
5BD
330
56D
100
AcDbEntity
  8
Make2D$可见线$普通线
100
AcDbVertex
100
AcDb2dVertex
 10
941.4455039838949
 20
648.00302591635
 30
0.0
  0
VERTEX
  5
5BE
330
56D
100
AcDbEntity
  8
Make2D$可见线$普通线
100
AcDbVertex
100
AcDb2dVertex
 10
941.4445928041966
 20
648.0037067766829
 30
0.0
  0
VERTEX
  5
5BF
330
56D
100
AcDbEntity
  8
Make2D$可见线$普通线
100
AcDbVertex
100
AcDb2dVertex
 10
941.4436988062707
 20
648.0044185825957
 30
0.0
  0
VERTEX
  5
5C0
330
56D
100
AcDbEntity
  8
Make2D$可见线$普通线
100
AcDbVertex
100
AcDb2dVertex
 10
941.4428218267888
 20
648.0051607331619
 30
0.0
  0
VERTEX
  5
5C1
330
56D
100
AcDbEntity
  8
Make2D$可见线$普通线
100
AcDbVertex
100
AcDb2dVertex
 10
941.4419617024226
 20
648.0059326274549
 30
0.0
  0
VERTEX
  5
5C2
330
56D
100
AcDbEntity
  8
Make2D$可见线$普通线
100
AcDbVertex
100
AcDb2dVertex
 10
941.4411182698441
 20
648.0067336645479
 30
0.0
  0
VERTEX
  5
5C3
330
56D
100
AcDbEntity
  8
Make2D$可见线$普通线
100
AcDbVertex
100
AcDb2dVertex
 10
941.4402913657245
 20
648.0075632435143
 30
0.0
  0
VERTEX
  5
5C4
330
56D
100
AcDbEntity
  8
Make2D$可见线$普通线
100
AcDbVertex
100
AcDb2dVertex
 10
941.439480826736
 20
648.0084207634275
 30
0.0
  0
VERTEX
  5
5C5
330
56D
100
AcDbEntity
  8
Make2D$可见线$普通线
100
AcDbVertex
100
AcDb2dVertex
 10
941.4386864895503
 20
648.0093056233607
 30
0.0
  0
VERTEX
  5
5C6
330
56D
100
AcDbEntity
  8
Make2D$可见线$普通线
100
AcDbVertex
100
AcDb2dVertex
 10
941.4379081908388
 20
648.0102172223876
 30
0.0
  0
VERTEX
  5
5C7
330
56D
100
AcDbEntity
  8
Make2D$可见线$普通线
100
AcDbVertex
100
AcDb2dVertex
 10
941.4371457672735
 20
648.0111549595813
 30
0.0
  0
VERTEX
  5
5C8
330
56D
100
AcDbEntity
  8
Make2D$可见线$普通线
100
AcDbVertex
100
AcDb2dVertex
 10
941.4363990555261
 20
648.0121182340152
 30
0.0
  0
VERTEX
  5
5C9
330
56D
100
AcDbEntity
  8
Make2D$可见线$普通线
100
AcDbVertex
100
AcDb2dVertex
 10
941.4356678922683
 20
648.0131064447628
 30
0.0
  0
VERTEX
  5
5CA
330
56D
100
AcDbEntity
  8
Make2D$可见线$普通线
100
AcDbVertex
100
AcDb2dVertex
 10
941.4349521141718
 20
648.0141189908973
 30
0.0
  0
VERTEX
  5
5CB
330
56D
100
AcDbEntity
  8
Make2D$可见线$普通线
100
AcDbVertex
100
AcDb2dVertex
 10
941.4342515579083
 20
648.0151552714922
 30
0.0
  0
VERTEX
  5
5CC
330
56D
100
AcDbEntity
  8
Make2D$可见线$普通线
100
AcDbVertex
100
AcDb2dVertex
 10
941.4335660601496
 20
648.0162146856208
 30
0.0
  0
VERTEX
  5
5CD
330
56D
100
AcDbEntity
  8
Make2D$可见线$普通线
100
AcDbVertex
100
AcDb2dVertex
 10
941.4328954575675
 20
648.0172966323564
 30
0.0
  0
VERTEX
  5
5CE
330
56D
100
AcDbEntity
  8
Make2D$可见线$普通线
100
AcDbVertex
100
AcDb2dVertex
 10
941.4322395868336
 20
648.0184005107724
 30
0.0
  0
VERTEX
  5
5CF
330
56D
100
AcDbEntity
  8
Make2D$可见线$普通线
100
AcDbVertex
100
AcDb2dVertex
 10
941.4315982846197
 20
648.0195257199423
 30
0.0
  0
VERTEX
  5
5D0
330
56D
100
AcDbEntity
  8
Make2D$可见线$普通线
100
AcDbVertex
100
AcDb2dVertex
 10
941.4303587324387
 20
648.0218377268368
 30
0.0
  0
VERTEX
  5
5D1
330
56D
100
AcDbEntity
  8
Make2D$可见线$普通线
100
AcDbVertex
100
AcDb2dVertex
 10
941.4291754943982
 20
648.0242278456269
 30
0.0
  0
VERTEX
  5
5D2
330
56D
100
AcDbEntity
  8
Make2D$可见线$普通线
100
AcDbVertex
100
AcDb2dVertex
 10
941.4280472638724
 20
648.0266912688994
 30
0.0
  0
VERTEX
  5
5D3
330
56D
100
AcDbEntity
  8
Make2D$可见线$普通线
100
AcDbVertex
100
AcDb2dVertex
 10
941.4269727342348
 20
648.0292231892411
 30
0.0
  0
VERTEX
  5
5D4
330
56D
100
AcDbEntity
  8
Make2D$可见线$普通线
100
AcDbVertex
100
AcDb2dVertex
 10
941.4259505988593
 20
648.0318187992392
 30
0.0
  0
VERTEX
  5
5D5
330
56D
100
AcDbEntity
  8
Make2D$可见线$普通线
100
AcDbVertex
100
AcDb2dVertex
 10
941.42497955112
 20
648.0344732914804
 30
0.0
  0
VERTEX
  5
5D6
330
56D
100
AcDbEntity
  8
Make2D$可见线$普通线
100
AcDbVertex
100
AcDb2dVertex
 10
941.4240582843904
 20
648.0371818585517
 30
0.0
  0
VERTEX
  5
5D7
330
56D
100
AcDbEntity
  8
Make2D$可见线$普通线
100
AcDbVertex
100
AcDb2dVertex
 10
941.4231854920447
 20
648.03993969304
 30
0.0
  0
VERTEX
  5
5D8
330
56D
100
AcDbEntity
  8
Make2D$可见线$普通线
100
AcDbVertex
100
AcDb2dVertex
 10
941.4223598674564
 20
648.042741987532
 30
0.0
  0
VERTEX
  5
5D9
330
56D
100
AcDbEntity
  8
Make2D$可见线$普通线
100
AcDbVertex
100
AcDb2dVertex
 10
941.4215801039993
 20
648.045583934615
 30
0.0
  0
VERTEX
  5
5DA
330
56D
100
AcDbEntity
  8
Make2D$可见线$普通线
100
AcDbVertex
100
AcDb2dVertex
 10
941.4201529339746
 20
648.0513675569008
 30
0.0
  0
VERTEX
  5
5DB
330
56D
100
AcDbEntity
  8
Make2D$可见线$普通线
100
AcDbVertex
100
AcDb2dVertex
 10
941.4188935289615
 20
648.0572521005927
 30
0.0
  0
VERTEX
  5
5DC
330
56D
100
AcDbEntity
  8
Make2D$可见线$普通线
100
AcDbVertex
100
AcDb2dVertex
 10
941.4177914359504
 20
648.0631991063859
 30
0.0
  0
VERTEX
  5
5DD
330
56D
100
AcDbEntity
  8
Make2D$可见线$普通线
100
AcDbVertex
100
AcDb2dVertex
 10
941.4168362019323
 20
648.0691701149758
 30
0.0
  0
VERTEX
  5
5DE
330
56D
100
AcDbEntity
  8
Make2D$可见线$普通线
100
AcDbVertex
100
AcDb2dVertex
 10
941.4160173738977
 20
648.0751266670575
 30
0.0
  0
VERTEX
  5
5DF
330
56D
100
AcDbEntity
  8
Make2D$可见线$普通线
100
AcDbVertex
100
AcDb2dVertex
 10
941.4153244988372
 20
648.0810303033264
 30
0.0
  0
VERTEX
  5
5E0
330
56D
100
AcDbEntity
  8
Make2D$可见线$普通线
100
AcDbVertex
100
AcDb2dVertex
 10
941.414274795602
 20
648.0925249912068
 30
0.0
  0
VERTEX
  5
5E1
330
56D
100
AcDbEntity
  8
Make2D$可见线$普通线
100
AcDbVertex
100
AcDb2dVertex
 10
941.4136034681521
 20
648.103346504179
 30
0.0
  0
VERTEX
  5
5E2
330
56D
100
AcDbEntity
  8
Make2D$可见线$普通线
100
AcDbVertex
100
AcDb2dVertex
 10
941.4132268924133
 20
648.1131871678051
 30
0.0
  0
VERTEX
  5
5E3
330
56D
100
AcDbEntity
  8
Make2D$可见线$普通线
100
AcDbVertex
100
AcDb2dVertex
 10
941.4130294347183
 20
648.1337473182296
 30
0.0
  0
VERTEX
  5
5E4
330
56D
100
AcDbEntity
  8
Make2D$可见线$普通线
100
AcDbVertex
100
AcDb2dVertex
 10
941.4130294347183
 20
648.4964972381197
 30
0.0
  0
VERTEX
  5
5E5
330
56D
100
AcDbEntity
  8
Make2D$可见线$普通线
100
AcDbVertex
100
AcDb2dVertex
 10
941.4127354073653
 20
648.5163347895034
 30
0.0
  0
VERTEX
  5
5E6
330
56D
100
AcDbEntity
  8
Make2D$可见线$普通线
100
AcDbVertex
100
AcDb2dVertex
 10
941.4123418784042
 20
648.5264238926366
 30
0.0
  0
VERTEX
  5
5E7
330
56D
100
AcDbEntity
  8
Make2D$可见线$普通线
100
AcDbVertex
100
AcDb2dVertex
 10
941.4117608994577
 20
648.5365875658856
 30
0.0
  0
VERTEX
  5
5E8
330
56D
100
AcDbEntity
  8
Make2D$可见线$普通线
100
AcDbVertex
100
AcDb2dVertex
 10
941.4109751406795
 20
648.5467965731168
 30
0.0
  0
VERTEX
  5
5E9
330
56D
100
AcDbEntity
  8
Make2D$可见线$普通线
100
AcDbVertex
100
AcDb2dVertex
 10
941.409967272223
 20
648.5570216781965
 30
0.0
  0
VERTEX
  5
5EA
330
56D
100
AcDbEntity
  8
Make2D$可见线$普通线
100
AcDbVertex
100
AcDb2dVertex
 10
941.4087199642415
 20
648.5672336449909
 30
0.0
  0
VERTEX
  5
5EB
330
56D
100
AcDbEntity
  8
Make2D$可见线$普通线
100
AcDbVertex
100
AcDb2dVertex
 10
941.4072158868885
 20
648.5774032373661
 30
0.0
  0
VERTEX
  5
5EC
330
56D
100
AcDbEntity
  8
Make2D$可见线$普通线
100
AcDbVertex
100
AcDb2dVertex
 10
941.4054377103173
 20
648.5875012191884
 30
0.0
  0
VERTEX
  5
5ED
330
56D
100
AcDbEntity
  8
Make2D$可见线$普通线
100
AcDbVertex
100
AcDb2dVertex
 10
941.4033681046814
 20
648.5974983543242
 30
0.0
  0
VERTEX
  5
5EE
330
56D
100
AcDbEntity
  8
Make2D$可见线$普通线
100
AcDbVertex
100
AcDb2dVertex
 10
941.4009897401342
 20
648.6073654066398
 30
0.0
  0
VERTEX
  5
5EF
330
56D
100
AcDbEntity
  8
Make2D$可见线$普通线
100
AcDbVertex
100
AcDb2dVertex
 10
941.3996793576916
 20
648.6122410154481
 30
0.0
  0
VERTEX
  5
5F0
330
56D
100
AcDbEntity
  8
Make2D$可见线$普通线
100
AcDbVertex
100
AcDb2dVertex
 10
941.398285286829
 20
648.6170731400013
 30
0.0
  0
VERTEX
  5
5F1
330
56D
100
AcDbEntity
  8
Make2D$可见线$普通线
100
AcDbVertex
100
AcDb2dVertex
 10
941.3968053613152
 20
648.6218581257824
 30
0.0
  0
VERTEX
  5
5F2
330
56D
100
AcDbEntity
  8
Make2D$可见线$普通线
100
AcDbVertex
100
AcDb2dVertex
 10
941.3952374149194
 20
648.6265923182748
 30
0.0
  0
VERTEX
  5
5F3
330
56D
100
AcDbEntity
  8
Make2D$可见线$普通线
100
AcDbVertex
100
AcDb2dVertex
 10
941.3935792814108
 20
648.6312720629619
 30
0.0
  0
VERTEX
  5
5F4
330
56D
100
AcDbEntity
  8
Make2D$可见线$普通线
100
AcDbVertex
100
AcDb2dVertex
 10
941.3918287945587
 20
648.6358937053268
 30
0.0
  0
VERTEX
  5
5F5
330
56D
100
AcDbEntity
  8
Make2D$可见线$普通线
100
AcDbVertex
100
AcDb2dVertex
 10
941.3899837881321
 20
648.6404535908529
 30
0.0
  0
VERTEX
  5
5F6
330
56D
100
AcDbEntity
  8
Make2D$可见线$普通线
100
AcDbVertex
100
AcDb2dVertex
 10
941.3880420959003
 20
648.6449480650234
 30
0.0
  0
VERTEX
  5
5F7
330
56D
100
AcDbEntity
  8
Make2D$可见线$普通线
100
AcDbVertex
100
AcDb2dVertex
 10
941.3860015516325
 20
648.6493734733216
 30
0.0
  0
VERTEX
  5
5F8
330
56D
100
AcDbEntity
  8
Make2D$可见线$普通线
100
AcDbVertex
100
AcDb2dVertex
 10
941.3838599890978
 20
648.653726161231
 30
0.0
  0
VERTEX
  5
5F9
330
56D
100
AcDbEntity
  8
Make2D$可见线$普通线
100
AcDbVertex
100
AcDb2dVertex
 10
941.3816152420652
 20
648.6580024742346
 30
0.0
  0
VERTEX
  5
5FA
330
56D
100
AcDbEntity
  8
Make2D$可见线$普通线
100
AcDbVertex
100
AcDb2dVertex
 10
941.3792651443043
 20
648.6621987578158
 30
0.0
  0
VERTEX
  5
5FB
330
56D
100
AcDbEntity
  8
Make2D$可见线$普通线
100
AcDbVertex
100
AcDb2dVertex
 10
941.3768075295841
 20
648.6663113574577
 30
0.0
  0
VERTEX
  5
5FC
330
56D
100
AcDbEntity
  8
Make2D$可见线$普通线
100
AcDbVertex
100
AcDb2dVertex
 10
941.3742402316736
 20
648.6703366186439
 30
0.0
  0
VERTEX
  5
5FD
330
56D
100
AcDbEntity
  8
Make2D$可见线$普通线
100
AcDbVertex
100
AcDb2dVertex
 10
941.3715610843421
 20
648.6742708868576
 30
0.0
  0
VERTEX
  5
5FE
330
56D
100
AcDbEntity
  8
Make2D$可见线$普通线
100
AcDbVertex
100
AcDb2dVertex
 10
941.3687679213589
 20
648.6781105075818
 30
0.0
  0
VERTEX
  5
5FF
330
56D
100
AcDbEntity
  8
Make2D$可见线$普通线
100
AcDbVertex
100
AcDb2dVertex
 10
941.3658585764929
 20
648.6818518263001
 30
0.0
  0
VERTEX
  5
600
330
56D
100
AcDbEntity
  8
Make2D$可见线$普通线
100
AcDbVertex
100
AcDb2dVertex
 10
941.3628308835134
 20
648.6854911884956
 30
0.0
  0
VERTEX
  5
601
330
56D
100
AcDbEntity
  8
Make2D$可见线$普通线
100
AcDbVertex
100
AcDb2dVertex
 10
941.3596826761898
 20
648.6890249396516
 30
0.0
  0
VERTEX
  5
602
330
56D
100
AcDbEntity
  8
Make2D$可见线$普通线
100
AcDbVertex
100
AcDb2dVertex
 10
941.3580627027018
 20
648.6907510690535
 30
0.0
  0
VERTEX
  5
603
330
56D
100
AcDbEntity
  8
Make2D$可见线$普通线
100
AcDbVertex
100
AcDb2dVertex
 10
941.3564117882911
 20
648.6924494252517
 30
0.0
  0
VERTEX
  5
604
330
56D
100
AcDbEntity
  8
Make2D$可见线$普通线
100
AcDbVertex
100
AcDb2dVertex
 10
941.3547296621789
 20
648.6941195514314
 30
0.0
  0
VERTEX
  5
605
330
56D
100
AcDbEntity
  8
Make2D$可见线$普通线
100
AcDbVertex
100
AcDb2dVertex
 10
941.3530160535863
 20
648.6957609907786
 30
0.0
  0
VERTEX
  5
606
330
56D
100
AcDbEntity
  8
Make2D$可见线$普通线
100
AcDbVertex
100
AcDb2dVertex
 10
941.3512706917345
 20
648.6973732864783
 30
0.0
  0
VERTEX
  5
607
330
56D
100
AcDbEntity
  8
Make2D$可见线$普通线
100
AcDbVertex
100
AcDb2dVertex
 10
941.3494933058448
 20
648.6989559817159
 30
0.0
  0
VERTEX
  5
608
330
56D
100
AcDbEntity
  8
Make2D$可见线$普通线
100
AcDbVertex
100
AcDb2dVertex
 10
941.3476836251382
 20
648.700508619677
 30
0.0
  0
VERTEX
  5
609
330
56D
100
AcDbEntity
  8
Make2D$可见线$普通线
100
AcDbVertex
100
AcDb2dVertex
 10
941.3458413788356
 20
648.7020307435469
 30
0.0
  0
VERTEX
  5
60A
330
56D
100
AcDbEntity
  8
Make2D$可见线$普通线
100
AcDbVertex
100
AcDb2dVertex
 10
941.3439662961587
 20
648.7035218965111
 30
0.0
  0
VERTEX
  5
60B
330
56D
100
AcDbEntity
  8
Make2D$可见线$普通线
100
AcDbVertex
100
AcDb2dVertex
 10
941.3420581063281
 20
648.704981621755
 30
0.0
  0
VERTEX
  5
60C
330
56D
100
AcDbEntity
  8
Make2D$可见线$普通线
100
AcDbVertex
100
AcDb2dVertex
 10
941.3401165385653
 20
648.7064094624639
 30
0.0
  0
VERTEX
  5
60D
330
56D
100
AcDbEntity
  8
Make2D$可见线$普通线
100
AcDbVertex
100
AcDb2dVertex
 10
941.3381413220914
 20
648.7078049618233
 30
0.0
  0
VERTEX
  5
60E
330
56D
100
AcDbEntity
  8
Make2D$可见线$普通线
100
AcDbVertex
100
AcDb2dVertex
 10
941.3361321861273
 20
648.7091676630184
 30
0.0
  0
VERTEX
  5
60F
330
56D
100
AcDbEntity
  8
Make2D$可见线$普通线
100
AcDbVertex
100
AcDb2dVertex
 10
941.3340888598946
 20
648.7104971092349
 30
0.0
  0
VERTEX
  5
610
330
56D
100
AcDbEntity
  8
Make2D$可见线$普通线
100
AcDbVertex
100
AcDb2dVertex
 10
941.332011072614
 20
648.711792843658
 30
0.0
  0
VERTEX
  5
611
330
56D
100
AcDbEntity
  8
Make2D$可见线$普通线
100
AcDbVertex
100
AcDb2dVertex
 10
941.329898553507
 20
648.7130544094734
 30
0.0
  0
VERTEX
  5
612
330
56D
100
AcDbEntity
  8
Make2D$可见线$普通线
100
AcDbVertex
100
AcDb2dVertex
 10
941.3277510317944
 20
648.7142813498663
 30
0.0
  0
VERTEX
  5
613
330
56D
100
AcDbEntity
  8
Make2D$可见线$普通线
100
AcDbVertex
100
AcDb2dVertex
 10
941.3255682366976
 20
648.7154732080221
 30
0.0
  0
VERTEX
  5
614
330
56D
100
AcDbEntity
  8
Make2D$可见线$普通线
100
AcDbVertex
100
AcDb2dVertex
 10
941.3233498974375
 20
648.7166295271262
 30
0.0
  0
VERTEX
  5
615
330
56D
100
AcDbEntity
  8
Make2D$可见线$普通线
100
AcDbVertex
100
AcDb2dVertex
 10
941.3210957432357
 20
648.717749850364
 30
0.0
  0
VERTEX
  5
616
330
56D
100
AcDbEntity
  8
Make2D$可见线$普通线
100
AcDbVertex
100
AcDb2dVertex
 10
941.3188055033129
 20
648.718833720921
 30
0.0
  0
VERTEX
  5
617
330
56D
100
AcDbEntity
  8
Make2D$可见线$普通线
100
AcDbVertex
100
AcDb2dVertex
 10
941.3164789068903
 20
648.7198806819827
 30
0.0
  0
VERTEX
  5
618
330
56D
100
AcDbEntity
  8
Make2D$可见线$普通线
100
AcDbVertex
100
AcDb2dVertex
 10
941.3141156831894
 20
648.7208902767343
 30
0.0
  0
VERTEX
  5
619
330
56D
100
AcDbEntity
  8
Make2D$可见线$普通线
100
AcDbVertex
100
AcDb2dVertex
 10
941.3117155614309
 20
648.7218620483611
 30
0.0
  0
VERTEX
  5
61A
330
56D
100
AcDbEntity
  8
Make2D$可见线$普通线
100
AcDbVertex
100
AcDb2dVertex
 10
941.3092782708363
 20
648.7227955400488
 30
0.0
  0
VERTEX
  5
61B
330
56D
100
AcDbEntity
  8
Make2D$可见线$普通线
100
AcDbVertex
100
AcDb2dVertex
 10
941.3068035406264
 20
648.7236902949828
 30
0.0
  0
VERTEX
  5
61C
330
56D
100
AcDbEntity
  8
Make2D$可见线$普通线
100
AcDbVertex
100
AcDb2dVertex
 10
941.3042911000227
 20
648.7245458563484
 30
0.0
  0
VERTEX
  5
61D
330
56D
100
AcDbEntity
  8
Make2D$可见线$普通线
100
AcDbVertex
100
AcDb2dVertex
 10
941.3017406782462
 20
648.725361767331
 30
0.0
  0
VERTEX
  5
61E
330
56D
100
AcDbEntity
  8
Make2D$可见线$普通线
100
AcDbVertex
100
AcDb2dVertex
 10
941.299152004518
 20
648.7261375711162
 30
0.0
  0
VERTEX
  5
61F
330
56D
100
AcDbEntity
  8
Make2D$可见线$普通线
100
AcDbVertex
100
AcDb2dVertex
 10
941.2965248080593
 20
648.7268728108891
 30
0.0
  0
VERTEX
  5
620
330
56D
100
AcDbEntity
  8
Make2D$可见线$普通线
100
AcDbVertex
100
AcDb2dVertex
 10
941.2938588180912
 20
648.7275670298352
 30
0.0
  0
VERTEX
  5
621
330
56D
100
AcDbEntity
  8
Make2D$可见线$普通线
100
AcDbVertex
100
AcDb2dVertex
 10
941.2911537638349
 20
648.7282197711401
 30
0.0
  0
VERTEX
  5
622
330
56D
100
AcDbEntity
  8
Make2D$可见线$普通线
100
AcDbVertex
100
AcDb2dVertex
 10
941.2884093745116
 20
648.7288305779889
 30
0.0
  0
VERTEX
  5
623
330
56D
100
AcDbEntity
  8
Make2D$可见线$普通线
100
AcDbVertex
100
AcDb2dVertex
 10
941.2856253793423
 20
648.7293989935674
 30
0.0
  0
VERTEX
  5
624
330
56D
100
AcDbEntity
  8
Make2D$可见线$普通线
100
AcDbVertex
100
AcDb2dVertex
 10
941.2799374883506
 20
648.7304068236544
 30
0.0
  0
VERTEX
  5
625
330
56D
100
AcDbEntity
  8
Make2D$可见线$普通线
100
AcDbVertex
100
AcDb2dVertex
 10
941.2740879246289
 20
648.7312396068843
 30
0.0
  0
VERTEX
  5
626
330
56D
100
AcDbEntity
  8
Make2D$可见线$普通线
100
AcDbVertex
100
AcDb2dVertex
 10
941.2680745219466
 20
648.7318936887403
 30
0.0
  0
VERTEX
  5
627
330
56D
100
AcDbEntity
  8
Make2D$可见线$普通线
100
AcDbVertex
100
AcDb2dVertex
 10
941.2618951140724
 20
648.7323654147058
 30
0.0
  0
VERTEX
  5
628
330
56D
100
AcDbEntity
  8
Make2D$可见线$普通线
100
AcDbVertex
100
AcDb2dVertex
 10
941.2555475347762
 20
648.732651130264
 30
0.0
  0
VERTEX
  5
629
330
56D
100
AcDbEntity
  8
Make2D$可见线$普通线
100
AcDbVertex
100
AcDb2dVertex
 10
941.2490296178265
 20
648.7327471808983
 30
0.0
  0
VERTEX
  5
62A
330
56D
100
AcDbEntity
  8
Make2D$可见线$普通线
100
AcDbVertex
100
AcDb2dVertex
 10
941.2426591139013
 20
648.7326269466188
 30
0.0
  0
VERTEX
  5
62B
330
56D
100
AcDbEntity
  8
Make2D$可见线$普通线
100
AcDbVertex
100
AcDb2dVertex
 10
941.2362731439341
 20
648.7323801844901
 30
0.0
  0
VERTEX
  5
62C
330
56D
100
AcDbEntity
  8
Make2D$可见线$普通线
100
AcDbVertex
100
AcDb2dVertex
 10
941.2298754171097
 20
648.7320059386448
 30
0.0
  0
VERTEX
  5
62D
330
56D
100
AcDbEntity
  8
Make2D$可见线$普通线
100
AcDbVertex
100
AcDb2dVertex
 10
941.2234696985869
 20
648.7315033963159
 30
0.0
  0
VERTEX
  5
62E
330
56D
100
AcDbEntity
  8
Make2D$可见线$普通线
100
AcDbVertex
100
AcDb2dVertex
 10
941.2170598026694
 20
648.7308718914253
 30
0.0
  0
VERTEX
  5
62F
330
56D
100
AcDbEntity
  8
Make2D$可见线$普通线
100
AcDbVertex
100
AcDb2dVertex
 10
941.2106495857188
 20
648.7301109077803
 30
0.0
  0
VERTEX
  5
630
330
56D
100
AcDbEntity
  8
Make2D$可见线$普通线
100
AcDbVertex
100
AcDb2dVertex
 10
941.204242938838
 20
648.7292200818649
 30
0.0
  0
VERTEX
  5
631
330
56D
100
AcDbEntity
  8
Make2D$可见线$普通线
100
AcDbVertex
100
AcDb2dVertex
 10
941.1978437803492
 20
648.7281992052013
 30
0.0
  0
VERTEX
  5
632
330
56D
100
AcDbEntity
  8
Make2D$可见线$普通线
100
AcDbVertex
100
AcDb2dVertex
 10
941.1914560480993
 20
648.7270482262696
 30
0.0
  0
VERTEX
  5
633
330
56D
100
AcDbEntity
  8
Make2D$可见线$普通线
100
AcDbVertex
100
AcDb2dVertex
 10
941.185083691619
 20
648.7257672519687
 30
0.0
  0
VERTEX
  5
634
330
56D
100
AcDbEntity
  8
Make2D$可见线$普通线
100
AcDbVertex
100
AcDb2dVertex
 10
941.178730664172
 20
648.7243565486096
 30
0.0
  0
VERTEX
  5
635
330
56D
100
AcDbEntity
  8
Make2D$可见线$普通线
100
AcDbVertex
100
AcDb2dVertex
 10
941.1724009147224
 20
648.7228165424265
 30
0.0
  0
VERTEX
  5
636
330
56D
100
AcDbEntity
  8
Make2D$可见线$普通线
100
AcDbVertex
100
AcDb2dVertex
 10
941.1660983798582
 20
648.7211478196054
 30
0.0
  0
VERTEX
  5
637
330
56D
100
AcDbEntity
  8
Make2D$可见线$普通线
100
AcDbVertex
100
AcDb2dVertex
 10
941.1598269757028
 20
648.7193511258232
 30
0.0
  0
VERTEX
  5
638
330
56D
100
AcDbEntity
  8
Make2D$可见线$普通线
100
AcDbVertex
100
AcDb2dVertex
 10
941.1535905898476
 20
648.7174273652942
 30
0.0
  0
VERTEX
  5
639
330
56D
100
AcDbEntity
  8
Make2D$可见线$普通线
100
AcDbVertex
100
AcDb2dVertex
 10
941.1473930733458
 20
648.715377599329
 30
0.0
  0
VERTEX
  5
63A
330
56D
100
AcDbEntity
  8
Make2D$可见线$普通线
100
AcDbVertex
100
AcDb2dVertex
 10
941.1412382327949
 20
648.7132030444095
 30
0.0
  0
VERTEX
  5
63B
330
56D
100
AcDbEntity
  8
Make2D$可见线$普通线
100
AcDbVertex
100
AcDb2dVertex
 10
941.1351298225487
 20
648.7109050697859
 30
0.0
  0
VERTEX
  5
63C
330
56D
100
AcDbEntity
  8
Make2D$可见线$普通线
100
AcDbVertex
100
AcDb2dVertex
 10
941.1290715370864
 20
648.7084851946062
 30
0.0
  0
VERTEX
  5
63D
330
56D
100
AcDbEntity
  8
Make2D$可见线$普通线
100
AcDbVertex
100
AcDb2dVertex
 10
941.1230670035759
 20
648.705945084591
 30
0.0
  0
VERTEX
  5
63E
330
56D
100
AcDbEntity
  8
Make2D$可见线$普通线
100
AcDbVertex
100
AcDb2dVertex
 10
941.1171197746605
 20
648.7032865482703
 30
0.0
  0
VERTEX
  5
63F
330
56D
100
AcDbEntity
  8
Make2D$可见线$普通线
100
AcDbVertex
100
AcDb2dVertex
 10
941.1112333214985
 20
648.7005115327958
 30
0.0
  0
VERTEX
  5
640
330
56D
100
AcDbEntity
  8
Make2D$可见线$普通线
100
AcDbVertex
100
AcDb2dVertex
 10
941.1054110270857
 20
648.6976221193537
 30
0.0
  0
VERTEX
  5
641
330
56D
100
AcDbEntity
  8
Make2D$可见线$普通线
100
AcDbVertex
100
AcDb2dVertex
 10
941.0996561798864
 20
648.6946205181955
 30
0.0
  0
VERTEX
  5
642
330
56D
100
AcDbEntity
  8
Make2D$可见线$普通线
100
AcDbVertex
100
AcDb2dVertex
 10
941.0939719677988
 20
648.6915090633158
 30
0.0
  0
VERTEX
  5
643
330
56D
100
AcDbEntity
  8
Make2D$可见线$普通线
100
AcDbVertex
100
AcDb2dVertex
 10
941.0883614724746
 20
648.6882902067978
 30
0.0
  0
VERTEX
  5
644
330
56D
100
AcDbEntity
  8
Make2D$可见线$普通线
100
AcDbVertex
100
AcDb2dVertex
 10
941.0828276640165
 20
648.6849665128573
 30
0.0
  0
VERTEX
  5
645
330
56D
100
AcDbEntity
  8
Make2D$可见线$普通线
100
AcDbVertex
100
AcDb2dVertex
 10
941.0773733960696
 20
648.681540651613
 30
0.0
  0
VERTEX
  5
646
330
56D
100
AcDbEntity
  8
Make2D$可见线$普通线
100
AcDbVertex
100
AcDb2dVertex
 10
941.0720014013214
 20
648.6780153926134
 30
0.0
  0
VERTEX
  5
647
330
56D
100
AcDbEntity
  8
Make2D$可见线$普通线
100
AcDbVertex
100
AcDb2dVertex
 10
941.0667142874262
 20
648.6743935981503
 30
0.0
  0
VERTEX
  5
648
330
56D
100
AcDbEntity
  8
Make2D$可见线$普通线
100
AcDbVertex
100
AcDb2dVertex
 10
941.0615145333599
 20
648.6706782163909
 30
0.0
  0
VERTEX
  5
649
330
56D
100
AcDbEntity
  8
Make2D$可见线$普通线
100
AcDbVertex
100
AcDb2dVertex
 10
941.0564044862175
 20
648.6668722743598
 30
0.0
 42
0.0640353376456127
  0
VERTEX
  5
64A
330
56D
100
AcDbEntity
  8
Make2D$可见线$普通线
100
AcDbVertex
100
AcDb2dVertex
 10
940.8370294347183
 20
648.433997261008
 30
0.0
  0
VERTEX
  5
64B
330
56D
100
AcDbEntity
  8
Make2D$可见线$普通线
100
AcDbVertex
100
AcDb2dVertex
 10
940.8370294347183
 20
648.7779973830803
 30
0.0
  0
VERTEX
  5
64C
330
56D
100
AcDbEntity
  8
Make2D$可见线$普通线
100
AcDbVertex
100
AcDb2dVertex
 10
940.897071258926
 20
648.8755250372939
 30
0.0
  0
VERTEX
  5
64D
330
56D
100
AcDbEntity
  8
Make2D$可见线$普通线
100
AcDbVertex
100
AcDb2dVertex
 10
940.9654786457991
 20
648.9912539645236
 30
0.0
  0
VERTEX
  5
64E
330
56D
100
AcDbEntity
  8
Make2D$可见线$普通线
100
AcDbVertex
100
AcDb2dVertex
 10
941.0372056962608
 20
649.1201599349383
 30
0.0
  0
VERTEX
  5
64F
330
56D
100
AcDbEntity
  8
Make2D$可见线$普通线
100
AcDbVertex
100
AcDb2dVertex
 10
941.0727372518761
 20
649.1879842395181
 30
0.0
  0
VERTEX
  5
650
330
56D
100
AcDbEntity
  8
Make2D$可见线$普通线
100
AcDbVertex
100
AcDb2dVertex
 10
941.1072065112346
 20
649.2572187187075
 30
0.0
  0
VERTEX
  5
651
330
56D
100
AcDbEntity
  8
Make2D$可见线$普通线
100
AcDbVertex
100
AcDb2dVertex
 10
941.139982736952
 20
649.3272353437777
 30
0.0
  0
VERTEX
  5
652
330
56D
100
AcDbEntity
  8
Make2D$可见线$普通线
100
AcDbVertex
100
AcDb2dVertex
 10
941.1704351916437
 20
649.397406086
 30
0.0
  0
VERTEX
  5
653
330
56D
100
AcDbEntity
  8
Make2D$可见线$普通线
100
AcDbVertex
100
AcDb2dVertex
 10
941.1845928994223
 20
649.4323529920654
 30
0.0
  0
VERTEX
  5
654
330
56D
100
AcDbEntity
  8
Make2D$可见线$普通线
100
AcDbVertex
100
AcDb2dVertex
 10
941.1979331379252
 20
649.4671029166454
 30
0.0
  0
VERTEX
  5
655
330
56D
100
AcDbEntity
  8
Make2D$可见线$普通线
100
AcDbVertex
100
AcDb2dVertex
 10
941.2103770649794
 20
649.501577356149
 30
0.0
  0
VERTEX
  5
656
330
56D
100
AcDbEntity
  8
Make2D$可见线$普通线
100
AcDbVertex
100
AcDb2dVertex
 10
941.2218458384118
 20
649.5356978069851
 30
0.0
  0
VERTEX
  5
657
330
56D
100
AcDbEntity
  8
Make2D$可见线$普通线
100
AcDbVertex
100
AcDb2dVertex
 10
941.2322606160494
 20
649.5693857655626
 30
0.0
  0
VERTEX
  5
658
330
56D
100
AcDbEntity
  8
Make2D$可见线$普通线
100
AcDbVertex
100
AcDb2dVertex
 10
941.241542555719
 20
649.6025627282903
 30
0.0
  0
VERTEX
  5
659
330
56D
100
AcDbEntity
  8
Make2D$可见线$普通线
100
AcDbVertex
100
AcDb2dVertex
 10
941.2496128152476
 20
649.6351501915772
 30
0.0
  0
VERTEX
  5
65A
330
56D
100
AcDbEntity
  8
Make2D$可见线$普通线
100
AcDbVertex
100
AcDb2dVertex
 10
941.25316892678
 20
649.6511983285582
 30
0.0
  0
VERTEX
  5
65B
330
56D
100
AcDbEntity
  8
Make2D$可见线$普通线
100
AcDbVertex
100
AcDb2dVertex
 10
941.2563925524622
 20
649.6670696518321
 30
0.0
  0
VERTEX
  5
65C
330
56D
100
AcDbEntity
  8
Make2D$可见线$普通线
100
AcDbVertex
100
AcDb2dVertex
 10
941.2592738370228
 20
649.6827543484503
 30
0.0
  0
VERTEX
  5
65D
330
56D
100
AcDbEntity
  8
Make2D$可见线$普通线
100
AcDbVertex
100
AcDb2dVertex
 10
941.2618029251897
 20
649.698242605464
 30
0.0
  0
VERTEX
  5
65E
330
56D
100
AcDbEntity
  8
Make2D$可见线$普通线
100
AcDbVertex
100
AcDb2dVertex
 10
941.2639699616916
 20
649.713524609924
 30
0.0
  0
VERTEX
  5
65F
330
56D
100
AcDbEntity
  8
Make2D$可见线$普通线
100
AcDbVertex
100
AcDb2dVertex
 10
941.2657650912569
 20
649.7285905488816
 30
0.0
  0
VERTEX
  5
660
330
56D
100
AcDbEntity
  8
Make2D$可见线$普通线
100
AcDbVertex
100
AcDb2dVertex
 10
941.2671784586139
 20
649.7434306093879
 30
0.0
  0
VERTEX
  5
661
330
56D
100
AcDbEntity
  8
Make2D$可见线$普通线
100
AcDbVertex
100
AcDb2dVertex
 10
941.2682002084908
 20
649.7580349784939
 30
0.0
  0
VERTEX
  5
662
330
56D
100
AcDbEntity
  8
Make2D$可见线$普通线
100
AcDbVertex
100
AcDb2dVertex
 10
941.2688204856162
 20
649.7723938432508
 30
0.0
  0
VERTEX
  5
663
330
56D
100
AcDbEntity
  8
Make2D$可见线$普通线
100
AcDbVertex
100
AcDb2dVertex
 10
941.2690294347183
 20
649.7864973907099
 30
0.0
  0
VERTEX
  5
664
330
56D
100
AcDbEntity
  8
Make2D$可见线$普通线
100
AcDbVertex
100
AcDb2dVertex
 10
941.2688974903597
 20
649.7988931582586
 30
0.0
  0
VERTEX
  5
665
330
56D
100
AcDbEntity
  8
Make2D$可见线$普通线
100
AcDbVertex
100
AcDb2dVertex
 10
941.2684938902975
 20
649.8111342095922
 30
0.0
  0
VERTEX
  5
666
330
56D
100
AcDbEntity
  8
Make2D$可见线$普通线
100
AcDbVertex
100
AcDb2dVertex
 10
941.2678069840517
 20
649.8232048843216
 30
0.0
  0
VERTEX
  5
667
330
56D
100
AcDbEntity
  8
Make2D$可见线$普通线
100
AcDbVertex
100
AcDb2dVertex
 10
941.2668251211428
 20
649.8350895220581
 30
0.0
  0
VERTEX
  5
668
330
56D
100
AcDbEntity
  8
Make2D$可见线$普通线
100
AcDbVertex
100
AcDb2dVertex
 10
941.2655366510907
 20
649.8467724624127
 30
0.0
  0
VERTEX
  5
669
330
56D
100
AcDbEntity
  8
Make2D$可见线$普通线
100
AcDbVertex
100
AcDb2dVertex
 10
941.2639299234157
 20
649.8582380449967
 30
0.0
  0
VERTEX
  5
66A
330
56D
100
AcDbEntity
  8
Make2D$可见线$普通线
100
AcDbVertex
100
AcDb2dVertex
 10
941.261993287638
 20
649.8694706094213
 30
0.0
  0
VERTEX
  5
66B
330
56D
100
AcDbEntity
  8
Make2D$可见线$普通线
100
AcDbVertex
100
AcDb2dVertex
 10
941.2608976134358
 20
649.8749946159523
 30
0.0
  0
VERTEX
  5
66C
330
56D
100
AcDbEntity
  8
Make2D$可见线$普通线
100
AcDbVertex
100
AcDb2dVertex
 10
941.2597150932778
 20
649.8804544952977
 30
0.0
  0
VERTEX
  5
66D
330
56D
100
AcDbEntity
  8
Make2D$可见线$普通线
100
AcDbVertex
100
AcDb2dVertex
 10
941.2584442708542
 20
649.8858482899088
 30
0.0
  0
VERTEX
  5
66E
330
56D
100
AcDbEntity
  8
Make2D$可见线$普通线
100
AcDbVertex
100
AcDb2dVertex
 10
941.2570836898552
 20
649.8911740422369
 30
0.0
  0
VERTEX
  5
66F
330
56D
100
AcDbEntity
  8
Make2D$可见线$普通线
100
AcDbVertex
100
AcDb2dVertex
 10
941.2556318939705
 20
649.8964297947336
 30
0.0
  0
VERTEX
  5
670
330
56D
100
AcDbEntity
  8
Make2D$可见线$普通线
100
AcDbVertex
100
AcDb2dVertex
 10
941.2540874268906
 20
649.9016135898503
 30
0.0
  0
VERTEX
  5
671
330
56D
100
AcDbEntity
  8
Make2D$可见线$普通线
100
AcDbVertex
100
AcDb2dVertex
 10
941.252448832305
 20
649.9067234700383
 30
0.0
  0
VERTEX
  5
672
330
56D
100
AcDbEntity
  8
Make2D$可见线$普通线
100
AcDbVertex
100
AcDb2dVertex
 10
941.250714653904
 20
649.9117574777489
 30
0.0
  0
VERTEX
  5
673
330
56D
100
AcDbEntity
  8
Make2D$可见线$普通线
100
AcDbVertex
100
AcDb2dVertex
 10
941.2488834353776
 20
649.9167136554337
 30
0.0
  0
VERTEX
  5
674
330
56D
100
AcDbEntity
  8
Make2D$可见线$普通线
100
AcDbVertex
100
AcDb2dVertex
 10
941.2469537204157
 20
649.921590045544
 30
0.0
  0
VERTEX
  5
675
330
56D
100
AcDbEntity
  8
Make2D$可见线$普通线
100
AcDbVertex
100
AcDb2dVertex
 10
941.2449240527085
 20
649.9263846905312
 30
0.0
  0
VERTEX
  5
676
330
56D
100
AcDbEntity
  8
Make2D$可见线$普通线
100
AcDbVertex
100
AcDb2dVertex
 10
941.2427929759458
 20
649.9310956328466
 30
0.0
  0
VERTEX
  5
677
330
56D
100
AcDbEntity
  8
Make2D$可见线$普通线
100
AcDbVertex
100
AcDb2dVertex
 10
941.2405590338178
 20
649.9357209149418
 30
0.0
  0
VERTEX
  5
678
330
56D
100
AcDbEntity
  8
Make2D$可见线$普通线
100
AcDbVertex
100
AcDb2dVertex
 10
941.2382207700147
 20
649.940258579268
 30
0.0
  0
VERTEX
  5
679
330
56D
100
AcDbEntity
  8
Make2D$可见线$普通线
100
AcDbVertex
100
AcDb2dVertex
 10
941.2357767282261
 20
649.9447066682766
 30
0.0
  0
VERTEX
  5
67A
330
56D
100
AcDbEntity
  8
Make2D$可见线$普通线
100
AcDbVertex
100
AcDb2dVertex
 10
941.2332254521423
 20
649.9490632244192
 30
0.0
  0
VERTEX
  5
67B
330
56D
100
AcDbEntity
  8
Make2D$可见线$普通线
100
AcDbVertex
100
AcDb2dVertex
 10
941.2305654854533
 20
649.9533262901471
 30
0.0
  0
VERTEX
  5
67C
330
56D
100
AcDbEntity
  8
Make2D$可见线$普通线
100
AcDbVertex
100
AcDb2dVertex
 10
941.2277953718491
 20
649.9574939079116
 30
0.0
  0
VERTEX
  5
67D
330
56D
100
AcDbEntity
  8
Make2D$可见线$普通线
100
AcDbVertex
100
AcDb2dVertex
 10
941.2249136550197
 20
649.9615641201643
 30
0.0
  0
VERTEX
  5
67E
330
56D
100
AcDbEntity
  8
Make2D$可见线$普通线
100
AcDbVertex
100
AcDb2dVertex
 10
941.2219188786551
 20
649.9655349693563
 30
0.0
  0
VERTEX
  5
67F
330
56D
100
AcDbEntity
  8
Make2D$可见线$普通线
100
AcDbVertex
100
AcDb2dVertex
 10
941.2188095864453
 20
649.9694044979394
 30
0.0
  0
VERTEX
  5
680
330
56D
100
AcDbEntity
  8
Make2D$可见线$普通线
100
AcDbVertex
100
AcDb2dVertex
 10
941.2155843220804
 20
649.9731707483645
 30
0.0
  0
VERTEX
  5
681
330
56D
100
AcDbEntity
  8
Make2D$可见线$普通线
100
AcDbVertex
100
AcDb2dVertex
 10
941.2122416292505
 20
649.9768317630833
 30
0.0
  0
VERTEX
  5
682
330
56D
100
AcDbEntity
  8
Make2D$可见线$普通线
100
AcDbVertex
100
AcDb2dVertex
 10
941.2087800516454
 20
649.9803855845473
 30
0.0
  0
VERTEX
  5
683
330
56D
100
AcDbEntity
  8
Make2D$可见线$普通线
100
AcDbVertex
100
AcDb2dVertex
 10
941.2051981329553
 20
649.9838302552077
 30
0.0
  0
VERTEX
  5
684
330
56D
100
AcDbEntity
  8
Make2D$可见线$普通线
100
AcDbVertex
100
AcDb2dVertex
 10
941.2014944168701
 20
649.9871638175159
 30
0.0
  0
VERTEX
  5
685
330
56D
100
AcDbEntity
  8
Make2D$可见线$普通线
100
AcDbVertex
100
AcDb2dVertex
 10
941.19766744708
 20
649.9903843139233
 30
0.0
  0
VERTEX
  5
686
330
56D
100
AcDbEntity
  8
Make2D$可见线$普通线
100
AcDbVertex
100
AcDb2dVertex
 10
941.1937157672749
 20
649.9934897868814
 30
0.0
  0
VERTEX
  5
687
330
56D
100
AcDbEntity
  8
Make2D$可见线$普通线
100
AcDbVertex
100
AcDb2dVertex
 10
941.1896379211447
 20
649.9964782788416
 30
0.0
  0
VERTEX
  5
688
330
56D
100
AcDbEntity
  8
Make2D$可见线$普通线
100
AcDbVertex
100
AcDb2dVertex
 10
941.1854324523797
 20
649.9993478322551
 30
0.0
  0
VERTEX
  5
689
330
56D
100
AcDbEntity
  8
Make2D$可见线$普通线
100
AcDbVertex
100
AcDb2dVertex
 10
941.1810979046697
 20
650.0020964895734
 30
0.0
  0
VERTEX
  5
68A
330
56D
100
AcDbEntity
  8
Make2D$可见线$普通线
100
AcDbVertex
100
AcDb2dVertex
 10
941.176632821705
 20
650.004722293248
 30
0.0
  0
VERTEX
  5
68B
330
56D
100
AcDbEntity
  8
Make2D$可见线$普通线
100
AcDbVertex
100
AcDb2dVertex
 10
941.1720357471754
 20
650.0072232857303
 30
0.0
  0
VERTEX
  5
68C
330
56D
100
AcDbEntity
  8
Make2D$可见线$普通线
100
AcDbVertex
100
AcDb2dVertex
 10
941.167305224771
 20
650.0095975094716
 30
0.0
  0
VERTEX
  5
68D
330
56D
100
AcDbEntity
  8
Make2D$可见线$普通线
100
AcDbVertex
100
AcDb2dVertex
 10
941.1624397981818
 20
650.0118430069233
 30
0.0
  0
VERTEX
  5
68E
330
56D
100
AcDbEntity
  8
Make2D$可见线$普通线
100
AcDbVertex
100
AcDb2dVertex
 10
941.1574380110976
 20
650.0139578205369
 30
0.0
  0
VERTEX
  5
68F
330
56D
100
AcDbEntity
  8
Make2D$可见线$普通线
100
AcDbVertex
100
AcDb2dVertex
 10
941.1522984072087
 20
650.0159399927636
 30
0.0
  0
VERTEX
  5
690
330
56D
100
AcDbEntity
  8
Make2D$可见线$普通线
100
AcDbVertex
100
AcDb2dVertex
 10
941.1470195302053
 20
650.0177875660548
 30
0.0
  0
VERTEX
  5
691
330
56D
100
AcDbEntity
  8
Make2D$可见线$普通线
100
AcDbVertex
100
AcDb2dVertex
 10
941.141599923777
 20
650.0194985828621
 30
0.0
  0
VERTEX
  5
692
330
56D
100
AcDbEntity
  8
Make2D$可见线$普通线
100
AcDbVertex
100
AcDb2dVertex
 10
941.136038131614
 20
650.0210710856368
 30
0.0
  0
VERTEX
  5
693
330
56D
100
AcDbEntity
  8
Make2D$可见线$普通线
100
AcDbVertex
100
AcDb2dVertex
 10
941.1303326974065
 20
650.0225031168304
 30
0.0
  0
VERTEX
  5
694
330
56D
100
AcDbEntity
  8
Make2D$可见线$普通线
100
AcDbVertex
100
AcDb2dVertex
 10
941.1244821648443
 20
650.0237927188941
 30
0.0
  0
VERTEX
  5
695
330
56D
100
AcDbEntity
  8
Make2D$可见线$普通线
100
AcDbVertex
100
AcDb2dVertex
 10
941.1184850776175
 20
650.0249379342795
 30
0.0
  0
VERTEX
  5
696
330
56D
100
AcDbEntity
  8
Make2D$可见线$普通线
100
AcDbVertex
100
AcDb2dVertex
 10
941.112339979416
 20
650.0259368054378
 30
0.0
  0
VERTEX
  5
697
330
56D
100
AcDbEntity
  8
Make2D$可见线$普通线
100
AcDbVertex
100
AcDb2dVertex
 10
941.10604541393
 20
650.0267873748205
 30
0.0
  0
VERTEX
  5
698
330
56D
100
AcDbEntity
  8
Make2D$可见线$普通线
100
AcDbVertex
100
AcDb2dVertex
 10
941.0995999248494
 20
650.0274876848789
 30
0.0
  0
VERTEX
  5
699
330
56D
100
AcDbEntity
  8
Make2D$可见线$普通线
100
AcDbVertex
100
AcDb2dVertex
 10
941.0930020558643
 20
650.0280357780646
 30
0.0
  0
VERTEX
  5
69A
330
56D
100
AcDbEntity
  8
Make2D$可见线$普通线
100
AcDbVertex
100
AcDb2dVertex
 10
941.0862503506648
 20
650.0284296968287
 30
0.0
  0
VERTEX
  5
69B
330
56D
100
AcDbEntity
  8
Make2D$可见线$普通线
100
AcDbVertex
100
AcDb2dVertex
 10
941.0793433529408
 20
650.0286674836228
 30
0.0
  0
VERTEX
  5
69C
330
56D
100
AcDbEntity
  8
Make2D$可见线$普通线
100
AcDbVertex
100
AcDb2dVertex
 10
941.0722796063823
 20
650.0287471808983
 30
0.0
 42
0.2433762104838575
  0
VERTEX
  5
69D
330
56D
100
AcDbEntity
  8
Make2D$可见线$普通线
100
AcDbVertex
100
AcDb2dVertex
 10
940.7840294804951
 20
649.8677472877116
 30
0.0
 42
0.1664396334698361
  0
VERTEX
  5
69E
330
56D
100
AcDbEntity
  8
Make2D$可见线$普通线
100
AcDbVertex
100
AcDb2dVertex
 10
940.6610294347183
 20
649.4554972228607
 30
0.0
  0
VERTEX
  5
69F
330
56D
100
AcDbEntity
  8
Make2D$可见线$普通线
100
AcDbVertex
100
AcDb2dVertex
 10
940.6610294347183
 20
648.7425924469171
 30
0.0
  0
VERTEX
  5
6A0
330
56D
100
AcDbEntity
  8
Make2D$可见线$普通线
100
AcDbVertex
100
AcDb2dVertex
 10
940.6610294347183
 20
648.691247280082
 30
0.0
 42
-0.053440684454798
  0
VERTEX
  5
6A1
330
56D
100
AcDbEntity
  8
Make2D$可见线$普通线
100
AcDbVertex
100
AcDb2dVertex
 10
940.5980294499773
 20
648.5356223468402
 30
0.0
  0
VERTEX
  5
6A2
330
56D
100
AcDbEntity
  8
Make2D$可见线$普通线
100
AcDbVertex
100
AcDb2dVertex
 10
940.4215462000093
 20
648.2203161361587
 30
0.0
  0
VERTEX
  5
6A3
330
56D
100
AcDbEntity
  8
Make2D$可见线$普通线
100
AcDbVertex
100
AcDb2dVertex
 10
940.4737819331855
 20
648.1767504540826
 30
0.0
 42
0.0472899754222421
  0
VERTEX
  5
6A4
330
56D
100
AcDbEntity
  8
Make2D$可见线$普通线
100
AcDbVertex
100
AcDb2dVertex
 10
940.6610294347183
 20
648.4879973525624
 30
0.0
  0
VERTEX
  5
6A5
330
56D
100
AcDbEntity
  8
Make2D$可见线$普通线
100
AcDbVertex
100
AcDb2dVertex
 10
940.6610294347183
 20
647.8527471808984
 30
0.0
  0
VERTEX
  5
6A6
330
56D
100
AcDbEntity
  8
Make2D$可见线$普通线
100
AcDbVertex
100
AcDb2dVertex
 10
940.8370294347183
 20
647.9667472114163
 30
0.0
  0
SEQEND
  5
6A7
330
56D
100
AcDbEntity
  8
Make2D$可见线$普通线
  0
POLYLINE
  5
6A8
330
1F
100
AcDbEntity
  8
Make2D$可见线$普通线
100
AcDb2dPolyline
 66
     1
 10
0.0
 20
0.0
 30
0.0
  0
VERTEX
  5
6A9
330
6A8
100
AcDbEntity
  8
Make2D$可见线$普通线
100
AcDbVertex
100
AcDb2dVertex
 10
954.0820033018588
 20
647.9249973067853
 30
0.0
  0
VERTEX
  5
6AA
330
6A8
100
AcDbEntity
  8
Make2D$可见线$普通线
100
AcDbVertex
100
AcDb2dVertex
 10
954.0960032713408
 20
647.8847471808984
 30
0.0
 42
0.2351849803444631
  0
VERTEX
  5
6AB
330
6A8
100
AcDbEntity
  8
Make2D$可见线$普通线
100
AcDbVertex
100
AcDb2dVertex
 10
954.6110030729737
 20
648.2267472724523
 30
0.0
  0
VERTEX
  5
6AC
330
6A8
100
AcDbEntity
  8
Make2D$可见线$普通线
100
AcDbVertex
100
AcDb2dVertex
 10
954.5530031645276
 20
648.2687471808983
 30
0.0
 42
-0.2030578933888832
  0
VERTEX
  5
6AD
330
6A8
100
AcDbEntity
  8
Make2D$可见线$普通线
100
AcDbVertex
100
AcDb2dVertex
 10
954.0820033018588
 20
647.9249973067853
 30
0.0
  0
SEQEND
  5
6AE
330
6A8
100
AcDbEntity
  8
Make2D$可见线$普通线
  0
POLYLINE
  5
6AF
330
1F
100
AcDbEntity
  8
Make2D$可见线$普通线
100
AcDb2dPolyline
 66
     1
 10
0.0
 20
0.0
 30
0.0
  0
VERTEX
  5
6B0
330
6AF
100
AcDbEntity
  8
Make2D$可见线$普通线
100
AcDbVertex
100
AcDb2dVertex
 10
944.8195296559741
 20
647.8527471808984
 30
0.0
 42
0.2376427819796055
  0
VERTEX
  5
6B1
330
6AF
100
AcDbEntity
  8
Make2D$可见线$普通线
100
AcDbVertex
100
AcDb2dVertex
 10
945.3330294347182
 20
648.1947472724524
 30
0.0
  0
VERTEX
  5
6B2
330
6AF
100
AcDbEntity
  8
Make2D$可见线$普通线
100
AcDbVertex
100
AcDb2dVertex
 10
945.2767795529758
 20
648.2367471808983
 30
0.0
 42
-0.1978468026516596
  0
VERTEX
  5
6B3
330
6AF
100
AcDbEntity
  8
Make2D$可见线$普通线
100
AcDbVertex
100
AcDb2dVertex
 10
944.8037796597889
 20
647.8929973067853
 30
0.0
  0
VERTEX
  5
6B4
330
6AF
100
AcDbEntity
  8
Make2D$可见线$普通线
100
AcDbVertex
100
AcDb2dVertex
 10
944.8195296559741
 20
647.8527471808984
 30
0.0
  0
SEQEND
  5
6B5
330
6AF
100
AcDbEntity
  8
Make2D$可见线$普通线
  0
POLYLINE
  5
6B6
330
1F
100
AcDbEntity
  8
Make2D$可见线$普通线
100
AcDb2dPolyline
 66
     1
 10
0.0
 20
0.0
 30
0.0
  0
VERTEX
  5
6B7
330
6B6
100
AcDbEntity
  8
Make2D$可见线$普通线
100
AcDbVertex
100
AcDb2dVertex
 10
953.6193290225312
 20
651.1744141892257
 30
0.0
 42
0.6772871854970666
  0
VERTEX
  5
6B8
330
6B6
100
AcDbEntity
  8
Make2D$可见线$普通线
100
AcDbVertex
100
AcDb2dVertex
 10
941.4479151202336
 20
651.1744141892257
 30
0.0
  0
VERTEX
  5
6B9
330
6B6
100
AcDbEntity
  8
Make2D$可见线$普通线
100
AcDbVertex
100
AcDb2dVertex
 10
941.5407757328163
 20
651.1373074966925
 30
0.0
 42
-0.6772872342491602
  0
VERTEX
  5
6BA
330
6B6
100
AcDbEntity
  8
Make2D$可见线$普通线
100
AcDbVertex
100
AcDb2dVertex
 10
953.5264684099483
 20
651.1373074966924
 30
0.0
  0
VERTEX
  5
6BB
330
6B6
100
AcDbEntity
  8
Make2D$可见线$普通线
100
AcDbVertex
100
AcDb2dVertex
 10
953.6193290225312
 20
651.1744141892257
 30
0.0
  0
SEQEND
  5
6BC
330
6B6
100
AcDbEntity
  8
Make2D$可见线$普通线
  0
ENDSEC
  0
SECTION
  2
OBJECTS
  0
DICTIONARY
  5
C
330
0
100
AcDbDictionary
281
     1
  3
ACAD_GROUP
350
D
  3
ACAD_LAYOUT
350
1A
  3
ACAD_MATERIAL
350
3B
  3
ACAD_MLEADERSTYLE
350
6E7
  3
ACAD_MLINESTYLE
350
17
  3
ACAD_PLOTSETTINGS
350
19
  3
ACAD_PLOTSTYLENAME
350
E
  3
ACAD_SCALELIST
350
3F
  3
ACAD_TABLESTYLE
350
6E6
  3
ACAD_VISUALSTYLE
350
2A
  3
AcDbVariableDictionary
350
6BD
  0
DICTIONARY
  5
D
102
{ACAD_REACTORS
330
C
102
}
330
C
100
AcDbDictionary
281
     1
  0
DICTIONARY
  5
1A
102
{ACAD_REACTORS
330
C
102
}
330
C
100
AcDbDictionary
281
     1
  3
Layout1
350
1E
  3
Layout2
350
26
  3
Model
350
22
  0
DICTIONARY
  5
3B
102
{ACAD_REACTORS
330
C
102
}
330
C
100
AcDbDictionary
281
     1
  3
ByBlock
350
3D
  3
ByLayer
350
3C
  3
Global
350
3E
  0
DICTIONARY
  5
6E7
102
{ACAD_REACTORS
330
C
102
}
330
C
100
AcDbDictionary
281
     1
  0
DICTIONARY
  5
17
102
{ACAD_REACTORS
330
C
102
}
330
C
100
AcDbDictionary
281
     1
  3
Standard
350
18
  0
DICTIONARY
  5
19
102
{ACAD_REACTORS
330
C
102
}
330
C
100
AcDbDictionary
281
     1
  0
ACDBDICTIONARYWDFLT
  5
E
102
{ACAD_REACTORS
330
C
102
}
330
C
100
AcDbDictionary
281
     1
  3
Normal
350
F
100
AcDbDictionaryWithDefault
340
F
  0
DICTIONARY
  5
3F
102
{ACAD_REACTORS
330
C
102
}
330
C
100
AcDbDictionary
281
     1
  3
A0
350
40
  3
A1
350
41
  3
A2
350
42
  3
A3
350
43
  3
A4
350
44
  3
A5
350
45
  3
A6
350
46
  3
A7
350
47
  3
A8
350
48
  3
A9
350
49
  3
B0
350
4A
  3
B1
350
4B
  3
B2
350
4C
  3
B3
350
4D
  3
B4
350
4E
  3
B5
350
4F
  3
B6
350
50
  3
B7
350
51
  3
B8
350
52
  3
B9
350
53
  3
C0
350
54
  3
C1
350
55
  3
C2
350
56
  3
C3
350
57
  3
C4
350
58
  3
C5
350
59
  3
C6
350
5A
  3
C7
350
5B
  3
C8
350
5C
  3
C9
350
5D
  3
D0
350
5E
  3
D1
350
5F
  3
D2
350
60
  0
DICTIONARY
  5
6E6
102
{ACAD_REACTORS
330
C
102
}
330
C
100
AcDbDictionary
281
     1
  0
DICTIONARY
  5
2A
102
{ACAD_REACTORS
330
C
102
}
330
C
100
AcDbDictionary
281
     1
  3
2dWireframe
350
2F
  3
3D Hidden
350
31
  3
3dWireframe
350
30
  3
Basic
350
32
  3
Brighten
350
36
  3
ColorChange
350
3A
  3
Conceptual
350
34
  3
Dim
350
35
  3
Facepattern
350
39
  3
Flat
350
2B
  3
FlatWithEdges
350
2C
  3
Gouraud
350
2D
  3
GouraudWithEdges
350
2E
  3
Linepattern
350
38
  3
Realistic
350
33
  3
Thicken
350
37
  0
DICTIONARY
  5
6BD
102
{ACAD_REACTORS
330
C
102
}
330
C
100
AcDbDictionary
281
     1
  3
CANNOSCALE
350
6BE
  3
MSLTSCALE
350
6BF
  0
LAYOUT
  5
1E
102
{ACAD_REACTORS
330
1A
102
}
330
1A
100
AcDbPlotSettings
  1

  2
none_device
  4

  6

 40
0.0
 41
0.0
 42
0.0
 43
0.0
 44
0.0
 45
0.0
 46
0.0
 47
0.0
 48
0.0
 49
0.0
140
0.0
141
0.0
142
1.0
143
1.0
 70
   688
 72
     0
 73
     0
 74
     5
  7

 75
    16
 76
     0
 77
     2
 78
   300
147
1.0
148
0.0
149
0.0
100
AcDbLayout
  1
Layout1
 70
     1
 71
     1
 10
0.0
 20
0.0
 11
12.0
 21
9.0
 12
0.0
 22
0.0
 32
0.0
 14
1.000000000000000E+20
 24
1.000000000000000E+20
 34
1.000000000000000E+20
 15
-1.000000000000000E+20
 25
-1.000000000000000E+20
 35
-1.000000000000000E+20
146
0.0
 13
0.0
 23
0.0
 33
0.0
 16
1.0
 26
0.0
 36
0.0
 17
0.0
 27
1.0
 37
0.0
 76
     0
330
1B
  0
LAYOUT
  5
26
102
{ACAD_REACTORS
330
1A
102
}
330
1A
100
AcDbPlotSettings
  1

  2
none_device
  4

  6

 40
0.0
 41
0.0
 42
0.0
 43
0.0
 44
0.0
 45
0.0
 46
0.0
 47
0.0
 48
0.0
 49
0.0
140
0.0
141
0.0
142
1.0
143
1.0
 70
   688
 72
     0
 73
     0
 74
     5
  7

 75
    16
 76
     0
 77
     2
 78
   300
147
1.0
148
0.0
149
0.0
100
AcDbLayout
  1
Layout2
 70
     1
 71
     2
 10
0.0
 20
0.0
 11
0.0
 21
0.0
 12
0.0
 22
0.0
 32
0.0
 14
0.0
 24
0.0
 34
0.0
 15
0.0
 25
0.0
 35
0.0
146
0.0
 13
0.0
 23
0.0
 33
0.0
 16
1.0
 26
0.0
 36
0.0
 17
0.0
 27
1.0
 37
0.0
 76
     0
330
23
  0
LAYOUT
  5
22
102
{ACAD_REACTORS
330
1A
102
}
330
1A
100
AcDbPlotSettings
  1

  2
none_device
  4
Letter_(8.50_x_11.00_Inches)
  6

 40
6.35
 41
6.35
 42
6.35000508
 43
6.35000508
 44
215.9
 45
279.4
 46
0.0
 47
0.0
 48
0.0
 49
0.0
140
0.0
141
0.0
142
1.0
143
1.0
 70
  1712
 72
     0
 73
     0
 74
     0
  7

 75
     0
 76
     0
 77
     2
 78
   300
147
1.0
148
0.0
149
0.0
100
AcDbLayout
  1
Model
 70
     1
 71
     0
 10
0.0
 20
0.0
 11
12.0
 21
9.0
 12
0.0
 22
0.0
 32
0.0
 14
877.5247669089224
 24
508.3101841083326
 34
0.0
 15
1017.542477233842
 25
715.3102619216057
 35
0.0
146
0.0
 13
0.0
 23
0.0
 33
0.0
 16
1.0
 26
0.0
 36
0.0
 17
0.0
 27
1.0
 37
0.0
 76
     0
330
1F
331
29
  0
MATERIAL
  5
3D
102
{ACAD_REACTORS
330
3B
102
}
102
{ACAD_XDICTIONARY
360
6E2
102
}
330
3B
100
AcDbMaterial
  1
ByBlock
  0
MATERIAL
  5
3C
102
{ACAD_REACTORS
330
3B
102
}
102
{ACAD_XDICTIONARY
360
6E0
102
}
330
3B
100
AcDbMaterial
  1
ByLayer
  0
MATERIAL
  5
3E
102
{ACAD_REACTORS
330
3B
102
}
102
{ACAD_XDICTIONARY
360
6E4
102
}
330
3B
100
AcDbMaterial
  1
Global
  0
MLINESTYLE
  5
18
102
{ACAD_REACTORS
330
17
102
}
330
17
100
AcDbMlineStyle
  2
Standard
 70
     0
  3

 62
   256
 51
90.0
 52
90.0
 71
     2
 49
0.5
 62
   256
  6
BYLAYER
 49
-0.5
 62
   256
  6
BYLAYER
  0
ACDBPLACEHOLDER
  5
F
102
{ACAD_REACTORS
330
E
102
}
330
E
  0
SCALE
  5
40
102
{ACAD_REACTORS
330
3F
102
}
330
3F
100
AcDbScale
 70
     0
300
1:1
140
1.0
141
1.0
290
     1
  0
SCALE
  5
41
102
{ACAD_REACTORS
330
3F
102
}
330
3F
100
AcDbScale
 70
     0
300
1:2
140
1.0
141
2.0
290
     0
  0
SCALE
  5
42
102
{ACAD_REACTORS
330
3F
102
}
330
3F
100
AcDbScale
 70
     0
300
1:4
140
1.0
141
4.0
290
     0
  0
SCALE
  5
43
102
{ACAD_REACTORS
330
3F
102
}
330
3F
100
AcDbScale
 70
     0
300
1:5
140
1.0
141
5.0
290
     0
  0
SCALE
  5
44
102
{ACAD_REACTORS
330
3F
102
}
330
3F
100
AcDbScale
 70
     0
300
1:8
140
1.0
141
8.0
290
     0
  0
SCALE
  5
45
102
{ACAD_REACTORS
330
3F
102
}
330
3F
100
AcDbScale
 70
     0
300
1:10
140
1.0
141
10.0
290
     0
  0
SCALE
  5
46
102
{ACAD_REACTORS
330
3F
102
}
330
3F
100
AcDbScale
 70
     0
300
1:16
140
1.0
141
16.0
290
     0
  0
SCALE
  5
47
102
{ACAD_REACTORS
330
3F
102
}
330
3F
100
AcDbScale
 70
     0
300
1:20
140
1.0
141
20.0
290
     0
  0
SCALE
  5
48
102
{ACAD_REACTORS
330
3F
102
}
330
3F
100
AcDbScale
 70
     0
300
1:30
140
1.0
141
30.0
290
     0
  0
SCALE
  5
49
102
{ACAD_REACTORS
330
3F
102
}
330
3F
100
AcDbScale
 70
     0
300
1:40
140
1.0
141
40.0
290
     0
  0
SCALE
  5
4A
102
{ACAD_REACTORS
330
3F
102
}
330
3F
100
AcDbScale
 70
     0
300
1:50
140
1.0
141
50.0
290
     0
  0
SCALE
  5
4B
102
{ACAD_REACTORS
330
3F
102
}
330
3F
100
AcDbScale
 70
     0
300
1:100
140
1.0
141
100.0
290
     0
  0
SCALE
  5
4C
102
{ACAD_REACTORS
330
3F
102
}
330
3F
100
AcDbScale
 70
     0
300
2:1
140
2.0
141
1.0
290
     0
  0
SCALE
  5
4D
102
{ACAD_REACTORS
330
3F
102
}
330
3F
100
AcDbScale
 70
     0
300
4:1
140
4.0
141
1.0
290
     0
  0
SCALE
  5
4E
102
{ACAD_REACTORS
330
3F
102
}
330
3F
100
AcDbScale
 70
     0
300
8:1
140
8.0
141
1.0
290
     0
  0
SCALE
  5
4F
102
{ACAD_REACTORS
330
3F
102
}
330
3F
100
AcDbScale
 70
     0
300
10:1
140
10.0
141
1.0
290
     0
  0
SCALE
  5
50
102
{ACAD_REACTORS
330
3F
102
}
330
3F
100
AcDbScale
 70
     0
300
100:1
140
100.0
141
1.0
290
     0
  0
SCALE
  5
51
102
{ACAD_REACTORS
330
3F
102
}
330
3F
100
AcDbScale
 70
     0
300
1/128" = 1'-0"
140
0.0078125
141
12.0
290
     0
  0
SCALE
  5
52
102
{ACAD_REACTORS
330
3F
102
}
330
3F
100
AcDbScale
 70
     0
300
1/64" = 1'-0"
140
0.015625
141
12.0
290
     0
  0
SCALE
  5
53
102
{ACAD_REACTORS
330
3F
102
}
330
3F
100
AcDbScale
 70
     0
300
1/32" = 1'-0"
140
0.03125
141
12.0
290
     0
  0
SCALE
  5
54
102
{ACAD_REACTORS
330
3F
102
}
330
3F
100
AcDbScale
 70
     0
300
1/16" = 1'-0"
140
0.0625
141
12.0
290
     0
  0
SCALE
  5
55
102
{ACAD_REACTORS
330
3F
102
}
330
3F
100
AcDbScale
 70
     0
300
3/32" = 1'-0"
140
0.09375
141
12.0
290
     0
  0
SCALE
  5
56
102
{ACAD_REACTORS
330
3F
102
}
330
3F
100
AcDbScale
 70
     0
300
1/8" = 1'-0"
140
0.125
141
12.0
290
     0
  0
SCALE
  5
57
102
{ACAD_REACTORS
330
3F
102
}
330
3F
100
AcDbScale
 70
     0
300
3/16" = 1'-0"
140
0.1875
141
12.0
290
     0
  0
SCALE
  5
58
102
{ACAD_REACTORS
330
3F
102
}
330
3F
100
AcDbScale
 70
     0
300
1/4" = 1'-0"
140
0.25
141
12.0
290
     0
  0
SCALE
  5
59
102
{ACAD_REACTORS
330
3F
102
}
330
3F
100
AcDbScale
 70
     0
300
3/8" = 1'-0"
140
0.375
141
12.0
290
     0
  0
SCALE
  5
5A
102
{ACAD_REACTORS
330
3F
102
}
330
3F
100
AcDbScale
 70
     0
300
1/2" = 1'-0"
140
0.5
141
12.0
290
     0
  0
SCALE
  5
5B
102
{ACAD_REACTORS
330
3F
102
}
330
3F
100
AcDbScale
 70
     0
300
3/4" = 1'-0"
140
0.75
141
12.0
290
     0
  0
SCALE
  5
5C
102
{ACAD_REACTORS
330
3F
102
}
330
3F
100
AcDbScale
 70
     0
300
1" = 1'-0"
140
1.0
141
12.0
290
     0
  0
SCALE
  5
5D
102
{ACAD_REACTORS
330
3F
102
}
330
3F
100
AcDbScale
 70
     0
300
1-1/2" = 1'-0"
140
1.5
141
12.0
290
     0
  0
SCALE
  5
5E
102
{ACAD_REACTORS
330
3F
102
}
330
3F
100
AcDbScale
 70
     0
300
3" = 1'-0"
140
3.0
141
12.0
290
     0
  0
SCALE
  5
5F
102
{ACAD_REACTORS
330
3F
102
}
330
3F
100
AcDbScale
 70
     0
300
6" = 1'-0"
140
6.0
141
12.0
290
     0
  0
SCALE
  5
60
102
{ACAD_REACTORS
330
3F
102
}
330
3F
100
AcDbScale
 70
     0
300
1'-0" = 1'-0"
140
12.0
141
12.0
290
     0
  0
VISUALSTYLE
  5
2F
102
{ACAD_REACTORS
330
2A
102
}
102
{ACAD_XDICTIONARY
360
6C8
102
}
330
2A
100
AcDbVisualStyle
  2
2dWireframe
 70
     4
 71
     0
 72
     2
 73
     0
 90
        0
 40
0.6
 41
30.0
 62
     5
 63
     7
421
 16777215
 74
     1
 91
        4
 64
     7
 65
   257
 75
     1
175
     1
 42
1.0
 92
        0
 66
   257
 43
1.0
 76
     1
 77
     6
 78
     2
 67
     7
 79
     5
170
     0
171
     0
290
     0
174
     0
 93
        1
 44
0.0
173
     0
291
     0
 45
0.0
1001
ACAD
1000
AcDbSavedByObjectVersion
1070
     0
  0
VISUALSTYLE
  5
31
102
{ACAD_REACTORS
330
2A
102
}
102
{ACAD_XDICTIONARY
360
6CC
102
}
330
2A
100
AcDbVisualStyle
  2
3D Hidden
 70
     6
 71
     1
 72
     2
 73
     2
 90
        0
 40
0.6
 41
30.0
 62
     5
 63
     7
421
 16777215
 74
     2
 91
        2
 64
     7
 65
   257
 75
     2
175
     1
 42
40.0
 92
        0
 66
   257
 43
1.0
 76
     1
 77
     6
 78
     2
 67
     7
 79
     3
170
     0
171
     0
290
     0
174
     0
 93
        1
 44
0.0
173
     0
291
     0
 45
0.0
1001
ACAD
1000
AcDbSavedByObjectVersion
1070
     0
  0
VISUALSTYLE
  5
30
102
{ACAD_REACTORS
330
2A
102
}
102
{ACAD_XDICTIONARY
360
6CA
102
}
330
2A
100
AcDbVisualStyle
  2
3dWireframe
 70
     5
 71
     0
 72
     2
 73
     0
 90
        0
 40
0.6
 41
30.0
 62
     5
 63
     7
421
 16777215
 74
     1
 91
        4
 64
     7
 65
   257
 75
     1
175
     1
 42
1.0
 92
        0
 66
   257
 43
1.0
 76
     1
 77
     6
 78
     2
 67
     7
 79
     5
170
     0
171
     0
290
     0
174
     0
 93
        1
 44
0.0
173
     0
291
     0
 45
0.0
1001
ACAD
1000
AcDbSavedByObjectVersion
1070
     0
  0
VISUALSTYLE
  5
32
102
{ACAD_REACTORS
330
2A
102
}
102
{ACAD_XDICTIONARY
360
6CE
102
}
330
2A
100
AcDbVisualStyle
  2
Basic
 70
     7
 71
     1
 72
     0
 73
     1
 90
        0
 40
0.6
 41
30.0
 62
     5
 63
     7
421
 16777215
 74
     0
 91
        4
 64
     7
 65
   257
 75
     1
175
     1
 42
1.0
 92
        8
 66
     7
 43
1.0
 76
     1
 77
     6
 78
     2
 67
     7
 79
     5
170
     0
171
     0
290
     0
174
     0
 93
        1
 44
0.0
173
     0
291
     1
 45
0.0
1001
ACAD
1000
AcDbSavedByObjectVersion
1070
     0
  0
VISUALSTYLE
  5
36
102
{ACAD_REACTORS
330
2A
102
}
102
{ACAD_XDICTIONARY
360
6D6
102
}
330
2A
100
AcDbVisualStyle
  2
Brighten
 70
    12
 71
     2
 72
     2
 73
     0
 90
        0
 40
0.6
 41
30.0
 62
     5
 63
     7
421
 16777215
 74
     1
 91
        4
 64
     7
 65
   257
 75
     1
175
     1
 42
1.0
 92
        8
 66
     7
 43
1.0
 76
     1
 77
     6
 78
     2
 67
     7
 79
     5
170
     0
171
     0
290
     0
174
     0
 93
        1
 44
50.0
173
     0
291
     1
 45
0.0
1001
ACAD
1000
AcDbSavedByObjectVersion
1070
     0
  0
VISUALSTYLE
  5
3A
102
{ACAD_REACTORS
330
2A
102
}
102
{ACAD_XDICTIONARY
360
6DE
102
}
330
2A
100
AcDbVisualStyle
  2
ColorChange
 70
    16
 71
     2
 72
     2
 73
     3
 90
        0
 40
0.6
 41
30.0
 62
     5
 63
     8
421
  8421504
 74
     1
 91
        4
 64
     7
 65
   257
 75
     1
175
     1
 42
1.0
 92
        8
 66
     8
424
  8421504
 43
1.0
 76
     1
 77
     6
 78
     2
 67
     7
 79
     5
170
     0
171
     0
290
     0
174
     0
 93
        1
 44
0.0
173
     0
291
     1
 45
0.0
1001
ACAD
1000
AcDbSavedByObjectVersion
1070
     0
  0
VISUALSTYLE
  5
34
102
{ACAD_REACTORS
330
2A
102
}
102
{ACAD_XDICTIONARY
360
6D2
102
}
330
2A
100
AcDbVisualStyle
  2
Conceptual
 70
     9
 71
     3
 72
     2
 73
     0
 90
        0
 40
0.6
 41
30.0
 62
     5
 63
     7
421
 16777215
 74
     2
 91
        2
 64
     7
 65
   257
 75
     1
175
     1
 42
40.0
 92
        8
 66
     7
 43
1.0
 76
     1
 77
     6
 78
     2
 67
     7
 79
     3
170
     0
171
     0
290
     0
174
     0
 93
        1
 44
0.0
173
     0
291
     0
 45
0.0
1001
ACAD
1000
AcDbSavedByObjectVersion
1070
     0
  0
VISUALSTYLE
  5
35
102
{ACAD_REACTORS
330
2A
102
}
102
{ACAD_XDICTIONARY
360
6D4
102
}
330
2A
100
AcDbVisualStyle
  2
Dim
 70
    11
 71
     2
 72
     2
 73
     0
 90
        0
 40
0.6
 41
30.0
 62
     5
 63
     7
421
 16777215
 74
     1
 91
        4
 64
     7
 65
   257
 75
     1
175
     1
 42
1.0
 92
        8
 66
     7
 43
1.0
 76
     1
 77
     6
 78
     2
 67
     7
 79
     5
170
     0
171
     0
290
     0
174
     0
 93
        1
 44
-50.0
173
     0
291
     1
 45
0.0
1001
ACAD
1000
AcDbSavedByObjectVersion
1070
     0
  0
VISUALSTYLE
  5
39
102
{ACAD_REACTORS
330
2A
102
}
102
{ACAD_XDICTIONARY
360
6DC
102
}
330
2A
100
AcDbVisualStyle
  2
Facepattern
 70
    15
 71
     2
 72
     2
 73
     0
 90
        0
 40
0.6
 41
30.0
 62
     5
 63
     7
421
 16777215
 74
     1
 91
        4
 64
     7
 65
   257
 75
     1
175
     1
 42
1.0
 92
        8
 66
     7
 43
1.0
 76
     1
 77
     6
 78
     2
 67
     7
 79
     5
170
     0
171
     0
290
     0
174
     0
 93
        1
 44
0.0
173
     0
291
     1
 45
0.0
1001
ACAD
1000
AcDbSavedByObjectVersion
1070
     0
  0
VISUALSTYLE
  5
2B
102
{ACAD_REACTORS
330
2A
102
}
102
{ACAD_XDICTIONARY
360
6C0
102
}
330
2A
100
AcDbVisualStyle
  2
Flat
 70
     0
 71
     2
 72
     1
 73
     1
 90
        2
 40
0.6
 41
30.0
 62
     5
 63
     7
421
 16777215
 74
     0
 91
        4
 64
     7
 65
   257
 75
     1
175
     1
 42
1.0
 92
        8
 66
     7
 43
1.0
 76
     1
 77
     6
 78
     2
 67
     7
 79
     5
170
     0
171
     0
290
     0
174
     0
 93
       13
 44
0.0
173
     0
291
     1
 45
0.0
1001
ACAD
1000
AcDbSavedByObjectVersion
1070
     0
  0
VISUALSTYLE
  5
2C
102
{ACAD_REACTORS
330
2A
102
}
102
{ACAD_XDICTIONARY
360
6C2
102
}
330
2A
100
AcDbVisualStyle
  2
FlatWithEdges
 70
     1
 71
     2
 72
     1
 73
     1
 90
        2
 40
0.6
 41
30.0
 62
     5
 63
     7
421
 16777215
 74
     1
 91
        4
 64
     7
 65
   257
 75
     1
175
     1
 42
1.0
 92
        0
 66
   257
 43
1.0
 76
     1
 77
     6
 78
     2
 67
     7
 79
     5
170
     0
171
     0
290
     0
174
     0
 93
       13
 44
0.0
173
     0
291
     1
 45
0.0
1001
ACAD
1000
AcDbSavedByObjectVersion
1070
     0
  0
VISUALSTYLE
  5
2D
102
{ACAD_REACTORS
330
2A
102
}
102
{ACAD_XDICTIONARY
360
6C4
102
}
330
2A
100
AcDbVisualStyle
  2
Gouraud
 70
     2
 71
     2
 72
     2
 73
     1
 90
        2
 40
0.6
 41
30.0
 62
     5
 63
     7
421
 16777215
 74
     0
 91
        4
 64
     7
 65
   257
 75
     1
175
     1
 42
1.0
 92
        0
 66
     7
 43
1.0
 76
     1
 77
     6
 78
     2
 67
     7
 79
     5
170
     0
171
     0
290
     0
174
     0
 93
       13
 44
0.0
173
     0
291
     1
 45
0.0
1001
ACAD
1000
AcDbSavedByObjectVersion
1070
     0
  0
VISUALSTYLE
  5
2E
102
{ACAD_REACTORS
330
2A
102
}
102
{ACAD_XDICTIONARY
360
6C6
102
}
330
2A
100
AcDbVisualStyle
  2
GouraudWithEdges
 70
     3
 71
     2
 72
     2
 73
     1
 90
        2
 40
0.6
 41
30.0
 62
     5
 63
     7
421
 16777215
 74
     1
 91
        4
 64
     7
 65
   257
 75
     1
175
     1
 42
1.0
 92
        0
 66
   257
 43
1.0
 76
     1
 77
     6
 78
     2
 67
     7
 79
     5
170
     0
171
     0
290
     0
174
     0
 93
       13
 44
0.0
173
     0
291
     1
 45
0.0
1001
ACAD
1000
AcDbSavedByObjectVersion
1070
     0
  0
VISUALSTYLE
  5
38
102
{ACAD_REACTORS
330
2A
102
}
102
{ACAD_XDICTIONARY
360
6DA
102
}
330
2A
100
AcDbVisualStyle
  2
Linepattern
 70
    14
 71
     2
 72
     2
 73
     0
 90
        0
 40
0.6
 41
30.0
 62
     5
 63
     7
421
 16777215
 74
     1
 91
        4
 64
     7
 65
   257
 75
     7
175
     7
 42
1.0
 92
        8
 66
     7
 43
1.0
 76
     1
 77
     6
 78
     2
 67
     7
 79
     5
170
     0
171
     0
290
     0
174
     0
 93
        1
 44
0.0
173
     0
291
     1
 45
0.0
1001
ACAD
1000
AcDbSavedByObjectVersion
1070
     0
  0
VISUALSTYLE
  5
33
102
{ACAD_REACTORS
330
2A
102
}
102
{ACAD_XDICTIONARY
360
6D0
102
}
330
2A
100
AcDbVisualStyle
  2
Realistic
 70
     8
 71
     2
 72
     3
 73
     0
 90
        2
 40
0.6
 41
30.0
 62
     5
 63
     7
421
 16777215
 74
     0
 91
        0
 64
     7
 65
   257
 75
     1
175
     1
 42
1.0
 92
        8
 66
   257
 43
1.0
 76
     1
 77
     6
 78
     2
 67
     7
 79
     3
170
     0
171
     0
290
     0
174
     0
 93
       13
 44
0.0
173
     0
291
     0
 45
0.0
1001
ACAD
1000
AcDbSavedByObjectVersion
1070
     0
  0
VISUALSTYLE
  5
37
102
{ACAD_REACTORS
330
2A
102
}
102
{ACAD_XDICTIONARY
360
6D8
102
}
330
2A
100
AcDbVisualStyle
  2
Thicken
 70
    13
 71
     2
 72
     2
 73
     0
 90
        0
 40
0.6
 41
30.0
 62
     5
 63
     7
421
 16777215
 74
     1
 91
        4
 64
     7
 65
   257
 75
     1
175
     1
 42
1.0
 92
       12
 66
     7
 43
1.0
 76
     1
 77
     6
 78
     2
 67
     7
 79
     5
170
     0
171
     0
290
     0
174
     0
 93
        1
 44
0.0
173
     0
291
     1
 45
0.0
1001
ACAD
1000
AcDbSavedByObjectVersion
1070
     0
  0
DICTIONARYVAR
  5
6BE
102
{ACAD_REACTORS
330
6BD
102
}
330
6BD
100
DictionaryVariables
280
     0
  1
1:1
  0
DICTIONARYVAR
  5
6BF
102
{ACAD_REACTORS
330
6BD
102
}
330
6BD
100
DictionaryVariables
280
     0
  1
1
  0
DICTIONARY
  5
6E2
330
3D
100
AcDbDictionary
280
     1
281
     1
  3
ACAD_XREC_ROUNDTRIP
360
6E3
  0
DICTIONARY
  5
6E0
330
3C
100
AcDbDictionary
280
     1
281
     1
  3
ACAD_XREC_ROUNDTRIP
360
6E1
  0
DICTIONARY
  5
6E4
330
3E
100
AcDbDictionary
280
     1
281
     1
  3
ACAD_XREC_ROUNDTRIP
360
6E5
  0
DICTIONARY
  5
6C8
330
2F
100
AcDbDictionary
280
     1
281
     1
  3
ACAD_XREC_ROUNDTRIP
360
6C9
  0
DICTIONARY
  5
6CC
330
31
100
AcDbDictionary
280
     1
281
     1
  3
ACAD_XREC_ROUNDTRIP
360
6CD
  0
DICTIONARY
  5
6CA
330
30
100
AcDbDictionary
280
     1
281
     1
  3
ACAD_XREC_ROUNDTRIP
360
6CB
  0
DICTIONARY
  5
6CE
330
32
100
AcDbDictionary
280
     1
281
     1
  3
ACAD_XREC_ROUNDTRIP
360
6CF
  0
DICTIONARY
  5
6D6
330
36
100
AcDbDictionary
280
     1
281
     1
  3
ACAD_XREC_ROUNDTRIP
360
6D7
  0
DICTIONARY
  5
6DE
330
3A
100
AcDbDictionary
280
     1
281
     1
  3
ACAD_XREC_ROUNDTRIP
360
6DF
  0
DICTIONARY
  5
6D2
330
34
100
AcDbDictionary
280
     1
281
     1
  3
ACAD_XREC_ROUNDTRIP
360
6D3
  0
DICTIONARY
  5
6D4
330
35
100
AcDbDictionary
280
     1
281
     1
  3
ACAD_XREC_ROUNDTRIP
360
6D5
  0
DICTIONARY
  5
6DC
330
39
100
AcDbDictionary
280
     1
281
     1
  3
ACAD_XREC_ROUNDTRIP
360
6DD
  0
DICTIONARY
  5
6C0
330
2B
100
AcDbDictionary
280
     1
281
     1
  3
ACAD_XREC_ROUNDTRIP
360
6C1
  0
DICTIONARY
  5
6C2
330
2C
100
AcDbDictionary
280
     1
281
     1
  3
ACAD_XREC_ROUNDTRIP
360
6C3
  0
DICTIONARY
  5
6C4
330
2D
100
AcDbDictionary
280
     1
281
     1
  3
ACAD_XREC_ROUNDTRIP
360
6C5
  0
DICTIONARY
  5
6C6
330
2E
100
AcDbDictionary
280
     1
281
     1
  3
ACAD_XREC_ROUNDTRIP
360
6C7
  0
DICTIONARY
  5
6DA
330
38
100
AcDbDictionary
280
     1
281
     1
  3
ACAD_XREC_ROUNDTRIP
360
6DB
  0
DICTIONARY
  5
6D0
330
33
100
AcDbDictionary
280
     1
281
     1
  3
ACAD_XREC_ROUNDTRIP
360
6D1
  0
DICTIONARY
  5
6D8
330
37
100
AcDbDictionary
280
     1
281
     1
  3
ACAD_XREC_ROUNDTRIP
360
6D9
  0
XRECORD
  5
6E3
102
{ACAD_REACTORS
330
6E2
102
}
330
6E2
100
AcDbXrecord
280
     1
102
MATERIAL
148
0.0
149
0.0
149
0.0
 93
        0
 94
      127
282
     0
 72
     1
 77
     1
171
     1
175
     1
179
     1
273
     0
  0
XRECORD
  5
6E1
102
{ACAD_REACTORS
330
6E0
102
}
330
6E0
100
AcDbXrecord
280
     1
102
MATERIAL
148
0.0
149
0.0
149
0.0
 93
        0
 94
      127
282
     0
 72
     1
 77
     1
171
     1
175
     1
179
     1
273
     0
  0
XRECORD
  5
6E5
102
{ACAD_REACTORS
330
6E4
102
}
330
6E4
100
AcDbXrecord
280
     1
102
MATERIAL
148
0.0
149
0.0
149
0.0
 93
        0
 94
      127
282
     0
 72
     1
 77
     1
171
     1
175
     1
179
     1
273
     0
  0
XRECORD
  5
6C9
102
{ACAD_REACTORS
330
6C8
102
}
330
6C8
100
AcDbXrecord
280
     1
102
RTVSPropertyOp0
 70
     1
102
RTVSPropertyOp1
 70
     1
102
RTVSPropertyOp2
 70
     1
102
RTVSPropertyOp3
 70
     1
102
RTVSPropertyOp4
 70
     1
102
RTVSPropertyOp5
 70
     1
102
RTVSPropertyOp6
 70
     1
102
RTVSPropertyOp7
 70
     1
102
RTVSPropertyOp8
 70
     1
102
RTVSPropertyOp9
 70
     1
102
RTVSPropertyOp10
 70
     1
102
RTVSPropertyOp11
 70
     1
102
RTVSPropertyOp12
 70
     1
102
RTVSPropertyOp13
 70
     1
102
RTVSPropertyOp14
 70
     1
102
RTVSPropertyOp15
 70
     1
102
RTVSPropertyOp16
 70
     1
102
RTVSPropertyOp17
 70
     1
102
RTVSPropertyOp18
 70
     1
102
RTVSPropertyOp19
 70
     1
102
RTVSPropertyOp20
 70
     1
102
RTVSPropertyOp21
 70
     1
102
RTVSPropertyOp22
 70
     1
102
RTVSPropertyOp23
 70
     1
102
RTVSPropertyOp24
 70
     1
102
RTVSPropertyOp25
 70
     1
102
RTVSPropertyOp26
 70
     1
102
RTVSPropertyOp27
 70
     1
102
RTVSPropertyOp28
 70
     1
102
RTVSPropertyOp29
 70
     1
102
RTVSPropertyOp30
 70
     1
102
RTVSPropertyOp31
 70
     1
102
RTVSPropertyOp32
 70
     1
102
RTVSPropertyOp33
 70
     1
102
RTVSPropertyOp34
 70
     1
102
RTVSPropertyOp35
 70
     1
102
RTVSPropertyOp36
 70
     1
102
RTVSPropertyOp37
 70
     1
102
RTVSPropertyOp38
 70
     1
102
RTVSPropertyOp39
 70
     1
102
RTVSPropertyOp40
 70
     1
102
RTVSPropertyOp41
 70
     1
102
RTVSPropertyOp42
 70
     1
102
RTVSPropertyOp43
 70
     1
102
RTVSPropertyOp44
 70
     1
102
RTVSPropertyOp45
 70
     1
102
RTVSPropertyOp46
 70
     1
102
RTVSPropertyOp47
 70
     1
102
RTVSPropertyOp48
 70
     1
102
RTVSPropertyOp49
 70
     1
102
RTVSPropertyOp50
 70
     1
102
RTVSPropertyOp51
 70
     0
102
RTVSPropertyOp52
 70
     0
102
RTVSPropertyOp53
 70
     1
102
RTVSPropertyOp54
 70
     1
102
RTVSPropertyOp55
 70
     1
102
RTVSPropertyOp56
 70
     1
102
RTVSPropertyOp57
 70
     1
102
RTVSPost2010Prop28
280
     1
102
RTVSPost2010PropOp28
 70
     1
102
RTVSPost2010Prop29
280
     1
102
RTVSPost2010PropOp29
 70
     1
102
RTVSPost2010Prop30
280
     0
102
RTVSPost2010PropOp30
 70
     1
102
RTVSPost2010Prop31
280
     0
102
RTVSPost2010PropOp31
 70
     1
102
RTVSPost2010Prop32
280
     0
102
RTVSPost2010PropOp32
 70
     1
102
RTVSPost2010Prop33
280
     0
102
RTVSPost2010PropOp33
 70
     1
102
RTVSPost2010Prop34
280
     0
102
RTVSPost2010PropOp34
 70
     1
102
RTVSPost2010Prop35
280
     0
102
RTVSPost2010PropOp35
 70
     1
102
RTVSPost2010Prop36
280
     0
102
RTVSPost2010PropOp36
 70
     1
102
RTVSPost2010Prop37
 90
       50
102
RTVSPost2010PropOp37
 70
     1
102
RTVSPost2010Prop38
140
0.0
102
RTVSPost2010PropOp38
 70
     1
102
RTVSPost2010Prop39
140
1.0
102
RTVSPost2010PropOp39
 70
     1
102
RTVSPost2010Prop40
 90
        0
102
RTVSPost2010PropOp40
 70
     1
102
RTVSPost2010Prop41ColorIndex
 90
       18
102
RTVSPost2010Prop41ColorRGB
 90
        0
102
RTVSPost2010PropOp41
 70
     1
102
RTVSPost2010Prop42
 90
       50
102
RTVSPost2010PropOp42
 70
     1
102
RTVSPost2010Prop43
 90
        3
102
RTVSPost2010PropOp43
 70
     1
102
RTVSPost2010Prop44ColorIndex
 90
        5
102
RTVSPost2010Prop44ColorRGB
 90
      255
102
RTVSPost2010PropOp44
 70
     1
102
RTVSPost2010Prop45
280
     0
102
RTVSPost2010PropOp45
 70
     1
102
RTVSPost2010Prop46
 90
       50
102
RTVSPost2010PropOp46
 70
     1
102
RTVSPost2010Prop47
 90
       50
102
RTVSPost2010PropOp47
 70
     1
102
RTVSPost2010Prop48
 90
       50
102
RTVSPost2010PropOp48
 70
     1
102
RTVSPost2010Prop49
280
     0
102
RTVSPost2010PropOp49
 70
     1
102
RTVSPost2010Prop50
 90
       50
102
RTVSPost2010PropOp50
 70
     1
102
RTVSPost2010Prop51ColorIndex
 90
      256
102
RTVSPost2010Prop51ColorRGB
 90
-16777216
102
RTVSPost2010PropOp51
 70
     0
102
RTVSPost2010Prop52
140
1.0
102
RTVSPost2010PropOp52
 70
     0
102
RTVSPost2010Prop53
 90
        2
102
RTVSPost2010PropOp53
 70
     1
102
RTVSPost2010Prop54
  1
strokes_ogs.tif
102
RTVSPost2010PropOp54
 70
     1
102
RTVSPost2010Prop55
280
     0
102
RTVSPost2010PropOp55
 70
     1
102
RTVSPost2010Prop56
140
1.0
102
RTVSPost2010PropOp56
 70
     1
102
RTVSPost2010Prop57
140
1.0
102
RTVSPost2010PropOp57
 70
     1
  0
XRECORD
  5
6CD
102
{ACAD_REACTORS
330
6CC
102
}
330
6CC
100
AcDbXrecord
280
     1
102
RTVSPropertyOp0
 70
     1
102
RTVSPropertyOp1
 70
     1
102
RTVSPropertyOp2
 70
     1
102
RTVSPropertyOp3
 70
     1
102
RTVSPropertyOp4
 70
     1
102
RTVSPropertyOp5
 70
     1
102
RTVSPropertyOp6
 70
     1
102
RTVSPropertyOp7
 70
     1
102
RTVSPropertyOp8
 70
     1
102
RTVSPropertyOp9
 70
     1
102
RTVSPropertyOp10
 70
     1
102
RTVSPropertyOp11
 70
     1
102
RTVSPropertyOp12
 70
     1
102
RTVSPropertyOp13
 70
     1
102
RTVSPropertyOp14
 70
     1
102
RTVSPropertyOp15
 70
     1
102
RTVSPropertyOp16
 70
     1
102
RTVSPropertyOp17
 70
     1
102
RTVSPropertyOp18
 70
     1
102
RTVSPropertyOp19
 70
     1
102
RTVSPropertyOp20
 70
     1
102
RTVSPropertyOp21
 70
     1
102
RTVSPropertyOp22
 70
     1
102
RTVSPropertyOp23
 70
     1
102
RTVSPropertyOp24
 70
     1
102
RTVSPropertyOp25
 70
     1
102
RTVSPropertyOp26
 70
     1
102
RTVSPropertyOp27
 70
     1
102
RTVSPropertyOp28
 70
     1
102
RTVSPropertyOp29
 70
     1
102
RTVSPropertyOp30
 70
     1
102
RTVSPropertyOp31
 70
     1
102
RTVSPropertyOp32
 70
     1
102
RTVSPropertyOp33
 70
     1
102
RTVSPropertyOp34
 70
     1
102
RTVSPropertyOp35
 70
     1
102
RTVSPropertyOp36
 70
     1
102
RTVSPropertyOp37
 70
     1
102
RTVSPropertyOp38
 70
     1
102
RTVSPropertyOp39
 70
     1
102
RTVSPropertyOp40
 70
     1
102
RTVSPropertyOp41
 70
     1
102
RTVSPropertyOp42
 70
     1
102
RTVSPropertyOp43
 70
     1
102
RTVSPropertyOp44
 70
     1
102
RTVSPropertyOp45
 70
     1
102
RTVSPropertyOp46
 70
     1
102
RTVSPropertyOp47
 70
     1
102
RTVSPropertyOp48
 70
     1
102
RTVSPropertyOp49
 70
     1
102
RTVSPropertyOp50
 70
     1
102
RTVSPropertyOp51
 70
     0
102
RTVSPropertyOp52
 70
     0
102
RTVSPropertyOp53
 70
     1
102
RTVSPropertyOp54
 70
     1
102
RTVSPropertyOp55
 70
     1
102
RTVSPropertyOp56
 70
     1
102
RTVSPropertyOp57
 70
     1
102
RTVSPost2010Prop28
280
     0
102
RTVSPost2010PropOp28
 70
     1
102
RTVSPost2010Prop29
280
     1
102
RTVSPost2010PropOp29
 70
     1
102
RTVSPost2010Prop30
280
     1
102
RTVSPost2010PropOp30
 70
     1
102
RTVSPost2010Prop31
280
     0
102
RTVSPost2010PropOp31
 70
     1
102
RTVSPost2010Prop32
280
     0
102
RTVSPost2010PropOp32
 70
     1
102
RTVSPost2010Prop33
280
     0
102
RTVSPost2010PropOp33
 70
     1
102
RTVSPost2010Prop34
280
     0
102
RTVSPost2010PropOp34
 70
     1
102
RTVSPost2010Prop35
280
     0
102
RTVSPost2010PropOp35
 70
     1
102
RTVSPost2010Prop36
280
     0
102
RTVSPost2010PropOp36
 70
     1
102
RTVSPost2010Prop37
 90
       50
102
RTVSPost2010PropOp37
 70
     1
102
RTVSPost2010Prop38
140
0.0
102
RTVSPost2010PropOp38
 70
     1
102
RTVSPost2010Prop39
140
1.0
102
RTVSPost2010PropOp39
 70
     1
102
RTVSPost2010Prop40
 90
        0
102
RTVSPost2010PropOp40
 70
     1
102
RTVSPost2010Prop41ColorIndex
 90
       18
102
RTVSPost2010Prop41ColorRGB
 90
        0
102
RTVSPost2010PropOp41
 70
     1
102
RTVSPost2010Prop42
 90
       50
102
RTVSPost2010PropOp42
 70
     1
102
RTVSPost2010Prop43
 90
        3
102
RTVSPost2010PropOp43
 70
     1
102
RTVSPost2010Prop44ColorIndex
 90
        5
102
RTVSPost2010Prop44ColorRGB
 90
      255
102
RTVSPost2010PropOp44
 70
     1
102
RTVSPost2010Prop45
280
     0
102
RTVSPost2010PropOp45
 70
     1
102
RTVSPost2010Prop46
 90
       50
102
RTVSPost2010PropOp46
 70
     1
102
RTVSPost2010Prop47
 90
       50
102
RTVSPost2010PropOp47
 70
     1
102
RTVSPost2010Prop48
 90
       50
102
RTVSPost2010PropOp48
 70
     1
102
RTVSPost2010Prop49
280
     0
102
RTVSPost2010PropOp49
 70
     1
102
RTVSPost2010Prop50
 90
       50
102
RTVSPost2010PropOp50
 70
     1
102
RTVSPost2010Prop51ColorIndex
 90
      256
102
RTVSPost2010Prop51ColorRGB
 90
-16777216
102
RTVSPost2010PropOp51
 70
     0
102
RTVSPost2010Prop52
140
1.0
102
RTVSPost2010PropOp52
 70
     0
102
RTVSPost2010Prop53
 90
        2
102
RTVSPost2010PropOp53
 70
     1
102
RTVSPost2010Prop54
  1
strokes_ogs.tif
102
RTVSPost2010PropOp54
 70
     1
102
RTVSPost2010Prop55
280
     0
102
RTVSPost2010PropOp55
 70
     1
102
RTVSPost2010Prop56
140
1.0
102
RTVSPost2010PropOp56
 70
     1
102
RTVSPost2010Prop57
140
1.0
102
RTVSPost2010PropOp57
 70
     1
  0
XRECORD
  5
6CB
102
{ACAD_REACTORS
330
6CA
102
}
330
6CA
100
AcDbXrecord
280
     1
102
RTVSPropertyOp0
 70
     1
102
RTVSPropertyOp1
 70
     1
102
RTVSPropertyOp2
 70
     1
102
RTVSPropertyOp3
 70
     1
102
RTVSPropertyOp4
 70
     1
102
RTVSPropertyOp5
 70
     1
102
RTVSPropertyOp6
 70
     1
102
RTVSPropertyOp7
 70
     1
102
RTVSPropertyOp8
 70
     1
102
RTVSPropertyOp9
 70
     1
102
RTVSPropertyOp10
 70
     1
102
RTVSPropertyOp11
 70
     1
102
RTVSPropertyOp12
 70
     1
102
RTVSPropertyOp13
 70
     1
102
RTVSPropertyOp14
 70
     1
102
RTVSPropertyOp15
 70
     1
102
RTVSPropertyOp16
 70
     1
102
RTVSPropertyOp17
 70
     1
102
RTVSPropertyOp18
 70
     1
102
RTVSPropertyOp19
 70
     1
102
RTVSPropertyOp20
 70
     1
102
RTVSPropertyOp21
 70
     1
102
RTVSPropertyOp22
 70
     1
102
RTVSPropertyOp23
 70
     1
102
RTVSPropertyOp24
 70
     1
102
RTVSPropertyOp25
 70
     1
102
RTVSPropertyOp26
 70
     1
102
RTVSPropertyOp27
 70
     1
102
RTVSPropertyOp28
 70
     1
102
RTVSPropertyOp29
 70
     1
102
RTVSPropertyOp30
 70
     1
102
RTVSPropertyOp31
 70
     1
102
RTVSPropertyOp32
 70
     1
102
RTVSPropertyOp33
 70
     1
102
RTVSPropertyOp34
 70
     1
102
RTVSPropertyOp35
 70
     1
102
RTVSPropertyOp36
 70
     1
102
RTVSPropertyOp37
 70
     1
102
RTVSPropertyOp38
 70
     1
102
RTVSPropertyOp39
 70
     1
102
RTVSPropertyOp40
 70
     1
102
RTVSPropertyOp41
 70
     1
102
RTVSPropertyOp42
 70
     1
102
RTVSPropertyOp43
 70
     1
102
RTVSPropertyOp44
 70
     1
102
RTVSPropertyOp45
 70
     1
102
RTVSPropertyOp46
 70
     1
102
RTVSPropertyOp47
 70
     1
102
RTVSPropertyOp48
 70
     1
102
RTVSPropertyOp49
 70
     1
102
RTVSPropertyOp50
 70
     1
102
RTVSPropertyOp51
 70
     0
102
RTVSPropertyOp52
 70
     0
102
RTVSPropertyOp53
 70
     1
102
RTVSPropertyOp54
 70
     1
102
RTVSPropertyOp55
 70
     1
102
RTVSPropertyOp56
 70
     1
102
RTVSPropertyOp57
 70
     1
102
RTVSPost2010Prop28
280
     0
102
RTVSPost2010PropOp28
 70
     1
102
RTVSPost2010Prop29
280
     1
102
RTVSPost2010PropOp29
 70
     1
102
RTVSPost2010Prop30
280
     1
102
RTVSPost2010PropOp30
 70
     1
102
RTVSPost2010Prop31
280
     0
102
RTVSPost2010PropOp31
 70
     1
102
RTVSPost2010Prop32
280
     0
102
RTVSPost2010PropOp32
 70
     1
102
RTVSPost2010Prop33
280
     0
102
RTVSPost2010PropOp33
 70
     1
102
RTVSPost2010Prop34
280
     0
102
RTVSPost2010PropOp34
 70
     1
102
RTVSPost2010Prop35
280
     0
102
RTVSPost2010PropOp35
 70
     1
102
RTVSPost2010Prop36
280
     0
102
RTVSPost2010PropOp36
 70
     1
102
RTVSPost2010Prop37
 90
       50
102
RTVSPost2010PropOp37
 70
     1
102
RTVSPost2010Prop38
140
0.0
102
RTVSPost2010PropOp38
 70
     1
102
RTVSPost2010Prop39
140
1.0
102
RTVSPost2010PropOp39
 70
     1
102
RTVSPost2010Prop40
 90
        0
102
RTVSPost2010PropOp40
 70
     1
102
RTVSPost2010Prop41ColorIndex
 90
       18
102
RTVSPost2010Prop41ColorRGB
 90
        0
102
RTVSPost2010PropOp41
 70
     1
102
RTVSPost2010Prop42
 90
       50
102
RTVSPost2010PropOp42
 70
     1
102
RTVSPost2010Prop43
 90
        3
102
RTVSPost2010PropOp43
 70
     1
102
RTVSPost2010Prop44ColorIndex
 90
        5
102
RTVSPost2010Prop44ColorRGB
 90
      255
102
RTVSPost2010PropOp44
 70
     1
102
RTVSPost2010Prop45
280
     0
102
RTVSPost2010PropOp45
 70
     1
102
RTVSPost2010Prop46
 90
       50
102
RTVSPost2010PropOp46
 70
     1
102
RTVSPost2010Prop47
 90
       50
102
RTVSPost2010PropOp47
 70
     1
102
RTVSPost2010Prop48
 90
       50
102
RTVSPost2010PropOp48
 70
     1
102
RTVSPost2010Prop49
280
     0
102
RTVSPost2010PropOp49
 70
     1
102
RTVSPost2010Prop50
 90
       50
102
RTVSPost2010PropOp50
 70
     1
102
RTVSPost2010Prop51ColorIndex
 90
      256
102
RTVSPost2010Prop51ColorRGB
 90
-16777216
102
RTVSPost2010PropOp51
 70
     0
102
RTVSPost2010Prop52
140
1.0
102
RTVSPost2010PropOp52
 70
     0
102
RTVSPost2010Prop53
 90
        2
102
RTVSPost2010PropOp53
 70
     1
102
RTVSPost2010Prop54
  1
strokes_ogs.tif
102
RTVSPost2010PropOp54
 70
     1
102
RTVSPost2010Prop55
280
     0
102
RTVSPost2010PropOp55
 70
     1
102
RTVSPost2010Prop56
140
1.0
102
RTVSPost2010PropOp56
 70
     1
102
RTVSPost2010Prop57
140
1.0
102
RTVSPost2010PropOp57
 70
     1
  0
XRECORD
  5
6CF
102
{ACAD_REACTORS
330
6CE
102
}
330
6CE
100
AcDbXrecord
280
     1
102
RTVSPropertyOp0
 70
     1
102
RTVSPropertyOp1
 70
     1
102
RTVSPropertyOp2
 70
     1
102
RTVSPropertyOp3
 70
     1
102
RTVSPropertyOp4
 70
     1
102
RTVSPropertyOp5
 70
     1
102
RTVSPropertyOp6
 70
     1
102
RTVSPropertyOp7
 70
     1
102
RTVSPropertyOp8
 70
     1
102
RTVSPropertyOp9
 70
     1
102
RTVSPropertyOp10
 70
     1
102
RTVSPropertyOp11
 70
     1
102
RTVSPropertyOp12
 70
     1
102
RTVSPropertyOp13
 70
     1
102
RTVSPropertyOp14
 70
     1
102
RTVSPropertyOp15
 70
     1
102
RTVSPropertyOp16
 70
     1
102
RTVSPropertyOp17
 70
     1
102
RTVSPropertyOp18
 70
     1
102
RTVSPropertyOp19
 70
     1
102
RTVSPropertyOp20
 70
     1
102
RTVSPropertyOp21
 70
     1
102
RTVSPropertyOp22
 70
     1
102
RTVSPropertyOp23
 70
     1
102
RTVSPropertyOp24
 70
     1
102
RTVSPropertyOp25
 70
     1
102
RTVSPropertyOp26
 70
     1
102
RTVSPropertyOp27
 70
     1
102
RTVSPropertyOp28
 70
     1
102
RTVSPropertyOp29
 70
     1
102
RTVSPropertyOp30
 70
     1
102
RTVSPropertyOp31
 70
     1
102
RTVSPropertyOp32
 70
     1
102
RTVSPropertyOp33
 70
     1
102
RTVSPropertyOp34
 70
     1
102
RTVSPropertyOp35
 70
     1
102
RTVSPropertyOp36
 70
     1
102
RTVSPropertyOp37
 70
     1
102
RTVSPropertyOp38
 70
     1
102
RTVSPropertyOp39
 70
     1
102
RTVSPropertyOp40
 70
     1
102
RTVSPropertyOp41
 70
     1
102
RTVSPropertyOp42
 70
     1
102
RTVSPropertyOp43
 70
     1
102
RTVSPropertyOp44
 70
     1
102
RTVSPropertyOp45
 70
     1
102
RTVSPropertyOp46
 70
     1
102
RTVSPropertyOp47
 70
     1
102
RTVSPropertyOp48
 70
     1
102
RTVSPropertyOp49
 70
     1
102
RTVSPropertyOp50
 70
     1
102
RTVSPropertyOp51
 70
     0
102
RTVSPropertyOp52
 70
     0
102
RTVSPropertyOp53
 70
     1
102
RTVSPropertyOp54
 70
     1
102
RTVSPropertyOp55
 70
     1
102
RTVSPropertyOp56
 70
     1
102
RTVSPropertyOp57
 70
     1
102
RTVSPost2010Prop28
280
     0
102
RTVSPost2010PropOp28
 70
     1
102
RTVSPost2010Prop29
280
     1
102
RTVSPost2010PropOp29
 70
     1
102
RTVSPost2010Prop30
280
     1
102
RTVSPost2010PropOp30
 70
     1
102
RTVSPost2010Prop31
280
     0
102
RTVSPost2010PropOp31
 70
     1
102
RTVSPost2010Prop32
280
     0
102
RTVSPost2010PropOp32
 70
     1
102
RTVSPost2010Prop33
280
     0
102
RTVSPost2010PropOp33
 70
     1
102
RTVSPost2010Prop34
280
     0
102
RTVSPost2010PropOp34
 70
     1
102
RTVSPost2010Prop35
280
     0
102
RTVSPost2010PropOp35
 70
     1
102
RTVSPost2010Prop36
280
     0
102
RTVSPost2010PropOp36
 70
     1
102
RTVSPost2010Prop37
 90
       50
102
RTVSPost2010PropOp37
 70
     1
102
RTVSPost2010Prop38
140
0.0
102
RTVSPost2010PropOp38
 70
     1
102
RTVSPost2010Prop39
140
1.0
102
RTVSPost2010PropOp39
 70
     1
102
RTVSPost2010Prop40
 90
        0
102
RTVSPost2010PropOp40
 70
     1
102
RTVSPost2010Prop41ColorIndex
 90
       18
102
RTVSPost2010Prop41ColorRGB
 90
        0
102
RTVSPost2010PropOp41
 70
     1
102
RTVSPost2010Prop42
 90
       50
102
RTVSPost2010PropOp42
 70
     1
102
RTVSPost2010Prop43
 90
        3
102
RTVSPost2010PropOp43
 70
     1
102
RTVSPost2010Prop44ColorIndex
 90
        5
102
RTVSPost2010Prop44ColorRGB
 90
      255
102
RTVSPost2010PropOp44
 70
     1
102
RTVSPost2010Prop45
280
     0
102
RTVSPost2010PropOp45
 70
     1
102
RTVSPost2010Prop46
 90
       50
102
RTVSPost2010PropOp46
 70
     1
102
RTVSPost2010Prop47
 90
       50
102
RTVSPost2010PropOp47
 70
     1
102
RTVSPost2010Prop48
 90
       50
102
RTVSPost2010PropOp48
 70
     1
102
RTVSPost2010Prop49
280
     0
102
RTVSPost2010PropOp49
 70
     1
102
RTVSPost2010Prop50
 90
       50
102
RTVSPost2010PropOp50
 70
     1
102
RTVSPost2010Prop51ColorIndex
 90
      256
102
RTVSPost2010Prop51ColorRGB
 90
-16777216
102
RTVSPost2010PropOp51
 70
     0
102
RTVSPost2010Prop52
140
1.0
102
RTVSPost2010PropOp52
 70
     0
102
RTVSPost2010Prop53
 90
        2
102
RTVSPost2010PropOp53
 70
     1
102
RTVSPost2010Prop54
  1
strokes_ogs.tif
102
RTVSPost2010PropOp54
 70
     1
102
RTVSPost2010Prop55
280
     0
102
RTVSPost2010PropOp55
 70
     1
102
RTVSPost2010Prop56
140
1.0
102
RTVSPost2010PropOp56
 70
     1
102
RTVSPost2010Prop57
140
1.0
102
RTVSPost2010PropOp57
 70
     1
  0
XRECORD
  5
6D7
102
{ACAD_REACTORS
330
6D6
102
}
330
6D6
100
AcDbXrecord
280
     1
102
RTVSPropertyOp0
 70
     1
102
RTVSPropertyOp1
 70
     1
102
RTVSPropertyOp2
 70
     1
102
RTVSPropertyOp3
 70
     1
102
RTVSPropertyOp4
 70
     1
102
RTVSPropertyOp5
 70
     1
102
RTVSPropertyOp6
 70
     1
102
RTVSPropertyOp7
 70
     1
102
RTVSPropertyOp8
 70
     1
102
RTVSPropertyOp9
 70
     1
102
RTVSPropertyOp10
 70
     1
102
RTVSPropertyOp11
 70
     1
102
RTVSPropertyOp12
 70
     1
102
RTVSPropertyOp13
 70
     1
102
RTVSPropertyOp14
 70
     1
102
RTVSPropertyOp15
 70
     1
102
RTVSPropertyOp16
 70
     1
102
RTVSPropertyOp17
 70
     1
102
RTVSPropertyOp18
 70
     1
102
RTVSPropertyOp19
 70
     1
102
RTVSPropertyOp20
 70
     1
102
RTVSPropertyOp21
 70
     1
102
RTVSPropertyOp22
 70
     1
102
RTVSPropertyOp23
 70
     1
102
RTVSPropertyOp24
 70
     1
102
RTVSPropertyOp25
 70
     1
102
RTVSPropertyOp26
 70
     1
102
RTVSPropertyOp27
 70
     1
102
RTVSPropertyOp28
 70
     1
102
RTVSPropertyOp29
 70
     1
102
RTVSPropertyOp30
 70
     1
102
RTVSPropertyOp31
 70
     1
102
RTVSPropertyOp32
 70
     1
102
RTVSPropertyOp33
 70
     1
102
RTVSPropertyOp34
 70
     1
102
RTVSPropertyOp35
 70
     1
102
RTVSPropertyOp36
 70
     1
102
RTVSPropertyOp37
 70
     1
102
RTVSPropertyOp38
 70
     1
102
RTVSPropertyOp39
 70
     1
102
RTVSPropertyOp40
 70
     1
102
RTVSPropertyOp41
 70
     1
102
RTVSPropertyOp42
 70
     1
102
RTVSPropertyOp43
 70
     1
102
RTVSPropertyOp44
 70
     1
102
RTVSPropertyOp45
 70
     1
102
RTVSPropertyOp46
 70
     1
102
RTVSPropertyOp47
 70
     1
102
RTVSPropertyOp48
 70
     1
102
RTVSPropertyOp49
 70
     1
102
RTVSPropertyOp50
 70
     1
102
RTVSPropertyOp51
 70
     0
102
RTVSPropertyOp52
 70
     0
102
RTVSPropertyOp53
 70
     1
102
RTVSPropertyOp54
 70
     1
102
RTVSPropertyOp55
 70
     1
102
RTVSPropertyOp56
 70
     1
102
RTVSPropertyOp57
 70
     1
102
RTVSPost2010Prop28
280
     0
102
RTVSPost2010PropOp28
 70
     1
102
RTVSPost2010Prop29
280
     1
102
RTVSPost2010PropOp29
 70
     1
102
RTVSPost2010Prop30
280
     1
102
RTVSPost2010PropOp30
 70
     1
102
RTVSPost2010Prop31
280
     0
102
RTVSPost2010PropOp31
 70
     1
102
RTVSPost2010Prop32
280
     0
102
RTVSPost2010PropOp32
 70
     1
102
RTVSPost2010Prop33
280
     0
102
RTVSPost2010PropOp33
 70
     1
102
RTVSPost2010Prop34
280
     0
102
RTVSPost2010PropOp34
 70
     1
102
RTVSPost2010Prop35
280
     0
102
RTVSPost2010PropOp35
 70
     1
102
RTVSPost2010Prop36
280
     0
102
RTVSPost2010PropOp36
 70
     1
102
RTVSPost2010Prop37
 90
       50
102
RTVSPost2010PropOp37
 70
     1
102
RTVSPost2010Prop38
140
0.0
102
RTVSPost2010PropOp38
 70
     1
102
RTVSPost2010Prop39
140
1.0
102
RTVSPost2010PropOp39
 70
     1
102
RTVSPost2010Prop40
 90
        0
102
RTVSPost2010PropOp40
 70
     1
102
RTVSPost2010Prop41ColorIndex
 90
       18
102
RTVSPost2010Prop41ColorRGB
 90
        0
102
RTVSPost2010PropOp41
 70
     1
102
RTVSPost2010Prop42
 90
       50
102
RTVSPost2010PropOp42
 70
     1
102
RTVSPost2010Prop43
 90
        3
102
RTVSPost2010PropOp43
 70
     1
102
RTVSPost2010Prop44ColorIndex
 90
        5
102
RTVSPost2010Prop44ColorRGB
 90
      255
102
RTVSPost2010PropOp44
 70
     1
102
RTVSPost2010Prop45
280
     0
102
RTVSPost2010PropOp45
 70
     1
102
RTVSPost2010Prop46
 90
       50
102
RTVSPost2010PropOp46
 70
     1
102
RTVSPost2010Prop47
 90
       50
102
RTVSPost2010PropOp47
 70
     1
102
RTVSPost2010Prop48
 90
       50
102
RTVSPost2010PropOp48
 70
     1
102
RTVSPost2010Prop49
280
     0
102
RTVSPost2010PropOp49
 70
     1
102
RTVSPost2010Prop50
 90
       50
102
RTVSPost2010PropOp50
 70
     1
102
RTVSPost2010Prop51ColorIndex
 90
      256
102
RTVSPost2010Prop51ColorRGB
 90
-16777216
102
RTVSPost2010PropOp51
 70
     0
102
RTVSPost2010Prop52
140
1.0
102
RTVSPost2010PropOp52
 70
     0
102
RTVSPost2010Prop53
 90
        2
102
RTVSPost2010PropOp53
 70
     1
102
RTVSPost2010Prop54
  1
strokes_ogs.tif
102
RTVSPost2010PropOp54
 70
     1
102
RTVSPost2010Prop55
280
     0
102
RTVSPost2010PropOp55
 70
     1
102
RTVSPost2010Prop56
140
1.0
102
RTVSPost2010PropOp56
 70
     1
102
RTVSPost2010Prop57
140
1.0
102
RTVSPost2010PropOp57
 70
     1
  0
XRECORD
  5
6DF
102
{ACAD_REACTORS
330
6DE
102
}
330
6DE
100
AcDbXrecord
280
     1
102
RTVSPropertyOp0
 70
     1
102
RTVSPropertyOp1
 70
     1
102
RTVSPropertyOp2
 70
     1
102
RTVSPropertyOp3
 70
     1
102
RTVSPropertyOp4
 70
     1
102
RTVSPropertyOp5
 70
     1
102
RTVSPropertyOp6
 70
     1
102
RTVSPropertyOp7
 70
     1
102
RTVSPropertyOp8
 70
     1
102
RTVSPropertyOp9
 70
     1
102
RTVSPropertyOp10
 70
     1
102
RTVSPropertyOp11
 70
     1
102
RTVSPropertyOp12
 70
     1
102
RTVSPropertyOp13
 70
     1
102
RTVSPropertyOp14
 70
     1
102
RTVSPropertyOp15
 70
     1
102
RTVSPropertyOp16
 70
     1
102
RTVSPropertyOp17
 70
     1
102
RTVSPropertyOp18
 70
     1
102
RTVSPropertyOp19
 70
     1
102
RTVSPropertyOp20
 70
     1
102
RTVSPropertyOp21
 70
     1
102
RTVSPropertyOp22
 70
     1
102
RTVSPropertyOp23
 70
     1
102
RTVSPropertyOp24
 70
     1
102
RTVSPropertyOp25
 70
     1
102
RTVSPropertyOp26
 70
     1
102
RTVSPropertyOp27
 70
     1
102
RTVSPropertyOp28
 70
     1
102
RTVSPropertyOp29
 70
     1
102
RTVSPropertyOp30
 70
     1
102
RTVSPropertyOp31
 70
     1
102
RTVSPropertyOp32
 70
     1
102
RTVSPropertyOp33
 70
     1
102
RTVSPropertyOp34
 70
     1
102
RTVSPropertyOp35
 70
     1
102
RTVSPropertyOp36
 70
     1
102
RTVSPropertyOp37
 70
     1
102
RTVSPropertyOp38
 70
     1
102
RTVSPropertyOp39
 70
     1
102
RTVSPropertyOp40
 70
     1
102
RTVSPropertyOp41
 70
     1
102
RTVSPropertyOp42
 70
     1
102
RTVSPropertyOp43
 70
     1
102
RTVSPropertyOp44
 70
     1
102
RTVSPropertyOp45
 70
     1
102
RTVSPropertyOp46
 70
     1
102
RTVSPropertyOp47
 70
     1
102
RTVSPropertyOp48
 70
     1
102
RTVSPropertyOp49
 70
     1
102
RTVSPropertyOp50
 70
     1
102
RTVSPropertyOp51
 70
     0
102
RTVSPropertyOp52
 70
     0
102
RTVSPropertyOp53
 70
     1
102
RTVSPropertyOp54
 70
     1
102
RTVSPropertyOp55
 70
     1
102
RTVSPropertyOp56
 70
     1
102
RTVSPropertyOp57
 70
     1
102
RTVSPost2010Prop28
280
     0
102
RTVSPost2010PropOp28
 70
     1
102
RTVSPost2010Prop29
280
     1
102
RTVSPost2010PropOp29
 70
     1
102
RTVSPost2010Prop30
280
     1
102
RTVSPost2010PropOp30
 70
     1
102
RTVSPost2010Prop31
280
     0
102
RTVSPost2010PropOp31
 70
     1
102
RTVSPost2010Prop32
280
     0
102
RTVSPost2010PropOp32
 70
     1
102
RTVSPost2010Prop33
280
     0
102
RTVSPost2010PropOp33
 70
     1
102
RTVSPost2010Prop34
280
     0
102
RTVSPost2010PropOp34
 70
     1
102
RTVSPost2010Prop35
280
     0
102
RTVSPost2010PropOp35
 70
     1
102
RTVSPost2010Prop36
280
     0
102
RTVSPost2010PropOp36
 70
     1
102
RTVSPost2010Prop37
 90
       50
102
RTVSPost2010PropOp37
 70
     1
102
RTVSPost2010Prop38
140
0.0
102
RTVSPost2010PropOp38
 70
     1
102
RTVSPost2010Prop39
140
1.0
102
RTVSPost2010PropOp39
 70
     1
102
RTVSPost2010Prop40
 90
        0
102
RTVSPost2010PropOp40
 70
     1
102
RTVSPost2010Prop41ColorIndex
 90
       18
102
RTVSPost2010Prop41ColorRGB
 90
        0
102
RTVSPost2010PropOp41
 70
     1
102
RTVSPost2010Prop42
 90
       50
102
RTVSPost2010PropOp42
 70
     1
102
RTVSPost2010Prop43
 90
        3
102
RTVSPost2010PropOp43
 70
     1
102
RTVSPost2010Prop44ColorIndex
 90
        5
102
RTVSPost2010Prop44ColorRGB
 90
      255
102
RTVSPost2010PropOp44
 70
     1
102
RTVSPost2010Prop45
280
     0
102
RTVSPost2010PropOp45
 70
     1
102
RTVSPost2010Prop46
 90
       50
102
RTVSPost2010PropOp46
 70
     1
102
RTVSPost2010Prop47
 90
       50
102
RTVSPost2010PropOp47
 70
     1
102
RTVSPost2010Prop48
 90
       50
102
RTVSPost2010PropOp48
 70
     1
102
RTVSPost2010Prop49
280
     0
102
RTVSPost2010PropOp49
 70
     1
102
RTVSPost2010Prop50
 90
       50
102
RTVSPost2010PropOp50
 70
     1
102
RTVSPost2010Prop51ColorIndex
 90
      256
102
RTVSPost2010Prop51ColorRGB
 90
-16777216
102
RTVSPost2010PropOp51
 70
     0
102
RTVSPost2010Prop52
140
1.0
102
RTVSPost2010PropOp52
 70
     0
102
RTVSPost2010Prop53
 90
        2
102
RTVSPost2010PropOp53
 70
     1
102
RTVSPost2010Prop54
  1
strokes_ogs.tif
102
RTVSPost2010PropOp54
 70
     1
102
RTVSPost2010Prop55
280
     0
102
RTVSPost2010PropOp55
 70
     1
102
RTVSPost2010Prop56
140
1.0
102
RTVSPost2010PropOp56
 70
     1
102
RTVSPost2010Prop57
140
1.0
102
RTVSPost2010PropOp57
 70
     1
  0
XRECORD
  5
6D3
102
{ACAD_REACTORS
330
6D2
102
}
330
6D2
100
AcDbXrecord
280
     1
102
RTVSPropertyOp0
 70
     1
102
RTVSPropertyOp1
 70
     1
102
RTVSPropertyOp2
 70
     1
102
RTVSPropertyOp3
 70
     1
102
RTVSPropertyOp4
 70
     1
102
RTVSPropertyOp5
 70
     1
102
RTVSPropertyOp6
 70
     1
102
RTVSPropertyOp7
 70
     1
102
RTVSPropertyOp8
 70
     1
102
RTVSPropertyOp9
 70
     1
102
RTVSPropertyOp10
 70
     1
102
RTVSPropertyOp11
 70
     1
102
RTVSPropertyOp12
 70
     1
102
RTVSPropertyOp13
 70
     1
102
RTVSPropertyOp14
 70
     1
102
RTVSPropertyOp15
 70
     1
102
RTVSPropertyOp16
 70
     1
102
RTVSPropertyOp17
 70
     1
102
RTVSPropertyOp18
 70
     1
102
RTVSPropertyOp19
 70
     1
102
RTVSPropertyOp20
 70
     1
102
RTVSPropertyOp21
 70
     1
102
RTVSPropertyOp22
 70
     1
102
RTVSPropertyOp23
 70
     1
102
RTVSPropertyOp24
 70
     1
102
RTVSPropertyOp25
 70
     1
102
RTVSPropertyOp26
 70
     1
102
RTVSPropertyOp27
 70
     1
102
RTVSPropertyOp28
 70
     1
102
RTVSPropertyOp29
 70
     1
102
RTVSPropertyOp30
 70
     1
102
RTVSPropertyOp31
 70
     1
102
RTVSPropertyOp32
 70
     1
102
RTVSPropertyOp33
 70
     1
102
RTVSPropertyOp34
 70
     1
102
RTVSPropertyOp35
 70
     1
102
RTVSPropertyOp36
 70
     1
102
RTVSPropertyOp37
 70
     1
102
RTVSPropertyOp38
 70
     1
102
RTVSPropertyOp39
 70
     1
102
RTVSPropertyOp40
 70
     1
102
RTVSPropertyOp41
 70
     1
102
RTVSPropertyOp42
 70
     1
102
RTVSPropertyOp43
 70
     1
102
RTVSPropertyOp44
 70
     1
102
RTVSPropertyOp45
 70
     1
102
RTVSPropertyOp46
 70
     1
102
RTVSPropertyOp47
 70
     1
102
RTVSPropertyOp48
 70
     1
102
RTVSPropertyOp49
 70
     1
102
RTVSPropertyOp50
 70
     1
102
RTVSPropertyOp51
 70
     0
102
RTVSPropertyOp52
 70
     0
102
RTVSPropertyOp53
 70
     1
102
RTVSPropertyOp54
 70
     1
102
RTVSPropertyOp55
 70
     1
102
RTVSPropertyOp56
 70
     1
102
RTVSPropertyOp57
 70
     1
102
RTVSPost2010Prop28
280
     0
102
RTVSPost2010PropOp28
 70
     1
102
RTVSPost2010Prop29
280
     1
102
RTVSPost2010PropOp29
 70
     1
102
RTVSPost2010Prop30
280
     1
102
RTVSPost2010PropOp30
 70
     1
102
RTVSPost2010Prop31
280
     0
102
RTVSPost2010PropOp31
 70
     1
102
RTVSPost2010Prop32
280
     0
102
RTVSPost2010PropOp32
 70
     1
102
RTVSPost2010Prop33
280
     0
102
RTVSPost2010PropOp33
 70
     1
102
RTVSPost2010Prop34
280
     0
102
RTVSPost2010PropOp34
 70
     1
102
RTVSPost2010Prop35
280
     0
102
RTVSPost2010PropOp35
 70
     1
102
RTVSPost2010Prop36
280
     0
102
RTVSPost2010PropOp36
 70
     1
102
RTVSPost2010Prop37
 90
       50
102
RTVSPost2010PropOp37
 70
     1
102
RTVSPost2010Prop38
140
0.0
102
RTVSPost2010PropOp38
 70
     1
102
RTVSPost2010Prop39
140
1.0
102
RTVSPost2010PropOp39
 70
     1
102
RTVSPost2010Prop40
 90
        0
102
RTVSPost2010PropOp40
 70
     1
102
RTVSPost2010Prop41ColorIndex
 90
       18
102
RTVSPost2010Prop41ColorRGB
 90
        0
102
RTVSPost2010PropOp41
 70
     1
102
RTVSPost2010Prop42
 90
       50
102
RTVSPost2010PropOp42
 70
     1
102
RTVSPost2010Prop43
 90
        3
102
RTVSPost2010PropOp43
 70
     1
102
RTVSPost2010Prop44ColorIndex
 90
        5
102
RTVSPost2010Prop44ColorRGB
 90
      255
102
RTVSPost2010PropOp44
 70
     1
102
RTVSPost2010Prop45
280
     0
102
RTVSPost2010PropOp45
 70
     1
102
RTVSPost2010Prop46
 90
       50
102
RTVSPost2010PropOp46
 70
     1
102
RTVSPost2010Prop47
 90
       50
102
RTVSPost2010PropOp47
 70
     1
102
RTVSPost2010Prop48
 90
       50
102
RTVSPost2010PropOp48
 70
     1
102
RTVSPost2010Prop49
280
     0
102
RTVSPost2010PropOp49
 70
     1
102
RTVSPost2010Prop50
 90
       50
102
RTVSPost2010PropOp50
 70
     1
102
RTVSPost2010Prop51ColorIndex
 90
      256
102
RTVSPost2010Prop51ColorRGB
 90
-16777216
102
RTVSPost2010PropOp51
 70
     0
102
RTVSPost2010Prop52
140
1.0
102
RTVSPost2010PropOp52
 70
     0
102
RTVSPost2010Prop53
 90
        2
102
RTVSPost2010PropOp53
 70
     1
102
RTVSPost2010Prop54
  1
strokes_ogs.tif
102
RTVSPost2010PropOp54
 70
     1
102
RTVSPost2010Prop55
280
     0
102
RTVSPost2010PropOp55
 70
     1
102
RTVSPost2010Prop56
140
1.0
102
RTVSPost2010PropOp56
 70
     1
102
RTVSPost2010Prop57
140
1.0
102
RTVSPost2010PropOp57
 70
     1
  0
XRECORD
  5
6D5
102
{ACAD_REACTORS
330
6D4
102
}
330
6D4
100
AcDbXrecord
280
     1
102
RTVSPropertyOp0
 70
     1
102
RTVSPropertyOp1
 70
     1
102
RTVSPropertyOp2
 70
     1
102
RTVSPropertyOp3
 70
     1
102
RTVSPropertyOp4
 70
     1
102
RTVSPropertyOp5
 70
     1
102
RTVSPropertyOp6
 70
     1
102
RTVSPropertyOp7
 70
     1
102
RTVSPropertyOp8
 70
     1
102
RTVSPropertyOp9
 70
     1
102
RTVSPropertyOp10
 70
     1
102
RTVSPropertyOp11
 70
     1
102
RTVSPropertyOp12
 70
     1
102
RTVSPropertyOp13
 70
     1
102
RTVSPropertyOp14
 70
     1
102
RTVSPropertyOp15
 70
     1
102
RTVSPropertyOp16
 70
     1
102
RTVSPropertyOp17
 70
     1
102
RTVSPropertyOp18
 70
     1
102
RTVSPropertyOp19
 70
     1
102
RTVSPropertyOp20
 70
     1
102
RTVSPropertyOp21
 70
     1
102
RTVSPropertyOp22
 70
     1
102
RTVSPropertyOp23
 70
     1
102
RTVSPropertyOp24
 70
     1
102
RTVSPropertyOp25
 70
     1
102
RTVSPropertyOp26
 70
     1
102
RTVSPropertyOp27
 70
     1
102
RTVSPropertyOp28
 70
     1
102
RTVSPropertyOp29
 70
     1
102
RTVSPropertyOp30
 70
     1
102
RTVSPropertyOp31
 70
     1
102
RTVSPropertyOp32
 70
     1
102
RTVSPropertyOp33
 70
     1
102
RTVSPropertyOp34
 70
     1
102
RTVSPropertyOp35
 70
     1
102
RTVSPropertyOp36
 70
     1
102
RTVSPropertyOp37
 70
     1
102
RTVSPropertyOp38
 70
     1
102
RTVSPropertyOp39
 70
     1
102
RTVSPropertyOp40
 70
     1
102
RTVSPropertyOp41
 70
     1
102
RTVSPropertyOp42
 70
     1
102
RTVSPropertyOp43
 70
     1
102
RTVSPropertyOp44
 70
     1
102
RTVSPropertyOp45
 70
     1
102
RTVSPropertyOp46
 70
     1
102
RTVSPropertyOp47
 70
     1
102
RTVSPropertyOp48
 70
     1
102
RTVSPropertyOp49
 70
     1
102
RTVSPropertyOp50
 70
     1
102
RTVSPropertyOp51
 70
     0
102
RTVSPropertyOp52
 70
     0
102
RTVSPropertyOp53
 70
     1
102
RTVSPropertyOp54
 70
     1
102
RTVSPropertyOp55
 70
     1
102
RTVSPropertyOp56
 70
     1
102
RTVSPropertyOp57
 70
     1
102
RTVSPost2010Prop28
280
     0
102
RTVSPost2010PropOp28
 70
     1
102
RTVSPost2010Prop29
280
     1
102
RTVSPost2010PropOp29
 70
     1
102
RTVSPost2010Prop30
280
     1
102
RTVSPost2010PropOp30
 70
     1
102
RTVSPost2010Prop31
280
     0
102
RTVSPost2010PropOp31
 70
     1
102
RTVSPost2010Prop32
280
     0
102
RTVSPost2010PropOp32
 70
     1
102
RTVSPost2010Prop33
280
     0
102
RTVSPost2010PropOp33
 70
     1
102
RTVSPost2010Prop34
280
     0
102
RTVSPost2010PropOp34
 70
     1
102
RTVSPost2010Prop35
280
     0
102
RTVSPost2010PropOp35
 70
     1
102
RTVSPost2010Prop36
280
     0
102
RTVSPost2010PropOp36
 70
     1
102
RTVSPost2010Prop37
 90
       50
102
RTVSPost2010PropOp37
 70
     1
102
RTVSPost2010Prop38
140
0.0
102
RTVSPost2010PropOp38
 70
     1
102
RTVSPost2010Prop39
140
1.0
102
RTVSPost2010PropOp39
 70
     1
102
RTVSPost2010Prop40
 90
        0
102
RTVSPost2010PropOp40
 70
     1
102
RTVSPost2010Prop41ColorIndex
 90
       18
102
RTVSPost2010Prop41ColorRGB
 90
        0
102
RTVSPost2010PropOp41
 70
     1
102
RTVSPost2010Prop42
 90
       50
102
RTVSPost2010PropOp42
 70
     1
102
RTVSPost2010Prop43
 90
        3
102
RTVSPost2010PropOp43
 70
     1
102
RTVSPost2010Prop44ColorIndex
 90
        5
102
RTVSPost2010Prop44ColorRGB
 90
      255
102
RTVSPost2010PropOp44
 70
     1
102
RTVSPost2010Prop45
280
     0
102
RTVSPost2010PropOp45
 70
     1
102
RTVSPost2010Prop46
 90
       50
102
RTVSPost2010PropOp46
 70
     1
102
RTVSPost2010Prop47
 90
       50
102
RTVSPost2010PropOp47
 70
     1
102
RTVSPost2010Prop48
 90
       50
102
RTVSPost2010PropOp48
 70
     1
102
RTVSPost2010Prop49
280
     0
102
RTVSPost2010PropOp49
 70
     1
102
RTVSPost2010Prop50
 90
       50
102
RTVSPost2010PropOp50
 70
     1
102
RTVSPost2010Prop51ColorIndex
 90
      256
102
RTVSPost2010Prop51ColorRGB
 90
-16777216
102
RTVSPost2010PropOp51
 70
     0
102
RTVSPost2010Prop52
140
1.0
102
RTVSPost2010PropOp52
 70
     0
102
RTVSPost2010Prop53
 90
        2
102
RTVSPost2010PropOp53
 70
     1
102
RTVSPost2010Prop54
  1
strokes_ogs.tif
102
RTVSPost2010PropOp54
 70
     1
102
RTVSPost2010Prop55
280
     0
102
RTVSPost2010PropOp55
 70
     1
102
RTVSPost2010Prop56
140
1.0
102
RTVSPost2010PropOp56
 70
     1
102
RTVSPost2010Prop57
140
1.0
102
RTVSPost2010PropOp57
 70
     1
  0
XRECORD
  5
6DD
102
{ACAD_REACTORS
330
6DC
102
}
330
6DC
100
AcDbXrecord
280
     1
102
RTVSPropertyOp0
 70
     1
102
RTVSPropertyOp1
 70
     1
102
RTVSPropertyOp2
 70
     1
102
RTVSPropertyOp3
 70
     1
102
RTVSPropertyOp4
 70
     1
102
RTVSPropertyOp5
 70
     1
102
RTVSPropertyOp6
 70
     1
102
RTVSPropertyOp7
 70
     1
102
RTVSPropertyOp8
 70
     1
102
RTVSPropertyOp9
 70
     1
102
RTVSPropertyOp10
 70
     1
102
RTVSPropertyOp11
 70
     1
102
RTVSPropertyOp12
 70
     1
102
RTVSPropertyOp13
 70
     1
102
RTVSPropertyOp14
 70
     1
102
RTVSPropertyOp15
 70
     1
102
RTVSPropertyOp16
 70
     1
102
RTVSPropertyOp17
 70
     1
102
RTVSPropertyOp18
 70
     1
102
RTVSPropertyOp19
 70
     1
102
RTVSPropertyOp20
 70
     1
102
RTVSPropertyOp21
 70
     1
102
RTVSPropertyOp22
 70
     1
102
RTVSPropertyOp23
 70
     1
102
RTVSPropertyOp24
 70
     1
102
RTVSPropertyOp25
 70
     1
102
RTVSPropertyOp26
 70
     1
102
RTVSPropertyOp27
 70
     1
102
RTVSPropertyOp28
 70
     1
102
RTVSPropertyOp29
 70
     1
102
RTVSPropertyOp30
 70
     1
102
RTVSPropertyOp31
 70
     1
102
RTVSPropertyOp32
 70
     1
102
RTVSPropertyOp33
 70
     1
102
RTVSPropertyOp34
 70
     1
102
RTVSPropertyOp35
 70
     1
102
RTVSPropertyOp36
 70
     1
102
RTVSPropertyOp37
 70
     1
102
RTVSPropertyOp38
 70
     1
102
RTVSPropertyOp39
 70
     1
102
RTVSPropertyOp40
 70
     1
102
RTVSPropertyOp41
 70
     1
102
RTVSPropertyOp42
 70
     1
102
RTVSPropertyOp43
 70
     1
102
RTVSPropertyOp44
 70
     1
102
RTVSPropertyOp45
 70
     1
102
RTVSPropertyOp46
 70
     1
102
RTVSPropertyOp47
 70
     1
102
RTVSPropertyOp48
 70
     1
102
RTVSPropertyOp49
 70
     1
102
RTVSPropertyOp50
 70
     1
102
RTVSPropertyOp51
 70
     0
102
RTVSPropertyOp52
 70
     0
102
RTVSPropertyOp53
 70
     1
102
RTVSPropertyOp54
 70
     1
102
RTVSPropertyOp55
 70
     1
102
RTVSPropertyOp56
 70
     1
102
RTVSPropertyOp57
 70
     1
102
RTVSPost2010Prop28
280
     0
102
RTVSPost2010PropOp28
 70
     1
102
RTVSPost2010Prop29
280
     1
102
RTVSPost2010PropOp29
 70
     1
102
RTVSPost2010Prop30
280
     1
102
RTVSPost2010PropOp30
 70
     1
102
RTVSPost2010Prop31
280
     0
102
RTVSPost2010PropOp31
 70
     1
102
RTVSPost2010Prop32
280
     0
102
RTVSPost2010PropOp32
 70
     1
102
RTVSPost2010Prop33
280
     0
102
RTVSPost2010PropOp33
 70
     1
102
RTVSPost2010Prop34
280
     0
102
RTVSPost2010PropOp34
 70
     1
102
RTVSPost2010Prop35
280
     0
102
RTVSPost2010PropOp35
 70
     1
102
RTVSPost2010Prop36
280
     0
102
RTVSPost2010PropOp36
 70
     1
102
RTVSPost2010Prop37
 90
       50
102
RTVSPost2010PropOp37
 70
     1
102
RTVSPost2010Prop38
140
0.0
102
RTVSPost2010PropOp38
 70
     1
102
RTVSPost2010Prop39
140
1.0
102
RTVSPost2010PropOp39
 70
     1
102
RTVSPost2010Prop40
 90
        0
102
RTVSPost2010PropOp40
 70
     1
102
RTVSPost2010Prop41ColorIndex
 90
       18
102
RTVSPost2010Prop41ColorRGB
 90
        0
102
RTVSPost2010PropOp41
 70
     1
102
RTVSPost2010Prop42
 90
       50
102
RTVSPost2010PropOp42
 70
     1
102
RTVSPost2010Prop43
 90
        3
102
RTVSPost2010PropOp43
 70
     1
102
RTVSPost2010Prop44ColorIndex
 90
        5
102
RTVSPost2010Prop44ColorRGB
 90
      255
102
RTVSPost2010PropOp44
 70
     1
102
RTVSPost2010Prop45
280
     0
102
RTVSPost2010PropOp45
 70
     1
102
RTVSPost2010Prop46
 90
       50
102
RTVSPost2010PropOp46
 70
     1
102
RTVSPost2010Prop47
 90
       50
102
RTVSPost2010PropOp47
 70
     1
102
RTVSPost2010Prop48
 90
       50
102
RTVSPost2010PropOp48
 70
     1
102
RTVSPost2010Prop49
280
     0
102
RTVSPost2010PropOp49
 70
     1
102
RTVSPost2010Prop50
 90
       50
102
RTVSPost2010PropOp50
 70
     1
102
RTVSPost2010Prop51ColorIndex
 90
      256
102
RTVSPost2010Prop51ColorRGB
 90
-16777216
102
RTVSPost2010PropOp51
 70
     0
102
RTVSPost2010Prop52
140
1.0
102
RTVSPost2010PropOp52
 70
     0
102
RTVSPost2010Prop53
 90
        2
102
RTVSPost2010PropOp53
 70
     1
102
RTVSPost2010Prop54
  1
strokes_ogs.tif
102
RTVSPost2010PropOp54
 70
     1
102
RTVSPost2010Prop55
280
     0
102
RTVSPost2010PropOp55
 70
     1
102
RTVSPost2010Prop56
140
1.0
102
RTVSPost2010PropOp56
 70
     1
102
RTVSPost2010Prop57
140
1.0
102
RTVSPost2010PropOp57
 70
     1
  0
XRECORD
  5
6C1
102
{ACAD_REACTORS
330
6C0
102
}
330
6C0
100
AcDbXrecord
280
     1
102
RTVSPropertyOp0
 70
     1
102
RTVSPropertyOp1
 70
     1
102
RTVSPropertyOp2
 70
     1
102
RTVSPropertyOp3
 70
     1
102
RTVSPropertyOp4
 70
     1
102
RTVSPropertyOp5
 70
     1
102
RTVSPropertyOp6
 70
     1
102
RTVSPropertyOp7
 70
     1
102
RTVSPropertyOp8
 70
     1
102
RTVSPropertyOp9
 70
     1
102
RTVSPropertyOp10
 70
     1
102
RTVSPropertyOp11
 70
     1
102
RTVSPropertyOp12
 70
     1
102
RTVSPropertyOp13
 70
     1
102
RTVSPropertyOp14
 70
     1
102
RTVSPropertyOp15
 70
     1
102
RTVSPropertyOp16
 70
     1
102
RTVSPropertyOp17
 70
     1
102
RTVSPropertyOp18
 70
     1
102
RTVSPropertyOp19
 70
     1
102
RTVSPropertyOp20
 70
     1
102
RTVSPropertyOp21
 70
     1
102
RTVSPropertyOp22
 70
     1
102
RTVSPropertyOp23
 70
     1
102
RTVSPropertyOp24
 70
     1
102
RTVSPropertyOp25
 70
     1
102
RTVSPropertyOp26
 70
     1
102
RTVSPropertyOp27
 70
     1
102
RTVSPropertyOp28
 70
     1
102
RTVSPropertyOp29
 70
     1
102
RTVSPropertyOp30
 70
     1
102
RTVSPropertyOp31
 70
     1
102
RTVSPropertyOp32
 70
     1
102
RTVSPropertyOp33
 70
     1
102
RTVSPropertyOp34
 70
     1
102
RTVSPropertyOp35
 70
     1
102
RTVSPropertyOp36
 70
     1
102
RTVSPropertyOp37
 70
     1
102
RTVSPropertyOp38
 70
     1
102
RTVSPropertyOp39
 70
     1
102
RTVSPropertyOp40
 70
     1
102
RTVSPropertyOp41
 70
     1
102
RTVSPropertyOp42
 70
     1
102
RTVSPropertyOp43
 70
     1
102
RTVSPropertyOp44
 70
     1
102
RTVSPropertyOp45
 70
     1
102
RTVSPropertyOp46
 70
     1
102
RTVSPropertyOp47
 70
     1
102
RTVSPropertyOp48
 70
     1
102
RTVSPropertyOp49
 70
     1
102
RTVSPropertyOp50
 70
     1
102
RTVSPropertyOp51
 70
     0
102
RTVSPropertyOp52
 70
     0
102
RTVSPropertyOp53
 70
     1
102
RTVSPropertyOp54
 70
     1
102
RTVSPropertyOp55
 70
     1
102
RTVSPropertyOp56
 70
     1
102
RTVSPropertyOp57
 70
     1
102
RTVSPost2010Prop28
280
     0
102
RTVSPost2010PropOp28
 70
     1
102
RTVSPost2010Prop29
280
     1
102
RTVSPost2010PropOp29
 70
     1
102
RTVSPost2010Prop30
280
     1
102
RTVSPost2010PropOp30
 70
     1
102
RTVSPost2010Prop31
280
     0
102
RTVSPost2010PropOp31
 70
     1
102
RTVSPost2010Prop32
280
     0
102
RTVSPost2010PropOp32
 70
     1
102
RTVSPost2010Prop33
280
     0
102
RTVSPost2010PropOp33
 70
     1
102
RTVSPost2010Prop34
280
     0
102
RTVSPost2010PropOp34
 70
     1
102
RTVSPost2010Prop35
280
     0
102
RTVSPost2010PropOp35
 70
     1
102
RTVSPost2010Prop36
280
     0
102
RTVSPost2010PropOp36
 70
     1
102
RTVSPost2010Prop37
 90
       50
102
RTVSPost2010PropOp37
 70
     1
102
RTVSPost2010Prop38
140
0.0
102
RTVSPost2010PropOp38
 70
     1
102
RTVSPost2010Prop39
140
1.0
102
RTVSPost2010PropOp39
 70
     1
102
RTVSPost2010Prop40
 90
        0
102
RTVSPost2010PropOp40
 70
     1
102
RTVSPost2010Prop41ColorIndex
 90
       18
102
RTVSPost2010Prop41ColorRGB
 90
        0
102
RTVSPost2010PropOp41
 70
     1
102
RTVSPost2010Prop42
 90
       50
102
RTVSPost2010PropOp42
 70
     1
102
RTVSPost2010Prop43
 90
        3
102
RTVSPost2010PropOp43
 70
     1
102
RTVSPost2010Prop44ColorIndex
 90
        5
102
RTVSPost2010Prop44ColorRGB
 90
      255
102
RTVSPost2010PropOp44
 70
     1
102
RTVSPost2010Prop45
280
     0
102
RTVSPost2010PropOp45
 70
     1
102
RTVSPost2010Prop46
 90
       50
102
RTVSPost2010PropOp46
 70
     1
102
RTVSPost2010Prop47
 90
       50
102
RTVSPost2010PropOp47
 70
     1
102
RTVSPost2010Prop48
 90
       50
102
RTVSPost2010PropOp48
 70
     1
102
RTVSPost2010Prop49
280
     0
102
RTVSPost2010PropOp49
 70
     1
102
RTVSPost2010Prop50
 90
       50
102
RTVSPost2010PropOp50
 70
     1
102
RTVSPost2010Prop51ColorIndex
 90
      256
102
RTVSPost2010Prop51ColorRGB
 90
-16777216
102
RTVSPost2010PropOp51
 70
     0
102
RTVSPost2010Prop52
140
1.0
102
RTVSPost2010PropOp52
 70
     0
102
RTVSPost2010Prop53
 90
        2
102
RTVSPost2010PropOp53
 70
     1
102
RTVSPost2010Prop54
  1
strokes_ogs.tif
102
RTVSPost2010PropOp54
 70
     1
102
RTVSPost2010Prop55
280
     0
102
RTVSPost2010PropOp55
 70
     1
102
RTVSPost2010Prop56
140
1.0
102
RTVSPost2010PropOp56
 70
     1
102
RTVSPost2010Prop57
140
1.0
102
RTVSPost2010PropOp57
 70
     1
  0
XRECORD
  5
6C3
102
{ACAD_REACTORS
330
6C2
102
}
330
6C2
100
AcDbXrecord
280
     1
102
RTVSPropertyOp0
 70
     1
102
RTVSPropertyOp1
 70
     1
102
RTVSPropertyOp2
 70
     1
102
RTVSPropertyOp3
 70
     1
102
RTVSPropertyOp4
 70
     1
102
RTVSPropertyOp5
 70
     1
102
RTVSPropertyOp6
 70
     1
102
RTVSPropertyOp7
 70
     1
102
RTVSPropertyOp8
 70
     1
102
RTVSPropertyOp9
 70
     1
102
RTVSPropertyOp10
 70
     1
102
RTVSPropertyOp11
 70
     1
102
RTVSPropertyOp12
 70
     1
102
RTVSPropertyOp13
 70
     1
102
RTVSPropertyOp14
 70
     1
102
RTVSPropertyOp15
 70
     1
102
RTVSPropertyOp16
 70
     1
102
RTVSPropertyOp17
 70
     1
102
RTVSPropertyOp18
 70
     1
102
RTVSPropertyOp19
 70
     1
102
RTVSPropertyOp20
 70
     1
102
RTVSPropertyOp21
 70
     1
102
RTVSPropertyOp22
 70
     1
102
RTVSPropertyOp23
 70
     1
102
RTVSPropertyOp24
 70
     1
102
RTVSPropertyOp25
 70
     1
102
RTVSPropertyOp26
 70
     1
102
RTVSPropertyOp27
 70
     1
102
RTVSPropertyOp28
 70
     1
102
RTVSPropertyOp29
 70
     1
102
RTVSPropertyOp30
 70
     1
102
RTVSPropertyOp31
 70
     1
102
RTVSPropertyOp32
 70
     1
102
RTVSPropertyOp33
 70
     1
102
RTVSPropertyOp34
 70
     1
102
RTVSPropertyOp35
 70
     1
102
RTVSPropertyOp36
 70
     1
102
RTVSPropertyOp37
 70
     1
102
RTVSPropertyOp38
 70
     1
102
RTVSPropertyOp39
 70
     1
102
RTVSPropertyOp40
 70
     1
102
RTVSPropertyOp41
 70
     1
102
RTVSPropertyOp42
 70
     1
102
RTVSPropertyOp43
 70
     1
102
RTVSPropertyOp44
 70
     1
102
RTVSPropertyOp45
 70
     1
102
RTVSPropertyOp46
 70
     1
102
RTVSPropertyOp47
 70
     1
102
RTVSPropertyOp48
 70
     1
102
RTVSPropertyOp49
 70
     1
102
RTVSPropertyOp50
 70
     1
102
RTVSPropertyOp51
 70
     0
102
RTVSPropertyOp52
 70
     0
102
RTVSPropertyOp53
 70
     1
102
RTVSPropertyOp54
 70
     1
102
RTVSPropertyOp55
 70
     1
102
RTVSPropertyOp56
 70
     1
102
RTVSPropertyOp57
 70
     1
102
RTVSPost2010Prop28
280
     0
102
RTVSPost2010PropOp28
 70
     1
102
RTVSPost2010Prop29
280
     1
102
RTVSPost2010PropOp29
 70
     1
102
RTVSPost2010Prop30
280
     1
102
RTVSPost2010PropOp30
 70
     1
102
RTVSPost2010Prop31
280
     0
102
RTVSPost2010PropOp31
 70
     1
102
RTVSPost2010Prop32
280
     0
102
RTVSPost2010PropOp32
 70
     1
102
RTVSPost2010Prop33
280
     0
102
RTVSPost2010PropOp33
 70
     1
102
RTVSPost2010Prop34
280
     0
102
RTVSPost2010PropOp34
 70
     1
102
RTVSPost2010Prop35
280
     0
102
RTVSPost2010PropOp35
 70
     1
102
RTVSPost2010Prop36
280
     0
102
RTVSPost2010PropOp36
 70
     1
102
RTVSPost2010Prop37
 90
       50
102
RTVSPost2010PropOp37
 70
     1
102
RTVSPost2010Prop38
140
0.0
102
RTVSPost2010PropOp38
 70
     1
102
RTVSPost2010Prop39
140
1.0
102
RTVSPost2010PropOp39
 70
     1
102
RTVSPost2010Prop40
 90
        0
102
RTVSPost2010PropOp40
 70
     1
102
RTVSPost2010Prop41ColorIndex
 90
       18
102
RTVSPost2010Prop41ColorRGB
 90
        0
102
RTVSPost2010PropOp41
 70
     1
102
RTVSPost2010Prop42
 90
       50
102
RTVSPost2010PropOp42
 70
     1
102
RTVSPost2010Prop43
 90
        3
102
RTVSPost2010PropOp43
 70
     1
102
RTVSPost2010Prop44ColorIndex
 90
        5
102
RTVSPost2010Prop44ColorRGB
 90
      255
102
RTVSPost2010PropOp44
 70
     1
102
RTVSPost2010Prop45
280
     0
102
RTVSPost2010PropOp45
 70
     1
102
RTVSPost2010Prop46
 90
       50
102
RTVSPost2010PropOp46
 70
     1
102
RTVSPost2010Prop47
 90
       50
102
RTVSPost2010PropOp47
 70
     1
102
RTVSPost2010Prop48
 90
       50
102
RTVSPost2010PropOp48
 70
     1
102
RTVSPost2010Prop49
280
     0
102
RTVSPost2010PropOp49
 70
     1
102
RTVSPost2010Prop50
 90
       50
102
RTVSPost2010PropOp50
 70
     1
102
RTVSPost2010Prop51ColorIndex
 90
      256
102
RTVSPost2010Prop51ColorRGB
 90
-16777216
102
RTVSPost2010PropOp51
 70
     0
102
RTVSPost2010Prop52
140
1.0
102
RTVSPost2010PropOp52
 70
     0
102
RTVSPost2010Prop53
 90
        2
102
RTVSPost2010PropOp53
 70
     1
102
RTVSPost2010Prop54
  1
strokes_ogs.tif
102
RTVSPost2010PropOp54
 70
     1
102
RTVSPost2010Prop55
280
     0
102
RTVSPost2010PropOp55
 70
     1
102
RTVSPost2010Prop56
140
1.0
102
RTVSPost2010PropOp56
 70
     1
102
RTVSPost2010Prop57
140
1.0
102
RTVSPost2010PropOp57
 70
     1
  0
XRECORD
  5
6C5
102
{ACAD_REACTORS
330
6C4
102
}
330
6C4
100
AcDbXrecord
280
     1
102
RTVSPropertyOp0
 70
     1
102
RTVSPropertyOp1
 70
     1
102
RTVSPropertyOp2
 70
     1
102
RTVSPropertyOp3
 70
     1
102
RTVSPropertyOp4
 70
     1
102
RTVSPropertyOp5
 70
     1
102
RTVSPropertyOp6
 70
     1
102
RTVSPropertyOp7
 70
     1
102
RTVSPropertyOp8
 70
     1
102
RTVSPropertyOp9
 70
     1
102
RTVSPropertyOp10
 70
     1
102
RTVSPropertyOp11
 70
     1
102
RTVSPropertyOp12
 70
     1
102
RTVSPropertyOp13
 70
     1
102
RTVSPropertyOp14
 70
     1
102
RTVSPropertyOp15
 70
     1
102
RTVSPropertyOp16
 70
     1
102
RTVSPropertyOp17
 70
     1
102
RTVSPropertyOp18
 70
     1
102
RTVSPropertyOp19
 70
     1
102
RTVSPropertyOp20
 70
     1
102
RTVSPropertyOp21
 70
     1
102
RTVSPropertyOp22
 70
     1
102
RTVSPropertyOp23
 70
     1
102
RTVSPropertyOp24
 70
     1
102
RTVSPropertyOp25
 70
     1
102
RTVSPropertyOp26
 70
     1
102
RTVSPropertyOp27
 70
     1
102
RTVSPropertyOp28
 70
     1
102
RTVSPropertyOp29
 70
     1
102
RTVSPropertyOp30
 70
     1
102
RTVSPropertyOp31
 70
     1
102
RTVSPropertyOp32
 70
     1
102
RTVSPropertyOp33
 70
     1
102
RTVSPropertyOp34
 70
     1
102
RTVSPropertyOp35
 70
     1
102
RTVSPropertyOp36
 70
     1
102
RTVSPropertyOp37
 70
     1
102
RTVSPropertyOp38
 70
     1
102
RTVSPropertyOp39
 70
     1
102
RTVSPropertyOp40
 70
     1
102
RTVSPropertyOp41
 70
     1
102
RTVSPropertyOp42
 70
     1
102
RTVSPropertyOp43
 70
     1
102
RTVSPropertyOp44
 70
     1
102
RTVSPropertyOp45
 70
     1
102
RTVSPropertyOp46
 70
     1
102
RTVSPropertyOp47
 70
     1
102
RTVSPropertyOp48
 70
     1
102
RTVSPropertyOp49
 70
     1
102
RTVSPropertyOp50
 70
     1
102
RTVSPropertyOp51
 70
     0
102
RTVSPropertyOp52
 70
     0
102
RTVSPropertyOp53
 70
     1
102
RTVSPropertyOp54
 70
     1
102
RTVSPropertyOp55
 70
     1
102
RTVSPropertyOp56
 70
     1
102
RTVSPropertyOp57
 70
     1
102
RTVSPost2010Prop28
280
     0
102
RTVSPost2010PropOp28
 70
     1
102
RTVSPost2010Prop29
280
     1
102
RTVSPost2010PropOp29
 70
     1
102
RTVSPost2010Prop30
280
     1
102
RTVSPost2010PropOp30
 70
     1
102
RTVSPost2010Prop31
280
     0
102
RTVSPost2010PropOp31
 70
     1
102
RTVSPost2010Prop32
280
     0
102
RTVSPost2010PropOp32
 70
     1
102
RTVSPost2010Prop33
280
     0
102
RTVSPost2010PropOp33
 70
     1
102
RTVSPost2010Prop34
280
     0
102
RTVSPost2010PropOp34
 70
     1
102
RTVSPost2010Prop35
280
     0
102
RTVSPost2010PropOp35
 70
     1
102
RTVSPost2010Prop36
280
     0
102
RTVSPost2010PropOp36
 70
     1
102
RTVSPost2010Prop37
 90
       50
102
RTVSPost2010PropOp37
 70
     1
102
RTVSPost2010Prop38
140
0.0
102
RTVSPost2010PropOp38
 70
     1
102
RTVSPost2010Prop39
140
1.0
102
RTVSPost2010PropOp39
 70
     1
102
RTVSPost2010Prop40
 90
        0
102
RTVSPost2010PropOp40
 70
     1
102
RTVSPost2010Prop41ColorIndex
 90
       18
102
RTVSPost2010Prop41ColorRGB
 90
        0
102
RTVSPost2010PropOp41
 70
     1
102
RTVSPost2010Prop42
 90
       50
102
RTVSPost2010PropOp42
 70
     1
102
RTVSPost2010Prop43
 90
        3
102
RTVSPost2010PropOp43
 70
     1
102
RTVSPost2010Prop44ColorIndex
 90
        5
102
RTVSPost2010Prop44ColorRGB
 90
      255
102
RTVSPost2010PropOp44
 70
     1
102
RTVSPost2010Prop45
280
     0
102
RTVSPost2010PropOp45
 70
     1
102
RTVSPost2010Prop46
 90
       50
102
RTVSPost2010PropOp46
 70
     1
102
RTVSPost2010Prop47
 90
       50
102
RTVSPost2010PropOp47
 70
     1
102
RTVSPost2010Prop48
 90
       50
102
RTVSPost2010PropOp48
 70
     1
102
RTVSPost2010Prop49
280
     0
102
RTVSPost2010PropOp49
 70
     1
102
RTVSPost2010Prop50
 90
       50
102
RTVSPost2010PropOp50
 70
     1
102
RTVSPost2010Prop51ColorIndex
 90
      256
102
RTVSPost2010Prop51ColorRGB
 90
-16777216
102
RTVSPost2010PropOp51
 70
     0
102
RTVSPost2010Prop52
140
1.0
102
RTVSPost2010PropOp52
 70
     0
102
RTVSPost2010Prop53
 90
        2
102
RTVSPost2010PropOp53
 70
     1
102
RTVSPost2010Prop54
  1
strokes_ogs.tif
102
RTVSPost2010PropOp54
 70
     1
102
RTVSPost2010Prop55
280
     0
102
RTVSPost2010PropOp55
 70
     1
102
RTVSPost2010Prop56
140
1.0
102
RTVSPost2010PropOp56
 70
     1
102
RTVSPost2010Prop57
140
1.0
102
RTVSPost2010PropOp57
 70
     1
  0
XRECORD
  5
6C7
102
{ACAD_REACTORS
330
6C6
102
}
330
6C6
100
AcDbXrecord
280
     1
102
RTVSPropertyOp0
 70
     1
102
RTVSPropertyOp1
 70
     1
102
RTVSPropertyOp2
 70
     1
102
RTVSPropertyOp3
 70
     1
102
RTVSPropertyOp4
 70
     1
102
RTVSPropertyOp5
 70
     1
102
RTVSPropertyOp6
 70
     1
102
RTVSPropertyOp7
 70
     1
102
RTVSPropertyOp8
 70
     1
102
RTVSPropertyOp9
 70
     1
102
RTVSPropertyOp10
 70
     1
102
RTVSPropertyOp11
 70
     1
102
RTVSPropertyOp12
 70
     1
102
RTVSPropertyOp13
 70
     1
102
RTVSPropertyOp14
 70
     1
102
RTVSPropertyOp15
 70
     1
102
RTVSPropertyOp16
 70
     1
102
RTVSPropertyOp17
 70
     1
102
RTVSPropertyOp18
 70
     1
102
RTVSPropertyOp19
 70
     1
102
RTVSPropertyOp20
 70
     1
102
RTVSPropertyOp21
 70
     1
102
RTVSPropertyOp22
 70
     1
102
RTVSPropertyOp23
 70
     1
102
RTVSPropertyOp24
 70
     1
102
RTVSPropertyOp25
 70
     1
102
RTVSPropertyOp26
 70
     1
102
RTVSPropertyOp27
 70
     1
102
RTVSPropertyOp28
 70
     1
102
RTVSPropertyOp29
 70
     1
102
RTVSPropertyOp30
 70
     1
102
RTVSPropertyOp31
 70
     1
102
RTVSPropertyOp32
 70
     1
102
RTVSPropertyOp33
 70
     1
102
RTVSPropertyOp34
 70
     1
102
RTVSPropertyOp35
 70
     1
102
RTVSPropertyOp36
 70
     1
102
RTVSPropertyOp37
 70
     1
102
RTVSPropertyOp38
 70
     1
102
RTVSPropertyOp39
 70
     1
102
RTVSPropertyOp40
 70
     1
102
RTVSPropertyOp41
 70
     1
102
RTVSPropertyOp42
 70
     1
102
RTVSPropertyOp43
 70
     1
102
RTVSPropertyOp44
 70
     1
102
RTVSPropertyOp45
 70
     1
102
RTVSPropertyOp46
 70
     1
102
RTVSPropertyOp47
 70
     1
102
RTVSPropertyOp48
 70
     1
102
RTVSPropertyOp49
 70
     1
102
RTVSPropertyOp50
 70
     1
102
RTVSPropertyOp51
 70
     0
102
RTVSPropertyOp52
 70
     0
102
RTVSPropertyOp53
 70
     1
102
RTVSPropertyOp54
 70
     1
102
RTVSPropertyOp55
 70
     1
102
RTVSPropertyOp56
 70
     1
102
RTVSPropertyOp57
 70
     1
102
RTVSPost2010Prop28
280
     0
102
RTVSPost2010PropOp28
 70
     1
102
RTVSPost2010Prop29
280
     1
102
RTVSPost2010PropOp29
 70
     1
102
RTVSPost2010Prop30
280
     1
102
RTVSPost2010PropOp30
 70
     1
102
RTVSPost2010Prop31
280
     0
102
RTVSPost2010PropOp31
 70
     1
102
RTVSPost2010Prop32
280
     0
102
RTVSPost2010PropOp32
 70
     1
102
RTVSPost2010Prop33
280
     0
102
RTVSPost2010PropOp33
 70
     1
102
RTVSPost2010Prop34
280
     0
102
RTVSPost2010PropOp34
 70
     1
102
RTVSPost2010Prop35
280
     0
102
RTVSPost2010PropOp35
 70
     1
102
RTVSPost2010Prop36
280
     0
102
RTVSPost2010PropOp36
 70
     1
102
RTVSPost2010Prop37
 90
       50
102
RTVSPost2010PropOp37
 70
     1
102
RTVSPost2010Prop38
140
0.0
102
RTVSPost2010PropOp38
 70
     1
102
RTVSPost2010Prop39
140
1.0
102
RTVSPost2010PropOp39
 70
     1
102
RTVSPost2010Prop40
 90
        0
102
RTVSPost2010PropOp40
 70
     1
102
RTVSPost2010Prop41ColorIndex
 90
       18
102
RTVSPost2010Prop41ColorRGB
 90
        0
102
RTVSPost2010PropOp41
 70
     1
102
RTVSPost2010Prop42
 90
       50
102
RTVSPost2010PropOp42
 70
     1
102
RTVSPost2010Prop43
 90
        3
102
RTVSPost2010PropOp43
 70
     1
102
RTVSPost2010Prop44ColorIndex
 90
        5
102
RTVSPost2010Prop44ColorRGB
 90
      255
102
RTVSPost2010PropOp44
 70
     1
102
RTVSPost2010Prop45
280
     0
102
RTVSPost2010PropOp45
 70
     1
102
RTVSPost2010Prop46
 90
       50
102
RTVSPost2010PropOp46
 70
     1
102
RTVSPost2010Prop47
 90
       50
102
RTVSPost2010PropOp47
 70
     1
102
RTVSPost2010Prop48
 90
       50
102
RTVSPost2010PropOp48
 70
     1
102
RTVSPost2010Prop49
280
     0
102
RTVSPost2010PropOp49
 70
     1
102
RTVSPost2010Prop50
 90
       50
102
RTVSPost2010PropOp50
 70
     1
102
RTVSPost2010Prop51ColorIndex
 90
      256
102
RTVSPost2010Prop51ColorRGB
 90
-16777216
102
RTVSPost2010PropOp51
 70
     0
102
RTVSPost2010Prop52
140
1.0
102
RTVSPost2010PropOp52
 70
     0
102
RTVSPost2010Prop53
 90
        2
102
RTVSPost2010PropOp53
 70
     1
102
RTVSPost2010Prop54
  1
strokes_ogs.tif
102
RTVSPost2010PropOp54
 70
     1
102
RTVSPost2010Prop55
280
     0
102
RTVSPost2010PropOp55
 70
     1
102
RTVSPost2010Prop56
140
1.0
102
RTVSPost2010PropOp56
 70
     1
102
RTVSPost2010Prop57
140
1.0
102
RTVSPost2010PropOp57
 70
     1
  0
XRECORD
  5
6DB
102
{ACAD_REACTORS
330
6DA
102
}
330
6DA
100
AcDbXrecord
280
     1
102
RTVSPropertyOp0
 70
     1
102
RTVSPropertyOp1
 70
     1
102
RTVSPropertyOp2
 70
     1
102
RTVSPropertyOp3
 70
     1
102
RTVSPropertyOp4
 70
     1
102
RTVSPropertyOp5
 70
     1
102
RTVSPropertyOp6
 70
     1
102
RTVSPropertyOp7
 70
     1
102
RTVSPropertyOp8
 70
     1
102
RTVSPropertyOp9
 70
     1
102
RTVSPropertyOp10
 70
     1
102
RTVSPropertyOp11
 70
     1
102
RTVSPropertyOp12
 70
     1
102
RTVSPropertyOp13
 70
     1
102
RTVSPropertyOp14
 70
     1
102
RTVSPropertyOp15
 70
     1
102
RTVSPropertyOp16
 70
     1
102
RTVSPropertyOp17
 70
     1
102
RTVSPropertyOp18
 70
     1
102
RTVSPropertyOp19
 70
     1
102
RTVSPropertyOp20
 70
     1
102
RTVSPropertyOp21
 70
     1
102
RTVSPropertyOp22
 70
     1
102
RTVSPropertyOp23
 70
     1
102
RTVSPropertyOp24
 70
     1
102
RTVSPropertyOp25
 70
     1
102
RTVSPropertyOp26
 70
     1
102
RTVSPropertyOp27
 70
     1
102
RTVSPropertyOp28
 70
     1
102
RTVSPropertyOp29
 70
     1
102
RTVSPropertyOp30
 70
     1
102
RTVSPropertyOp31
 70
     1
102
RTVSPropertyOp32
 70
     1
102
RTVSPropertyOp33
 70
     1
102
RTVSPropertyOp34
 70
     1
102
RTVSPropertyOp35
 70
     1
102
RTVSPropertyOp36
 70
     1
102
RTVSPropertyOp37
 70
     1
102
RTVSPropertyOp38
 70
     1
102
RTVSPropertyOp39
 70
     1
102
RTVSPropertyOp40
 70
     1
102
RTVSPropertyOp41
 70
     1
102
RTVSPropertyOp42
 70
     1
102
RTVSPropertyOp43
 70
     1
102
RTVSPropertyOp44
 70
     1
102
RTVSPropertyOp45
 70
     1
102
RTVSPropertyOp46
 70
     1
102
RTVSPropertyOp47
 70
     1
102
RTVSPropertyOp48
 70
     1
102
RTVSPropertyOp49
 70
     1
102
RTVSPropertyOp50
 70
     1
102
RTVSPropertyOp51
 70
     0
102
RTVSPropertyOp52
 70
     0
102
RTVSPropertyOp53
 70
     1
102
RTVSPropertyOp54
 70
     1
102
RTVSPropertyOp55
 70
     1
102
RTVSPropertyOp56
 70
     1
102
RTVSPropertyOp57
 70
     1
102
RTVSPost2010Prop28
280
     0
102
RTVSPost2010PropOp28
 70
     1
102
RTVSPost2010Prop29
280
     1
102
RTVSPost2010PropOp29
 70
     1
102
RTVSPost2010Prop30
280
     1
102
RTVSPost2010PropOp30
 70
     1
102
RTVSPost2010Prop31
280
     0
102
RTVSPost2010PropOp31
 70
     1
102
RTVSPost2010Prop32
280
     0
102
RTVSPost2010PropOp32
 70
     1
102
RTVSPost2010Prop33
280
     0
102
RTVSPost2010PropOp33
 70
     1
102
RTVSPost2010Prop34
280
     0
102
RTVSPost2010PropOp34
 70
     1
102
RTVSPost2010Prop35
280
     0
102
RTVSPost2010PropOp35
 70
     1
102
RTVSPost2010Prop36
280
     0
102
RTVSPost2010PropOp36
 70
     1
102
RTVSPost2010Prop37
 90
       50
102
RTVSPost2010PropOp37
 70
     1
102
RTVSPost2010Prop38
140
0.0
102
RTVSPost2010PropOp38
 70
     1
102
RTVSPost2010Prop39
140
1.0
102
RTVSPost2010PropOp39
 70
     1
102
RTVSPost2010Prop40
 90
        0
102
RTVSPost2010PropOp40
 70
     1
102
RTVSPost2010Prop41ColorIndex
 90
       18
102
RTVSPost2010Prop41ColorRGB
 90
        0
102
RTVSPost2010PropOp41
 70
     1
102
RTVSPost2010Prop42
 90
       50
102
RTVSPost2010PropOp42
 70
     1
102
RTVSPost2010Prop43
 90
        3
102
RTVSPost2010PropOp43
 70
     1
102
RTVSPost2010Prop44ColorIndex
 90
        5
102
RTVSPost2010Prop44ColorRGB
 90
      255
102
RTVSPost2010PropOp44
 70
     1
102
RTVSPost2010Prop45
280
     0
102
RTVSPost2010PropOp45
 70
     1
102
RTVSPost2010Prop46
 90
       50
102
RTVSPost2010PropOp46
 70
     1
102
RTVSPost2010Prop47
 90
       50
102
RTVSPost2010PropOp47
 70
     1
102
RTVSPost2010Prop48
 90
       50
102
RTVSPost2010PropOp48
 70
     1
102
RTVSPost2010Prop49
280
     0
102
RTVSPost2010PropOp49
 70
     1
102
RTVSPost2010Prop50
 90
       50
102
RTVSPost2010PropOp50
 70
     1
102
RTVSPost2010Prop51ColorIndex
 90
      256
102
RTVSPost2010Prop51ColorRGB
 90
-16777216
102
RTVSPost2010PropOp51
 70
     0
102
RTVSPost2010Prop52
140
1.0
102
RTVSPost2010PropOp52
 70
     0
102
RTVSPost2010Prop53
 90
        2
102
RTVSPost2010PropOp53
 70
     1
102
RTVSPost2010Prop54
  1
strokes_ogs.tif
102
RTVSPost2010PropOp54
 70
     1
102
RTVSPost2010Prop55
280
     0
102
RTVSPost2010PropOp55
 70
     1
102
RTVSPost2010Prop56
140
1.0
102
RTVSPost2010PropOp56
 70
     1
102
RTVSPost2010Prop57
140
1.0
102
RTVSPost2010PropOp57
 70
     1
  0
XRECORD
  5
6D1
102
{ACAD_REACTORS
330
6D0
102
}
330
6D0
100
AcDbXrecord
280
     1
102
RTVSPropertyOp0
 70
     1
102
RTVSPropertyOp1
 70
     1
102
RTVSPropertyOp2
 70
     1
102
RTVSPropertyOp3
 70
     1
102
RTVSPropertyOp4
 70
     1
102
RTVSPropertyOp5
 70
     1
102
RTVSPropertyOp6
 70
     1
102
RTVSPropertyOp7
 70
     1
102
RTVSPropertyOp8
 70
     1
102
RTVSPropertyOp9
 70
     1
102
RTVSPropertyOp10
 70
     1
102
RTVSPropertyOp11
 70
     1
102
RTVSPropertyOp12
 70
     1
102
RTVSPropertyOp13
 70
     1
102
RTVSPropertyOp14
 70
     1
102
RTVSPropertyOp15
 70
     1
102
RTVSPropertyOp16
 70
     1
102
RTVSPropertyOp17
 70
     1
102
RTVSPropertyOp18
 70
     1
102
RTVSPropertyOp19
 70
     1
102
RTVSPropertyOp20
 70
     1
102
RTVSPropertyOp21
 70
     1
102
RTVSPropertyOp22
 70
     1
102
RTVSPropertyOp23
 70
     1
102
RTVSPropertyOp24
 70
     1
102
RTVSPropertyOp25
 70
     1
102
RTVSPropertyOp26
 70
     1
102
RTVSPropertyOp27
 70
     1
102
RTVSPropertyOp28
 70
     1
102
RTVSPropertyOp29
 70
     1
102
RTVSPropertyOp30
 70
     1
102
RTVSPropertyOp31
 70
     1
102
RTVSPropertyOp32
 70
     1
102
RTVSPropertyOp33
 70
     1
102
RTVSPropertyOp34
 70
     1
102
RTVSPropertyOp35
 70
     1
102
RTVSPropertyOp36
 70
     1
102
RTVSPropertyOp37
 70
     1
102
RTVSPropertyOp38
 70
     1
102
RTVSPropertyOp39
 70
     1
102
RTVSPropertyOp40
 70
     1
102
RTVSPropertyOp41
 70
     1
102
RTVSPropertyOp42
 70
     1
102
RTVSPropertyOp43
 70
     1
102
RTVSPropertyOp44
 70
     1
102
RTVSPropertyOp45
 70
     1
102
RTVSPropertyOp46
 70
     1
102
RTVSPropertyOp47
 70
     1
102
RTVSPropertyOp48
 70
     1
102
RTVSPropertyOp49
 70
     1
102
RTVSPropertyOp50
 70
     1
102
RTVSPropertyOp51
 70
     0
102
RTVSPropertyOp52
 70
     0
102
RTVSPropertyOp53
 70
     1
102
RTVSPropertyOp54
 70
     1
102
RTVSPropertyOp55
 70
     1
102
RTVSPropertyOp56
 70
     1
102
RTVSPropertyOp57
 70
     1
102
RTVSPost2010Prop28
280
     0
102
RTVSPost2010PropOp28
 70
     1
102
RTVSPost2010Prop29
280
     1
102
RTVSPost2010PropOp29
 70
     1
102
RTVSPost2010Prop30
280
     1
102
RTVSPost2010PropOp30
 70
     1
102
RTVSPost2010Prop31
280
     0
102
RTVSPost2010PropOp31
 70
     1
102
RTVSPost2010Prop32
280
     0
102
RTVSPost2010PropOp32
 70
     1
102
RTVSPost2010Prop33
280
     0
102
RTVSPost2010PropOp33
 70
     1
102
RTVSPost2010Prop34
280
     0
102
RTVSPost2010PropOp34
 70
     1
102
RTVSPost2010Prop35
280
     0
102
RTVSPost2010PropOp35
 70
     1
102
RTVSPost2010Prop36
280
     0
102
RTVSPost2010PropOp36
 70
     1
102
RTVSPost2010Prop37
 90
       50
102
RTVSPost2010PropOp37
 70
     1
102
RTVSPost2010Prop38
140
0.0
102
RTVSPost2010PropOp38
 70
     1
102
RTVSPost2010Prop39
140
1.0
102
RTVSPost2010PropOp39
 70
     1
102
RTVSPost2010Prop40
 90
        0
102
RTVSPost2010PropOp40
 70
     1
102
RTVSPost2010Prop41ColorIndex
 90
       18
102
RTVSPost2010Prop41ColorRGB
 90
        0
102
RTVSPost2010PropOp41
 70
     1
102
RTVSPost2010Prop42
 90
       50
102
RTVSPost2010PropOp42
 70
     1
102
RTVSPost2010Prop43
 90
        3
102
RTVSPost2010PropOp43
 70
     1
102
RTVSPost2010Prop44ColorIndex
 90
        5
102
RTVSPost2010Prop44ColorRGB
 90
      255
102
RTVSPost2010PropOp44
 70
     1
102
RTVSPost2010Prop45
280
     0
102
RTVSPost2010PropOp45
 70
     1
102
RTVSPost2010Prop46
 90
       50
102
RTVSPost2010PropOp46
 70
     1
102
RTVSPost2010Prop47
 90
       50
102
RTVSPost2010PropOp47
 70
     1
102
RTVSPost2010Prop48
 90
       50
102
RTVSPost2010PropOp48
 70
     1
102
RTVSPost2010Prop49
280
     0
102
RTVSPost2010PropOp49
 70
     1
102
RTVSPost2010Prop50
 90
       50
102
RTVSPost2010PropOp50
 70
     1
102
RTVSPost2010Prop51ColorIndex
 90
      256
102
RTVSPost2010Prop51ColorRGB
 90
-16777216
102
RTVSPost2010PropOp51
 70
     0
102
RTVSPost2010Prop52
140
1.0
102
RTVSPost2010PropOp52
 70
     0
102
RTVSPost2010Prop53
 90
        2
102
RTVSPost2010PropOp53
 70
     1
102
RTVSPost2010Prop54
  1
strokes_ogs.tif
102
RTVSPost2010PropOp54
 70
     1
102
RTVSPost2010Prop55
280
     0
102
RTVSPost2010PropOp55
 70
     1
102
RTVSPost2010Prop56
140
1.0
102
RTVSPost2010PropOp56
 70
     1
102
RTVSPost2010Prop57
140
1.0
102
RTVSPost2010PropOp57
 70
     1
  0
XRECORD
  5
6D9
102
{ACAD_REACTORS
330
6D8
102
}
330
6D8
100
AcDbXrecord
280
     1
102
RTVSPropertyOp0
 70
     1
102
RTVSPropertyOp1
 70
     1
102
RTVSPropertyOp2
 70
     1
102
RTVSPropertyOp3
 70
     1
102
RTVSPropertyOp4
 70
     1
102
RTVSPropertyOp5
 70
     1
102
RTVSPropertyOp6
 70
     1
102
RTVSPropertyOp7
 70
     1
102
RTVSPropertyOp8
 70
     1
102
RTVSPropertyOp9
 70
     1
102
RTVSPropertyOp10
 70
     1
102
RTVSPropertyOp11
 70
     1
102
RTVSPropertyOp12
 70
     1
102
RTVSPropertyOp13
 70
     1
102
RTVSPropertyOp14
 70
     1
102
RTVSPropertyOp15
 70
     1
102
RTVSPropertyOp16
 70
     1
102
RTVSPropertyOp17
 70
     1
102
RTVSPropertyOp18
 70
     1
102
RTVSPropertyOp19
 70
     1
102
RTVSPropertyOp20
 70
     1
102
RTVSPropertyOp21
 70
     1
102
RTVSPropertyOp22
 70
     1
102
RTVSPropertyOp23
 70
     1
102
RTVSPropertyOp24
 70
     1
102
RTVSPropertyOp25
 70
     1
102
RTVSPropertyOp26
 70
     1
102
RTVSPropertyOp27
 70
     1
102
RTVSPropertyOp28
 70
     1
102
RTVSPropertyOp29
 70
     1
102
RTVSPropertyOp30
 70
     1
102
RTVSPropertyOp31
 70
     1
102
RTVSPropertyOp32
 70
     1
102
RTVSPropertyOp33
 70
     1
102
RTVSPropertyOp34
 70
     1
102
RTVSPropertyOp35
 70
     1
102
RTVSPropertyOp36
 70
     1
102
RTVSPropertyOp37
 70
     1
102
RTVSPropertyOp38
 70
     1
102
RTVSPropertyOp39
 70
     1
102
RTVSPropertyOp40
 70
     1
102
RTVSPropertyOp41
 70
     1
102
RTVSPropertyOp42
 70
     1
102
RTVSPropertyOp43
 70
     1
102
RTVSPropertyOp44
 70
     1
102
RTVSPropertyOp45
 70
     1
102
RTVSPropertyOp46
 70
     1
102
RTVSPropertyOp47
 70
     1
102
RTVSPropertyOp48
 70
     1
102
RTVSPropertyOp49
 70
     1
102
RTVSPropertyOp50
 70
     1
102
RTVSPropertyOp51
 70
     0
102
RTVSPropertyOp52
 70
     0
102
RTVSPropertyOp53
 70
     1
102
RTVSPropertyOp54
 70
     1
102
RTVSPropertyOp55
 70
     1
102
RTVSPropertyOp56
 70
     1
102
RTVSPropertyOp57
 70
     1
102
RTVSPost2010Prop28
280
     0
102
RTVSPost2010PropOp28
 70
     1
102
RTVSPost2010Prop29
280
     1
102
RTVSPost2010PropOp29
 70
     1
102
RTVSPost2010Prop30
280
     1
102
RTVSPost2010PropOp30
 70
     1
102
RTVSPost2010Prop31
280
     0
102
RTVSPost2010PropOp31
 70
     1
102
RTVSPost2010Prop32
280
     0
102
RTVSPost2010PropOp32
 70
     1
102
RTVSPost2010Prop33
280
     0
102
RTVSPost2010PropOp33
 70
     1
102
RTVSPost2010Prop34
280
     0
102
RTVSPost2010PropOp34
 70
     1
102
RTVSPost2010Prop35
280
     0
102
RTVSPost2010PropOp35
 70
     1
102
RTVSPost2010Prop36
280
     0
102
RTVSPost2010PropOp36
 70
     1
102
RTVSPost2010Prop37
 90
       50
102
RTVSPost2010PropOp37
 70
     1
102
RTVSPost2010Prop38
140
0.0
102
RTVSPost2010PropOp38
 70
     1
102
RTVSPost2010Prop39
140
1.0
102
RTVSPost2010PropOp39
 70
     1
102
RTVSPost2010Prop40
 90
        0
102
RTVSPost2010PropOp40
 70
     1
102
RTVSPost2010Prop41ColorIndex
 90
       18
102
RTVSPost2010Prop41ColorRGB
 90
        0
102
RTVSPost2010PropOp41
 70
     1
102
RTVSPost2010Prop42
 90
       50
102
RTVSPost2010PropOp42
 70
     1
102
RTVSPost2010Prop43
 90
        3
102
RTVSPost2010PropOp43
 70
     1
102
RTVSPost2010Prop44ColorIndex
 90
        5
102
RTVSPost2010Prop44ColorRGB
 90
      255
102
RTVSPost2010PropOp44
 70
     1
102
RTVSPost2010Prop45
280
     0
102
RTVSPost2010PropOp45
 70
     1
102
RTVSPost2010Prop46
 90
       50
102
RTVSPost2010PropOp46
 70
     1
102
RTVSPost2010Prop47
 90
       50
102
RTVSPost2010PropOp47
 70
     1
102
RTVSPost2010Prop48
 90
       50
102
RTVSPost2010PropOp48
 70
     1
102
RTVSPost2010Prop49
280
     0
102
RTVSPost2010PropOp49
 70
     1
102
RTVSPost2010Prop50
 90
       50
102
RTVSPost2010PropOp50
 70
     1
102
RTVSPost2010Prop51ColorIndex
 90
      256
102
RTVSPost2010Prop51ColorRGB
 90
-16777216
102
RTVSPost2010PropOp51
 70
     0
102
RTVSPost2010Prop52
140
1.0
102
RTVSPost2010PropOp52
 70
     0
102
RTVSPost2010Prop53
 90
        2
102
RTVSPost2010PropOp53
 70
     1
102
RTVSPost2010Prop54
  1
strokes_ogs.tif
102
RTVSPost2010PropOp54
 70
     1
102
RTVSPost2010Prop55
280
     0
102
RTVSPost2010PropOp55
 70
     1
102
RTVSPost2010Prop56
140
1.0
102
RTVSPost2010PropOp56
 70
     1
102
RTVSPost2010Prop57
140
1.0
102
RTVSPost2010PropOp57
 70
     1
  0
ENDSEC
  0
EOF
