  0
SECTION
  2
HEADER
  9
$ACADVER
  1
AC1018
  9
$ACADMAINTVER
 70
     0
  9
$DWGCODEPAGE
  3
ANSI_936
  9
$INSBASE
 10
0.0
 20
0.0
 30
0.0
  9
$EXTMIN
 10
226.5247669089224
 20
508.3101841083326
 30
0.0
  9
$EXTMAX
 10
366.5424772338423
 20
715.3102619216057
 30
0.0
  9
$LIMMIN
 10
0.0
 20
0.0
  9
$LIMMAX
 10
12.0
 20
9.0
  9
$ORTHOMODE
 70
     0
  9
$REGENMODE
 70
     1
  9
$FILLMODE
 70
     1
  9
$QTEXTMODE
 70
     0
  9
$MIRRTEXT
 70
     1
  9
$LTSCALE
 40
1.0
  9
$ATTMODE
 70
     1
  9
$TEXTSIZE
 40
0.2
  9
$TRACEWID
 40
0.05
  9
$TEXTSTYLE
  7
Standard
  9
$CLAYER
  8
0
  9
$CELTYPE
  6
ByLayer
  9
$CECOLOR
 62
   256
  9
$CELTSCALE
 40
1.0
  9
$DISPSILH
 70
     0
  9
$DIMSCALE
 40
1.0
  9
$DIMASZ
 40
0.18
  9
$DIMEXO
 40
0.0625
  9
$DIMDLI
 40
0.38
  9
$DIMRND
 40
0.0
  9
$DIMDLE
 40
0.0
  9
$DIMEXE
 40
0.18
  9
$DIMTP
 40
0.0
  9
$DIMTM
 40
0.0
  9
$DIMTXT
 40
0.18
  9
$DIMCEN
 40
0.09
  9
$DIMTSZ
 40
0.0
  9
$DIMTOL
 70
     0
  9
$DIMLIM
 70
     0
  9
$DIMTIH
 70
     1
  9
$DIMTOH
 70
     1
  9
$DIMSE1
 70
     0
  9
$DIMSE2
 70
     0
  9
$DIMTAD
 70
     0
  9
$DIMZIN
 70
     0
  9
$DIMBLK
  1

  9
$DIMASO
 70
     1
  9
$DIMSHO
 70
     1
  9
$DIMPOST
  1

  9
$DIMAPOST
  1

  9
$DIMALT
 70
     0
  9
$DIMALTD
 70
     2
  9
$DIMALTF
 40
25.4
  9
$DIMLFAC
 40
1.0
  9
$DIMTOFL
 70
     0
  9
$DIMTVP
 40
0.0
  9
$DIMTIX
 70
     0
  9
$DIMSOXD
 70
     0
  9
$DIMSAH
 70
     0
  9
$DIMBLK1
  1

  9
$DIMBLK2
  1

  9
$DIMSTYLE
  2
Standard
  9
$DIMCLRD
 70
     0
  9
$DIMCLRE
 70
     0
  9
$DIMCLRT
 70
     0
  9
$DIMTFAC
 40
1.0
  9
$DIMGAP
 40
0.09
  9
$DIMJUST
 70
     0
  9
$DIMSD1
 70
     0
  9
$DIMSD2
 70
     0
  9
$DIMTOLJ
 70
     1
  9
$DIMTZIN
 70
     0
  9
$DIMALTZ
 70
     0
  9
$DIMALTTZ
 70
     0
  9
$DIMUPT
 70
     0
  9
$DIMDEC
 70
     4
  9
$DIMTDEC
 70
     4
  9
$DIMALTU
 70
     2
  9
$DIMALTTD
 70
     2
  9
$DIMTXSTY
  7
Standard
  9
$DIMAUNIT
 70
     0
  9
$DIMADEC
 70
     0
  9
$DIMALTRND
 40
0.0
  9
$DIMAZIN
 70
     0
  9
$DIMDSEP
 70
    46
  9
$DIMATFIT
 70
     3
  9
$DIMFRAC
 70
     0
  9
$DIMLDRBLK
  1

  9
$DIMLUNIT
 70
     2
  9
$DIMLWD
 70
    -2
  9
$DIMLWE
 70
    -2
  9
$DIMTMOVE
 70
     2
  9
$LUNITS
 70
     2
  9
$LUPREC
 70
     2
  9
$SKETCHINC
 40
0.1
  9
$FILLETRAD
 40
0.5
  9
$AUNITS
 70
     0
  9
$AUPREC
 70
     0
  9
$MENU
  1
.
  9
$ELEVATION
 40
0.0
  9
$PELEVATION
 40
0.0
  9
$THICKNESS
 40
0.0
  9
$LIMCHECK
 70
     0
  9
$CHAMFERA
 40
0.5
  9
$CHAMFERB
 40
0.5
  9
$CHAMFERC
 40
1.0
  9
$CHAMFERD
 40
0.0
  9
$SKPOLY
 70
     0
  9
$TDCREATE
 40
2456701.542668692
  9
$TDUCREATE
 40
2456701.209335359
  9
$TDUPDATE
 40
2456701.542673947
  9
$TDUUPDATE
 40
2456701.209340613
  9
$TDINDWG
 40
0.0000000116
  9
$TDUSRTIMER
 40
0.0000000116
  9
$USRTIMER
 70
     1
  9
$ANGBASE
 50
0.0
  9
$ANGDIR
 70
     0
  9
$PDMODE
 70
     0
  9
$PDSIZE
 40
0.0
  9
$PLINEWID
 40
0.0
  9
$SPLFRAME
 70
     0
  9
$SPLINETYPE
 70
     6
  9
$SPLINESEGS
 70
     8
  9
$HANDSEED
  5
6D8
  9
$SURFTAB1
 70
     6
  9
$SURFTAB2
 70
     6
  9
$SURFTYPE
 70
     6
  9
$SURFU
 70
     6
  9
$SURFV
 70
     6
  9
$UCSBASE
  2

  9
$UCSNAME
  2

  9
$UCSORG
 10
0.0
 20
0.0
 30
0.0
  9
$UCSXDIR
 10
1.0
 20
0.0
 30
0.0
  9
$UCSYDIR
 10
0.0
 20
1.0
 30
0.0
  9
$UCSORTHOREF
  2

  9
$UCSORTHOVIEW
 70
     0
  9
$UCSORGTOP
 10
0.0
 20
0.0
 30
0.0
  9
$UCSORGBOTTOM
 10
0.0
 20
0.0
 30
0.0
  9
$UCSORGLEFT
 10
0.0
 20
0.0
 30
0.0
  9
$UCSORGRIGHT
 10
0.0
 20
0.0
 30
0.0
  9
$UCSORGFRONT
 10
0.0
 20
0.0
 30
0.0
  9
$UCSORGBACK
 10
0.0
 20
0.0
 30
0.0
  9
$PUCSBASE
  2

  9
$PUCSNAME
  2

  9
$PUCSORG
 10
0.0
 20
0.0
 30
0.0
  9
$PUCSXDIR
 10
1.0
 20
0.0
 30
0.0
  9
$PUCSYDIR
 10
0.0
 20
1.0
 30
0.0
  9
$PUCSORTHOREF
  2

  9
$PUCSORTHOVIEW
 70
     0
  9
$PUCSORGTOP
 10
0.0
 20
0.0
 30
0.0
  9
$PUCSORGBOTTOM
 10
0.0
 20
0.0
 30
0.0
  9
$PUCSORGLEFT
 10
0.0
 20
0.0
 30
0.0
  9
$PUCSORGRIGHT
 10
0.0
 20
0.0
 30
0.0
  9
$PUCSORGFRONT
 10
0.0
 20
0.0
 30
0.0
  9
$PUCSORGBACK
 10
0.0
 20
0.0
 30
0.0
  9
$USERI1
 70
     0
  9
$USERI2
 70
     0
  9
$USERI3
 70
     0
  9
$USERI4
 70
     0
  9
$USERI5
 70
     0
  9
$USERR1
 40
0.0
  9
$USERR2
 40
0.0
  9
$USERR3
 40
0.0
  9
$USERR4
 40
0.0
  9
$USERR5
 40
0.0
  9
$WORLDVIEW
 70
     1
  9
$SHADEDGE
 70
     3
  9
$SHADEDIF
 70
    70
  9
$TILEMODE
 70
     1
  9
$MAXACTVP
 70
    64
  9
$PINSBASE
 10
0.0
 20
0.0
 30
0.0
  9
$PLIMCHECK
 70
     0
  9
$PEXTMIN
 10
1.000000000000000E+20
 20
1.000000000000000E+20
 30
1.000000000000000E+20
  9
$PEXTMAX
 10
-1.000000000000000E+20
 20
-1.000000000000000E+20
 30
-1.000000000000000E+20
  9
$PLIMMIN
 10
0.0
 20
0.0
  9
$PLIMMAX
 10
12.0
 20
9.0
  9
$UNITMODE
 70
     0
  9
$VISRETAIN
 70
     1
  9
$PLINEGEN
 70
     0
  9
$PSLTSCALE
 70
     1
  9
$TREEDEPTH
 70
  3020
  9
$CMLSTYLE
  2
Standard
  9
$CMLJUST
 70
     0
  9
$CMLSCALE
 40
1.0
  9
$PROXYGRAPHICS
 70
     1
  9
$MEASUREMENT
 70
     0
  9
$CELWEIGHT
370
    -1
  9
$ENDCAPS
280
     0
  9
$JOINSTYLE
280
     0
  9
$LWDISPLAY
290
     0
  9
$INSUNITS
 70
     4
  9
$HYPERLINKBASE
  1

  9
$STYLESHEET
  1

  9
$XEDIT
290
     1
  9
$CEPSNTYPE
380
     0
  9
$PSTYLEMODE
290
     1
  9
$FINGERPRINTGUID
  2
{A5703BEC-94D5-44B4-B4CC-59CE1F453513}
  9
$VERSIONGUID
  2
{FAEB1C32-E019-11D5-929B-00C0DF256EC4}
  9
$EXTNAMES
290
     1
  9
$PSVPSCALE
 40
0.0
  9
$OLESTARTUP
290
     0
  9
$SORTENTS
280
   127
  9
$INDEXCTL
280
     0
  9
$HIDETEXT
280
     1
  9
$XCLIPFRAME
290
     0
  9
$HALOGAP
280
     0
  9
$OBSCOLOR
 70
   257
  9
$OBSLTYPE
280
     0
  9
$INTERSECTIONDISPLAY
280
     0
  9
$INTERSECTIONCOLOR
 70
   257
  9
$DIMASSOC
280
     2
  9
$PROJECTNAME
  1

  0
ENDSEC
  0
SECTION
  2
CLASSES
  0
CLASS
  1
ACDBDICTIONARYWDFLT
  2
AcDbDictionaryWithDefault
  3
ObjectDBX Classes
 90
        0
 91
        4
280
     0
281
     0
  0
CLASS
  1
VISUALSTYLE
  2
AcDbVisualStyle
  3
ObjectDBX Classes
 90
     4095
 91
        4
280
     0
281
     0
  0
CLASS
  1
MATERIAL
  2
AcDbMaterial
  3
ObjectDBX Classes
 90
     1153
 91
        4
280
     0
281
     0
  0
CLASS
  1
SCALE
  2
AcDbScale
  3
ObjectDBX Classes
 90
     1153
 91
        4
280
     0
281
     0
  0
CLASS
  1
SUN
  2
AcDbSun
  3
SCENEOE
 90
     1153
 91
        4
280
     0
281
     0
  0
CLASS
  1
DICTIONARYVAR
  2
AcDbDictionaryVar
  3
ObjectDBX Classes
 90
        0
 91
        4
280
     0
281
     0
  0
ENDSEC
  0
SECTION
  2
TABLES
  0
TABLE
  2
VPORT
  5
8
330
0
100
AcDbSymbolTable
 70
     1
  0
VPORT
  5
29
330
8
100
AcDbSymbolTableRecord
100
AcDbViewportTableRecord
  2
*Active
 70
     0
 10
0.0
 20
0.0
 11
1.0
 21
1.0
 12
296.5336220713824
 22
611.8101898091478
 13
0.0
 23
0.0
 14
0.5
 24
0.5
 15
0.5
 25
0.5
 16
0.0
 26
0.0
 36
1.0
 17
0.0
 27
0.0
 37
0.0
 40
211.1400006020689
 41
0.6764140576118709
 42
50.0
 43
0.0
 44
0.0
 50
0.0
 51
0.0
 71
     0
 72
   100
 73
     1
 74
     3
 75
     0
 76
     0
 77
     0
 78
     0
281
     0
 65
     1
110
0.0
120
0.0
130
0.0
111
1.0
121
0.0
131
0.0
112
0.0
122
1.0
132
0.0
 79
     0
146
0.0
  0
ENDTAB
  0
TABLE
  2
LTYPE
  5
5
330
0
100
AcDbSymbolTable
 70
     1
  0
LTYPE
  5
14
330
5
100
AcDbSymbolTableRecord
100
AcDbLinetypeTableRecord
  2
ByBlock
 70
     0
  3

 72
    65
 73
     0
 40
0.0
  0
LTYPE
  5
15
330
5
100
AcDbSymbolTableRecord
100
AcDbLinetypeTableRecord
  2
ByLayer
 70
     0
  3

 72
    65
 73
     0
 40
0.0
  0
LTYPE
  5
16
330
5
100
AcDbSymbolTableRecord
100
AcDbLinetypeTableRecord
  2
Continuous
 70
     0
  3
Solid line
 72
    65
 73
     0
 40
0.0
  0
ENDTAB
  0
TABLE
  2
LAYER
  5
2
330
0
100
AcDbSymbolTable
 70
     2
  0
LAYER
  5
10
330
2
100
AcDbSymbolTableRecord
100
AcDbLayerTableRecord
  2
0
 70
     0
 62
     7
  6
Continuous
370
    -3
390
F
  0
LAYER
  5
62
330
2
100
AcDbSymbolTableRecord
100
AcDbLayerTableRecord
  2
Make2D$可见线$普通线
 70
     0
 62
    18
420
        0
  6
Continuous
370
    -3
390
F
  0
ENDTAB
  0
TABLE
  2
STYLE
  5
3
330
0
100
AcDbSymbolTable
 70
     1
  0
STYLE
  5
11
330
3
100
AcDbSymbolTableRecord
100
AcDbTextStyleTableRecord
  2
Standard
 70
     0
 40
0.0
 41
1.0
 50
0.0
 71
     0
 42
0.2
  3
txt
  4

  0
ENDTAB
  0
TABLE
  2
VIEW
  5
6
330
0
100
AcDbSymbolTable
 70
     0
  0
ENDTAB
  0
TABLE
  2
UCS
  5
7
330
0
100
AcDbSymbolTable
 70
     0
  0
ENDTAB
  0
TABLE
  2
APPID
  5
9
330
0
100
AcDbSymbolTable
 70
     1
  0
APPID
  5
12
330
9
100
AcDbSymbolTableRecord
100
AcDbRegAppTableRecord
  2
ACAD
 70
     0
  0
ENDTAB
  0
TABLE
  2
DIMSTYLE
  5
A
330
0
100
AcDbSymbolTable
 70
     1
100
AcDbDimStyleTable
  0
DIMSTYLE
105
27
330
A
100
AcDbSymbolTableRecord
100
AcDbDimStyleTableRecord
  2
Standard
 70
     0
178
     0
340
11
  0
ENDTAB
  0
TABLE
  2
BLOCK_RECORD
  5
1
330
0
100
AcDbSymbolTable
 70
     1
  0
BLOCK_RECORD
  5
1F
330
1
100
AcDbSymbolTableRecord
100
AcDbBlockTableRecord
  2
*Model_Space
340
22
  0
BLOCK_RECORD
  5
1B
330
1
100
AcDbSymbolTableRecord
100
AcDbBlockTableRecord
  2
*Paper_Space
340
1E
  0
BLOCK_RECORD
  5
23
330
1
100
AcDbSymbolTableRecord
100
AcDbBlockTableRecord
  2
*Paper_Space0
340
26
  0
ENDTAB
  0
ENDSEC
  0
SECTION
  2
BLOCKS
  0
BLOCK
  5
20
330
1F
100
AcDbEntity
  8
0
100
AcDbBlockBegin
  2
*Model_Space
 70
     0
 10
0.0
 20
0.0
 30
0.0
  3
*Model_Space
  1
*Model_Space
  0
ENDBLK
  5
21
330
1F
100
AcDbEntity
  8
0
100
AcDbBlockEnd
  0
BLOCK
  5
1C
330
1B
100
AcDbEntity
 67
     1
  8
0
100
AcDbBlockBegin
  2
*Paper_Space
 70
     0
 10
0.0
 20
0.0
 30
0.0
  3
*Paper_Space
  1
*Paper_Space
  0
ENDBLK
  5
1D
330
1B
100
AcDbEntity
 67
     1
  8
0
100
AcDbBlockEnd
  0
BLOCK
  5
24
330
23
100
AcDbEntity
  8
0
100
AcDbBlockBegin
  2
*Paper_Space0
 70
     0
 10
0.0
 20
0.0
 30
0.0
  3
*Paper_Space0
  1
*Paper_Space0
  0
ENDBLK
  5
25
330
23
100
AcDbEntity
  8
0
100
AcDbBlockEnd
  0
ENDSEC
  0
SECTION
  2
ENTITIES
  0
POLYLINE
  5
63
330
1F
100
AcDbEntity
  8
Make2D$可见线$普通线
100
AcDb2dPolyline
 66
     1
 10
0.0
 20
0.0
 30
0.0
  0
VERTEX
  5
64
330
63
100
AcDbEntity
  8
Make2D$可见线$普通线
100
AcDbVertex
100
AcDb2dVertex
 10
302.4910030729734
 20
648.2089972457492
 30
0.0
  0
VERTEX
  5
65
330
63
100
AcDbEntity
  8
Make2D$可见线$普通线
100
AcDbVertex
100
AcDb2dVertex
 10
302.4382532446375
 20
648.2527471808983
 30
0.0
 42
-0.0492640751209455
  0
VERTEX
  5
66
330
63
100
AcDbEntity
  8
Make2D$可见线$普通线
100
AcDbVertex
100
AcDb2dVertex
 10
302.293128227471
 20
648.058247264823
 30
0.0
 42
-0.20271712886344
  0
VERTEX
  5
67
330
63
100
AcDbEntity
  8
Make2D$可见线$普通线
100
AcDbVertex
100
AcDb2dVertex
 10
302.1655032331931
 20
647.9967471808982
 30
0.0
 42
-0.2456100284655882
  0
VERTEX
  5
68
330
63
100
AcDbEntity
  8
Make2D$可见线$普通线
100
AcDbVertex
100
AcDb2dVertex
 10
302.0922530920473
 20
648.0438722896188
 30
0.0
 42
-0.1582963563594841
  0
VERTEX
  5
69
330
63
100
AcDbEntity
  8
Make2D$可见线$普通线
100
AcDbVertex
100
AcDb2dVertex
 10
302.0590030729736
 20
648.1444972381196
 30
0.0
 42
-0.1089872480736717
  0
VERTEX
  5
6A
330
63
100
AcDbEntity
  8
Make2D$可见线$普通线
100
AcDbVertex
100
AcDb2dVertex
 10
302.1247530996767
 20
648.4597474097836
 30
0.0
 42
-0.0568066751562929
  0
VERTEX
  5
6B
330
63
100
AcDbEntity
  8
Make2D$可见线$普通线
100
AcDbVertex
100
AcDb2dVertex
 10
302.2990030729735
 20
648.7434973449327
 30
0.0
  0
VERTEX
  5
6C
330
63
100
AcDbEntity
  8
Make2D$可见线$普通线
100
AcDbVertex
100
AcDb2dVertex
 10
302.2670030729735
 20
648.7647471808983
 30
0.0
  0
VERTEX
  5
6D
330
63
100
AcDbEntity
  8
Make2D$可见线$普通线
100
AcDbVertex
100
AcDb2dVertex
 10
302.2460827747433
 20
648.7425924469171
 30
0.0
 42
-0.1990603006849209
  0
VERTEX
  5
6E
330
63
100
AcDbEntity
  8
Make2D$可见线$普通线
100
AcDbVertex
100
AcDb2dVertex
 10
302.1057532980441
 20
648.6847471808983
 30
0.0
 42
-0.0913444844855509
  0
VERTEX
  5
6F
330
63
100
AcDbEntity
  8
Make2D$可见线$普通线
100
AcDbVertex
100
AcDb2dVertex
 10
301.8848478302101
 20
648.7425924469171
 30
0.0
  0
VERTEX
  5
70
330
63
100
AcDbEntity
  8
Make2D$可见线$普通线
100
AcDbVertex
100
AcDb2dVertex
 10
301.8350030729734
 20
648.7647471808983
 30
0.0
 42
-0.0533779891336246
  0
VERTEX
  5
71
330
63
100
AcDbEntity
  8
Make2D$可见线$普通线
100
AcDbVertex
100
AcDb2dVertex
 10
301.5630030729735
 20
648.2207471808983
 30
0.0
  0
VERTEX
  5
72
330
63
100
AcDbEntity
  8
Make2D$可见线$普通线
100
AcDbVertex
100
AcDb2dVertex
 10
301.6175031721571
 20
648.1767472419344
 30
0.0
 42
0.057159209408795
  0
VERTEX
  5
73
330
63
100
AcDbEntity
  8
Make2D$可见线$普通线
100
AcDbVertex
100
AcDb2dVertex
 10
301.8350030729734
 20
648.5617472571935
 30
0.0
 42
0.1217447908495582
  0
VERTEX
  5
74
330
63
100
AcDbEntity
  8
Make2D$可见线$普通线
100
AcDbVertex
100
AcDb2dVertex
 10
302.0640031492686
 20
648.5477472877114
 30
0.0
 42
0.1641175277890941
  0
VERTEX
  5
75
330
63
100
AcDbEntity
  8
Make2D$可见线$普通线
100
AcDbVertex
100
AcDb2dVertex
 10
301.8830030729735
 20
648.1242474174131
 30
0.0
  0
VERTEX
  5
76
330
63
100
AcDbEntity
  8
Make2D$可见线$普通线
100
AcDbVertex
100
AcDb2dVertex
 10
301.8831593313274
 20
648.1112607289645
 30
0.0
  0
VERTEX
  5
77
330
63
100
AcDbEntity
  8
Make2D$可见线$普通线
100
AcDbVertex
100
AcDb2dVertex
 10
301.8836339962168
 20
648.098519879863
 30
0.0
  0
VERTEX
  5
78
330
63
100
AcDbEntity
  8
Make2D$可见线$普通线
100
AcDbVertex
100
AcDb2dVertex
 10
301.8844359023827
 20
648.0860357849226
 30
0.0
  0
VERTEX
  5
79
330
63
100
AcDbEntity
  8
Make2D$可见线$普通线
100
AcDbVertex
100
AcDb2dVertex
 10
301.8855738845664
 20
648.0738193589573
 30
0.0
  0
VERTEX
  5
7A
330
63
100
AcDbEntity
  8
Make2D$可见线$普通线
100
AcDbVertex
100
AcDb2dVertex
 10
301.887056777509
 20
648.0618815167812
 30
0.0
  0
VERTEX
  5
7B
330
63
100
AcDbEntity
  8
Make2D$可见线$普通线
100
AcDbVertex
100
AcDb2dVertex
 10
301.8888934159517
 20
648.0502331732084
 30
0.0
  0
VERTEX
  5
7C
330
63
100
AcDbEntity
  8
Make2D$可见线$普通线
100
AcDbVertex
100
AcDb2dVertex
 10
301.8899471505921
 20
648.0445209742777
 30
0.0
  0
VERTEX
  5
7D
330
63
100
AcDbEntity
  8
Make2D$可见线$普通线
100
AcDbVertex
100
AcDb2dVertex
 10
301.8910926346355
 20
648.0388852430531
 30
0.0
  0
VERTEX
  5
7E
330
63
100
AcDbEntity
  8
Make2D$可见线$普通线
100
AcDbVertex
100
AcDb2dVertex
 10
301.8923309724245
 20
648.0333273438862
 30
0.0
  0
VERTEX
  5
7F
330
63
100
AcDbEntity
  8
Make2D$可见线$普通线
100
AcDbVertex
100
AcDb2dVertex
 10
301.8936632683017
 20
648.027848641129
 30
0.0
  0
VERTEX
  5
80
330
63
100
AcDbEntity
  8
Make2D$可见线$普通线
100
AcDbVertex
100
AcDb2dVertex
 10
301.8950906266099
 20
648.0224504991331
 30
0.0
  0
VERTEX
  5
81
330
63
100
AcDbEntity
  8
Make2D$可见线$普通线
100
AcDbVertex
100
AcDb2dVertex
 10
301.8966141516916
 20
648.0171342822505
 30
0.0
  0
VERTEX
  5
82
330
63
100
AcDbEntity
  8
Make2D$可见线$普通线
100
AcDbVertex
100
AcDb2dVertex
 10
301.8982349478895
 20
648.0119013548326
 30
0.0
  0
VERTEX
  5
83
330
63
100
AcDbEntity
  8
Make2D$可见线$普通线
100
AcDbVertex
100
AcDb2dVertex
 10
301.8999541195461
 20
648.0067530812313
 30
0.0
  0
VERTEX
  5
84
330
63
100
AcDbEntity
  8
Make2D$可见线$普通线
100
AcDbVertex
100
AcDb2dVertex
 10
301.9017727710043
 20
648.0016908257985
 30
0.0
  0
VERTEX
  5
85
330
63
100
AcDbEntity
  8
Make2D$可见线$普通线
100
AcDbVertex
100
AcDb2dVertex
 10
301.9036920066065
 20
647.9967159528858
 30
0.0
  0
VERTEX
  5
86
330
63
100
AcDbEntity
  8
Make2D$可见线$普通线
100
AcDbVertex
100
AcDb2dVertex
 10
301.9057129306956
 20
647.9918298268449
 30
0.0
  0
VERTEX
  5
87
330
63
100
AcDbEntity
  8
Make2D$可见线$普通线
100
AcDbVertex
100
AcDb2dVertex
 10
301.9078366476141
 20
647.9870338120277
 30
0.0
  0
VERTEX
  5
88
330
63
100
AcDbEntity
  8
Make2D$可见线$普通线
100
AcDbVertex
100
AcDb2dVertex
 10
301.9100642617046
 20
647.9823292727858
 30
0.0
  0
VERTEX
  5
89
330
63
100
AcDbEntity
  8
Make2D$可见线$普通线
100
AcDbVertex
100
AcDb2dVertex
 10
301.9123968773098
 20
647.9777175734712
 30
0.0
  0
VERTEX
  5
8A
330
63
100
AcDbEntity
  8
Make2D$可见线$普通线
100
AcDbVertex
100
AcDb2dVertex
 10
301.9148355987724
 20
647.9732000784356
 30
0.0
  0
VERTEX
  5
8B
330
63
100
AcDbEntity
  8
Make2D$可见线$普通线
100
AcDbVertex
100
AcDb2dVertex
 10
301.917381530435
 20
647.9687781520306
 30
0.0
  0
VERTEX
  5
8C
330
63
100
AcDbEntity
  8
Make2D$可见线$普通线
100
AcDbVertex
100
AcDb2dVertex
 10
301.9200357766401
 20
647.964453158608
 30
0.0
  0
VERTEX
  5
8D
330
63
100
AcDbEntity
  8
Make2D$可见线$普通线
100
AcDbVertex
100
AcDb2dVertex
 10
301.9227994417307
 20
647.9602264625197
 30
0.0
  0
VERTEX
  5
8E
330
63
100
AcDbEntity
  8
Make2D$可见线$普通线
100
AcDbVertex
100
AcDb2dVertex
 10
301.9256736300491
 20
647.9560994281173
 30
0.0
  0
VERTEX
  5
8F
330
63
100
AcDbEntity
  8
Make2D$可见线$普通线
100
AcDbVertex
100
AcDb2dVertex
 10
301.9286594459381
 20
647.9520734197524
 30
0.0
  0
VERTEX
  5
90
330
63
100
AcDbEntity
  8
Make2D$可见线$普通线
100
AcDbVertex
100
AcDb2dVertex
 10
301.9317579937403
 20
647.9481498017772
 30
0.0
  0
VERTEX
  5
91
330
63
100
AcDbEntity
  8
Make2D$可见线$普通线
100
AcDbVertex
100
AcDb2dVertex
 10
301.9349703777984
 20
647.944329938543
 30
0.0
  0
VERTEX
  5
92
330
63
100
AcDbEntity
  8
Make2D$可见线$普通线
100
AcDbVertex
100
AcDb2dVertex
 10
301.938297702455
 20
647.940615194402
 30
0.0
  0
VERTEX
  5
93
330
63
100
AcDbEntity
  8
Make2D$可见线$普通线
100
AcDbVertex
100
AcDb2dVertex
 10
301.9417410720528
 20
647.9370069337056
 30
0.0
  0
VERTEX
  5
94
330
63
100
AcDbEntity
  8
Make2D$可见线$普通线
100
AcDbVertex
100
AcDb2dVertex
 10
301.9453015909344
 20
647.9335065208057
 30
0.0
  0
VERTEX
  5
95
330
63
100
AcDbEntity
  8
Make2D$可见线$普通线
100
AcDbVertex
100
AcDb2dVertex
 10
301.9489803634424
 20
647.9301153200541
 30
0.0
  0
VERTEX
  5
96
330
63
100
AcDbEntity
  8
Make2D$可见线$普通线
100
AcDbVertex
100
AcDb2dVertex
 10
301.9527784939195
 20
647.9268346958024
 30
0.0
  0
VERTEX
  5
97
330
63
100
AcDbEntity
  8
Make2D$可见线$普通线
100
AcDbVertex
100
AcDb2dVertex
 10
301.9566970867084
 20
647.9236660124027
 30
0.0
  0
VERTEX
  5
98
330
63
100
AcDbEntity
  8
Make2D$可见线$普通线
100
AcDbVertex
100
AcDb2dVertex
 10
301.9607372461517
 20
647.9206106342062
 30
0.0
  0
VERTEX
  5
99
330
63
100
AcDbEntity
  8
Make2D$可见线$普通线
100
AcDbVertex
100
AcDb2dVertex
 10
301.964900076592
 20
647.9176699255652
 30
0.0
  0
VERTEX
  5
9A
330
63
100
AcDbEntity
  8
Make2D$可见线$普通线
100
AcDbVertex
100
AcDb2dVertex
 10
301.969186682372
 20
647.914845250831
 30
0.0
  0
VERTEX
  5
9B
330
63
100
AcDbEntity
  8
Make2D$可见线$普通线
100
AcDbVertex
100
AcDb2dVertex
 10
301.9735981678343
 20
647.9121379743558
 30
0.0
  0
VERTEX
  5
9C
330
63
100
AcDbEntity
  8
Make2D$可见线$普通线
100
AcDbVertex
100
AcDb2dVertex
 10
301.9781356373215
 20
647.909549460491
 30
0.0
  0
VERTEX
  5
9D
330
63
100
AcDbEntity
  8
Make2D$可见线$普通线
100
AcDbVertex
100
AcDb2dVertex
 10
301.9828001951764
 20
647.9070810735886
 30
0.0
  0
VERTEX
  5
9E
330
63
100
AcDbEntity
  8
Make2D$可见线$普通线
100
AcDbVertex
100
AcDb2dVertex
 10
301.9875929457417
 20
647.9047341780001
 30
0.0
  0
VERTEX
  5
9F
330
63
100
AcDbEntity
  8
Make2D$可见线$普通线
100
AcDbVertex
100
AcDb2dVertex
 10
301.9925149933597
 20
647.9025101380776
 30
0.0
  0
VERTEX
  5
A0
330
63
100
AcDbEntity
  8
Make2D$可见线$普通线
100
AcDbVertex
100
AcDb2dVertex
 10
301.9975674423735
 20
647.9004103181724
 30
0.0
  0
VERTEX
  5
A1
330
63
100
AcDbEntity
  8
Make2D$可见线$普通线
100
AcDbVertex
100
AcDb2dVertex
 10
302.0027513971253
 20
647.8984360826367
 30
0.0
  0
VERTEX
  5
A2
330
63
100
AcDbEntity
  8
Make2D$可见线$普通线
100
AcDbVertex
100
AcDb2dVertex
 10
302.0080679619579
 20
647.8965887958221
 30
0.0
  0
VERTEX
  5
A3
330
63
100
AcDbEntity
  8
Make2D$可见线$普通线
100
AcDbVertex
100
AcDb2dVertex
 10
302.0135182412141
 20
647.8948698220803
 30
0.0
  0
VERTEX
  5
A4
330
63
100
AcDbEntity
  8
Make2D$可见线$普通线
100
AcDbVertex
100
AcDb2dVertex
 10
302.0191033392364
 20
647.893280525763
 30
0.0
  0
VERTEX
  5
A5
330
63
100
AcDbEntity
  8
Make2D$可见线$普通线
100
AcDbVertex
100
AcDb2dVertex
 10
302.0248243603675
 20
647.891822271222
 30
0.0
  0
VERTEX
  5
A6
330
63
100
AcDbEntity
  8
Make2D$可见线$普通线
100
AcDbVertex
100
AcDb2dVertex
 10
302.0306824089501
 20
647.8904964228093
 30
0.0
  0
VERTEX
  5
A7
330
63
100
AcDbEntity
  8
Make2D$可见线$普通线
100
AcDbVertex
100
AcDb2dVertex
 10
302.0366785893267
 20
647.8893043448763
 30
0.0
  0
VERTEX
  5
A8
330
63
100
AcDbEntity
  8
Make2D$可见线$普通线
100
AcDbVertex
100
AcDb2dVertex
 10
302.0428140058401
 20
647.888247401775
 30
0.0
  0
VERTEX
  5
A9
330
63
100
AcDbEntity
  8
Make2D$可见线$普通线
100
AcDbVertex
100
AcDb2dVertex
 10
302.0490897628328
 20
647.887326957857
 30
0.0
  0
VERTEX
  5
AA
330
63
100
AcDbEntity
  8
Make2D$可见线$普通线
100
AcDbVertex
100
AcDb2dVertex
 10
302.0555069646475
 20
647.8865443774741
 30
0.0
  0
VERTEX
  5
AB
330
63
100
AcDbEntity
  8
Make2D$可见线$普通线
100
AcDbVertex
100
AcDb2dVertex
 10
302.0620667156269
 20
647.8859010249782
 30
0.0
  0
VERTEX
  5
AC
330
63
100
AcDbEntity
  8
Make2D$可见线$普通线
100
AcDbVertex
100
AcDb2dVertex
 10
302.0687701201136
 20
647.8853982647208
 30
0.0
  0
VERTEX
  5
AD
330
63
100
AcDbEntity
  8
Make2D$可见线$普通线
100
AcDbVertex
100
AcDb2dVertex
 10
302.0756182824503
 20
647.885037461054
 30
0.0
  0
VERTEX
  5
AE
330
63
100
AcDbEntity
  8
Make2D$可见线$普通线
100
AcDbVertex
100
AcDb2dVertex
 10
302.0826123069795
 20
647.8848199783292
 30
0.0
  0
VERTEX
  5
AF
330
63
100
AcDbEntity
  8
Make2D$可见线$普通线
100
AcDbVertex
100
AcDb2dVertex
 10
302.089753298044
 20
647.8847471808983
 30
0.0
  0
VERTEX
  5
B0
330
63
100
AcDbEntity
  8
Make2D$可见线$普通线
100
AcDbVertex
100
AcDb2dVertex
 10
302.097666383539
 20
647.8848739341233
 30
0.0
  0
VERTEX
  5
B1
330
63
100
AcDbEntity
  8
Make2D$可见线$普通线
100
AcDbVertex
100
AcDb2dVertex
 10
302.1055309924452
 20
647.8852508352003
 30
0.0
  0
VERTEX
  5
B2
330
63
100
AcDbEntity
  8
Make2D$可见线$普通线
100
AcDbVertex
100
AcDb2dVertex
 10
302.113346618976
 20
647.8858728462318
 30
0.0
  0
VERTEX
  5
B3
330
63
100
AcDbEntity
  8
Make2D$可见线$普通线
100
AcDbVertex
100
AcDb2dVertex
 10
302.1211127573455
 20
647.8867349293205
 30
0.0
  0
VERTEX
  5
B4
330
63
100
AcDbEntity
  8
Make2D$可见线$普通线
100
AcDbVertex
100
AcDb2dVertex
 10
302.1288289017672
 20
647.8878320465692
 30
0.0
  0
VERTEX
  5
B5
330
63
100
AcDbEntity
  8
Make2D$可见线$普通线
100
AcDbVertex
100
AcDb2dVertex
 10
302.1364945464549
 20
647.8891591600805
 30
0.0
  0
VERTEX
  5
B6
330
63
100
AcDbEntity
  8
Make2D$可见线$普通线
100
AcDbVertex
100
AcDb2dVertex
 10
302.1441091856224
 20
647.8907112319571
 30
0.0
  0
VERTEX
  5
B7
330
63
100
AcDbEntity
  8
Make2D$可见线$普通线
100
AcDbVertex
100
AcDb2dVertex
 10
302.1516723134833
 20
647.8924832243017
 30
0.0
  0
VERTEX
  5
B8
330
63
100
AcDbEntity
  8
Make2D$可见线$普通线
100
AcDbVertex
100
AcDb2dVertex
 10
302.1591834242516
 20
647.894470099217
 30
0.0
  0
VERTEX
  5
B9
330
63
100
AcDbEntity
  8
Make2D$可见线$普通线
100
AcDbVertex
100
AcDb2dVertex
 10
302.166642012141
 20
647.8966668188057
 30
0.0
  0
VERTEX
  5
BA
330
63
100
AcDbEntity
  8
Make2D$可见线$普通线
100
AcDbVertex
100
AcDb2dVertex
 10
302.174047571365
 20
647.8990683451705
 30
0.0
  0
VERTEX
  5
BB
330
63
100
AcDbEntity
  8
Make2D$可见线$普通线
100
AcDbVertex
100
AcDb2dVertex
 10
302.1813995961377
 20
647.901669640414
 30
0.0
  0
VERTEX
  5
BC
330
63
100
AcDbEntity
  8
Make2D$可见线$普通线
100
AcDbVertex
100
AcDb2dVertex
 10
302.1886975806726
 20
647.904465666639
 30
0.0
  0
VERTEX
  5
BD
330
63
100
AcDbEntity
  8
Make2D$可见线$普通线
100
AcDbVertex
100
AcDb2dVertex
 10
302.1959410191835
 20
647.9074513859481
 30
0.0
  0
VERTEX
  5
BE
330
63
100
AcDbEntity
  8
Make2D$可见线$普通线
100
AcDbVertex
100
AcDb2dVertex
 10
302.2031294058842
 20
647.9106217604441
 30
0.0
  0
VERTEX
  5
BF
330
63
100
AcDbEntity
  8
Make2D$可见线$普通线
100
AcDbVertex
100
AcDb2dVertex
 10
302.2102622349884
 20
647.9139717522296
 30
0.0
  0
VERTEX
  5
C0
330
63
100
AcDbEntity
  8
Make2D$可见线$普通线
100
AcDbVertex
100
AcDb2dVertex
 10
302.2173390007099
 20
647.9174963234074
 30
0.0
  0
VERTEX
  5
C1
330
63
100
AcDbEntity
  8
Make2D$可见线$普通线
100
AcDbVertex
100
AcDb2dVertex
 10
302.2243591972625
 20
647.92119043608
 30
0.0
  0
VERTEX
  5
C2
330
63
100
AcDbEntity
  8
Make2D$可见线$普通线
100
AcDbVertex
100
AcDb2dVertex
 10
302.2313223188597
 20
647.9250490523501
 30
0.0
  0
VERTEX
  5
C3
330
63
100
AcDbEntity
  8
Make2D$可见线$普通线
100
AcDbVertex
100
AcDb2dVertex
 10
302.2382278597155
 20
647.9290671343206
 30
0.0
  0
VERTEX
  5
C4
330
63
100
AcDbEntity
  8
Make2D$可见线$普通线
100
AcDbVertex
100
AcDb2dVertex
 10
302.2450753140436
 20
647.9332396440941
 30
0.0
  0
VERTEX
  5
C5
330
63
100
AcDbEntity
  8
Make2D$可见线$普通线
100
AcDbVertex
100
AcDb2dVertex
 10
302.2518641760577
 20
647.9375615437731
 30
0.0
  0
VERTEX
  5
C6
330
63
100
AcDbEntity
  8
Make2D$可见线$普通线
100
AcDbVertex
100
AcDb2dVertex
 10
302.2585939399715
 20
647.9420277954605
 30
0.0
  0
VERTEX
  5
C7
330
63
100
AcDbEntity
  8
Make2D$可见线$普通线
100
AcDbVertex
100
AcDb2dVertex
 10
302.2652640999988
 20
647.9466333612588
 30
0.0
  0
VERTEX
  5
C8
330
63
100
AcDbEntity
  8
Make2D$可见线$普通线
100
AcDbVertex
100
AcDb2dVertex
 10
302.278423585249
 20
647.9562422835994
 30
0.0
  0
VERTEX
  5
C9
330
63
100
AcDbEntity
  8
Make2D$可见线$普通线
100
AcDbVertex
100
AcDb2dVertex
 10
302.2913385855183
 20
647.9663480076165
 30
0.0
  0
VERTEX
  5
CA
330
63
100
AcDbEntity
  8
Make2D$可见线$普通线
100
AcDbVertex
100
AcDb2dVertex
 10
302.3040050545167
 20
647.9769102301314
 30
0.0
  0
VERTEX
  5
CB
330
63
100
AcDbEntity
  8
Make2D$可见线$普通线
100
AcDbVertex
100
AcDb2dVertex
 10
302.316418945954
 20
647.9878886479657
 30
0.0
  0
VERTEX
  5
CC
330
63
100
AcDbEntity
  8
Make2D$可见线$普通线
100
AcDbVertex
100
AcDb2dVertex
 10
302.3285762135404
 20
647.999242957941
 30
0.0
  0
VERTEX
  5
CD
330
63
100
AcDbEntity
  8
Make2D$可见线$普通线
100
AcDbVertex
100
AcDb2dVertex
 10
302.3404728109857
 20
648.0109328568786
 30
0.0
  0
VERTEX
  5
CE
330
63
100
AcDbEntity
  8
Make2D$可见线$普通线
100
AcDbVertex
100
AcDb2dVertex
 10
302.3521046920001
 20
648.0229180416002
 30
0.0
  0
VERTEX
  5
CF
330
63
100
AcDbEntity
  8
Make2D$可见线$普通线
100
AcDbVertex
100
AcDb2dVertex
 10
302.3634678102935
 20
648.0351582089272
 30
0.0
  0
VERTEX
  5
D0
330
63
100
AcDbEntity
  8
Make2D$可见线$普通线
100
AcDbVertex
100
AcDb2dVertex
 10
302.3745581195759
 20
648.0476130556813
 30
0.0
  0
VERTEX
  5
D1
330
63
100
AcDbEntity
  8
Make2D$可见线$普通线
100
AcDbVertex
100
AcDb2dVertex
 10
302.3853715735573
 20
648.0602422786837
 30
0.0
  0
VERTEX
  5
D2
330
63
100
AcDbEntity
  8
Make2D$可见线$普通线
100
AcDbVertex
100
AcDb2dVertex
 10
302.4061517304571
 20
648.08586264072
 30
0.0
  0
VERTEX
  5
D3
330
63
100
AcDbEntity
  8
Make2D$可见线$普通线
100
AcDbVertex
100
AcDb2dVertex
 10
302.4257759106727
 20
648.1116968696083
 30
0.0
  0
VERTEX
  5
D4
330
63
100
AcDbEntity
  8
Make2D$可见线$普通线
100
AcDbVertex
100
AcDb2dVertex
 10
302.4442117438841
 20
648.1374225399206
 30
0.0
  0
VERTEX
  5
D5
330
63
100
AcDbEntity
  8
Make2D$可见线$普通线
100
AcDbVertex
100
AcDb2dVertex
 10
302.4614268597712
 20
648.1627172262291
 30
0.0
  0
VERTEX
  5
D6
330
63
100
AcDbEntity
  8
Make2D$可见线$普通线
100
AcDbVertex
100
AcDb2dVertex
 10
302.4773888880141
 20
648.1872585031058
 30
0.0
  0
SEQEND
  5
D7
330
63
100
AcDbEntity
  8
Make2D$可见线$普通线
  0
POLYLINE
  5
D8
330
1F
100
AcDbEntity
  8
Make2D$可见线$普通线
100
AcDb2dPolyline
 66
     1
 10
0.0
 20
0.0
 30
0.0
  0
VERTEX
  5
D9
330
D8
100
AcDbEntity
  8
Make2D$可见线$普通线
100
AcDbVertex
100
AcDb2dVertex
 10
304.3001583515801
 20
648.2049745105936
 30
0.0
  0
VERTEX
  5
DA
330
D8
100
AcDbEntity
  8
Make2D$可见线$普通线
100
AcDbVertex
100
AcDb2dVertex
 10
304.3505031263801
 20
648.280247356377
 30
0.0
  0
VERTEX
  5
DB
330
D8
100
AcDbEntity
  8
Make2D$可见线$普通线
100
AcDbVertex
100
AcDb2dVertex
 10
304.3470030729735
 20
648.215247341118
 30
0.0
  0
VERTEX
  5
DC
330
D8
100
AcDbEntity
  8
Make2D$可见线$普通线
100
AcDbVertex
100
AcDb2dVertex
 10
304.3470030729735
 20
648.1542473868951
 30
0.0
 42
0.2118022371367463
  0
VERTEX
  5
DD
330
D8
100
AcDbEntity
  8
Make2D$可见线$普通线
100
AcDbVertex
100
AcDb2dVertex
 10
304.4287530996768
 20
647.9638722896188
 30
0.0
 42
0.2020701508486176
  0
VERTEX
  5
DE
330
D8
100
AcDbEntity
  8
Make2D$可见线$普通线
100
AcDbVertex
100
AcDb2dVertex
 10
304.6420031797866
 20
647.8847471808983
 30
0.0
 42
0.2492518449293892
  0
VERTEX
  5
DF
330
D8
100
AcDbEntity
  8
Make2D$可见线$普通线
100
AcDbVertex
100
AcDb2dVertex
 10
305.0598780863251
 20
648.1419971999721
 30
0.0
 42
0.1521119782882756
  0
VERTEX
  5
E0
330
D8
100
AcDbEntity
  8
Make2D$可见线$普通线
100
AcDbVertex
100
AcDb2dVertex
 10
305.2426021488573
 20
648.7425924469171
 30
0.0
  0
VERTEX
  5
E1
330
D8
100
AcDbEntity
  8
Make2D$可见线$普通线
100
AcDbVertex
100
AcDb2dVertex
 10
305.2430030729735
 20
648.7777473792655
 30
0.0
 42
0.166736405744685
  0
VERTEX
  5
E2
330
D8
100
AcDbEntity
  8
Make2D$可见线$普通线
100
AcDbVertex
100
AcDb2dVertex
 10
305.0740031797866
 20
649.3437472266753
 30
0.0
 42
0.2416102147431823
  0
VERTEX
  5
E3
330
D8
100
AcDbEntity
  8
Make2D$可见线$普通线
100
AcDbVertex
100
AcDb2dVertex
 10
304.6872531378243
 20
649.5647471808983
 30
0.0
 42
0.1954975053898346
  0
VERTEX
  5
E4
330
D8
100
AcDbEntity
  8
Make2D$可见线$普通线
100
AcDbVertex
100
AcDb2dVertex
 10
304.5227531912308
 20
649.5048722438418
 30
0.0
 42
0.2139986378652252
  0
VERTEX
  5
E5
330
D8
100
AcDbEntity
  8
Make2D$可见线$普通线
100
AcDbVertex
100
AcDb2dVertex
 10
304.4590030729735
 20
649.3407471808983
 30
0.0
 42
-0.1322170608572422
  0
VERTEX
  5
E6
330
D8
100
AcDbEntity
  8
Make2D$可见线$普通线
100
AcDbVertex
100
AcDb2dVertex
 10
304.6397531454538
 20
649.3887471808982
 30
0.0
 42
-0.2462437860513051
  0
VERTEX
  5
E7
330
D8
100
AcDbEntity
  8
Make2D$可见线$普通线
100
AcDbVertex
100
AcDb2dVertex
 10
304.9721280901399
 20
649.1964972991557
 30
0.0
 42
-0.2102680661736595
  0
VERTEX
  5
E8
330
D8
100
AcDbEntity
  8
Make2D$可见线$普通线
100
AcDbVertex
100
AcDb2dVertex
 10
305.104503156898
 20
648.6232472190459
 30
0.0
 42
0.1587148844281727
  0
VERTEX
  5
E9
330
D8
100
AcDbEntity
  8
Make2D$可见线$普通线
100
AcDbVertex
100
AcDb2dVertex
 10
304.9733270104199
 20
648.7425924469171
 30
0.0
 42
0.1020321139479023
  0
VERTEX
  5
EA
330
D8
100
AcDbEntity
  8
Make2D$可见线$普通线
100
AcDbVertex
100
AcDb2dVertex
 10
304.8582533056735
 20
648.7647471808983
 30
0.0
 42
0.0875149745800592
  0
VERTEX
  5
EB
330
D8
100
AcDbEntity
  8
Make2D$可见线$普通线
100
AcDbVertex
100
AcDb2dVertex
 10
304.7374388706583
 20
648.7425924469171
 30
0.0
 42
0.061263376838764
  0
VERTEX
  5
EC
330
D8
100
AcDbEntity
  8
Make2D$可见线$普通线
100
AcDbVertex
100
AcDb2dVertex
 10
304.6255179246409
 20
648.6844328743099
 30
0.0
 42
0.0973824384867812
  0
VERTEX
  5
ED
330
D8
100
AcDbEntity
  8
Make2D$可见线$普通线
100
AcDbVertex
100
AcDb2dVertex
 10
304.2483364096548
 20
648.2522222204079
 30
0.0
  0
SEQEND
  5
EE
330
D8
100
AcDbEntity
  8
Make2D$可见线$普通线
  0
POLYLINE
  5
EF
330
1F
100
AcDbEntity
  8
Make2D$可见线$普通线
100
AcDb2dPolyline
 66
     1
 10
0.0
 20
0.0
 30
0.0
  0
VERTEX
  5
F0
330
EF
100
AcDbEntity
  8
Make2D$可见线$普通线
100
AcDbVertex
100
AcDb2dVertex
 10
290.7676740778218
 20
648.207230209458
 30
0.0
  0
VERTEX
  5
F1
330
EF
100
AcDbEntity
  8
Make2D$可见线$普通线
100
AcDbVertex
100
AcDb2dVertex
 10
290.8290294347183
 20
648.3069972762672
 30
0.0
  0
VERTEX
  5
F2
330
EF
100
AcDbEntity
  8
Make2D$可见线$普通线
100
AcDbVertex
100
AcDb2dVertex
 10
290.8290294347184
 20
648.2312473411181
 30
0.0
 42
0.1796895790107652
  0
VERTEX
  5
F3
330
EF
100
AcDbEntity
  8
Make2D$可见线$普通线
100
AcDbVertex
100
AcDb2dVertex
 10
290.9090294347183
 20
647.9789972762673
 30
0.0
 42
0.2306143607341228
  0
VERTEX
  5
F4
330
EF
100
AcDbEntity
  8
Make2D$可见线$普通线
100
AcDbVertex
100
AcDb2dVertex
 10
291.1245295491609
 20
647.8847471808983
 30
0.0
 42
0.112199140211017
  0
VERTEX
  5
F5
330
EF
100
AcDbEntity
  8
Make2D$可见线$普通线
100
AcDbVertex
100
AcDb2dVertex
 10
291.2905295186429
 20
647.9194972228606
 30
0.0
 42
0.0845668897232675
  0
VERTEX
  5
F6
330
EF
100
AcDbEntity
  8
Make2D$可见线$普通线
100
AcDbVertex
100
AcDb2dVertex
 10
291.4690294347183
 20
648.0687473029703
 30
0.0
 42
0.1482500801427059
  0
VERTEX
  5
F7
330
EF
100
AcDbEntity
  8
Make2D$可见线$普通线
100
AcDbVertex
100
AcDb2dVertex
 10
291.5032794690512
 20
647.920247234305
 30
0.0
 42
0.2048897258257864
  0
VERTEX
  5
F8
330
EF
100
AcDbEntity
  8
Make2D$可见线$普通线
100
AcDbVertex
100
AcDb2dVertex
 10
291.6100296330856
 20
647.8847471808983
 30
0.0
 42
0.2297706932773158
  0
VERTEX
  5
F9
330
EF
100
AcDbEntity
  8
Make2D$可见线$普通线
100
AcDbVertex
100
AcDb2dVertex
 10
292.0130294347183
 20
648.2057471961573
 30
0.0
  0
VERTEX
  5
FA
330
EF
100
AcDbEntity
  8
Make2D$可见线$普通线
100
AcDbVertex
100
AcDb2dVertex
 10
291.9582795758643
 20
648.2527471808983
 30
0.0
 42
-0.0513524987675291
  0
VERTEX
  5
FB
330
EF
100
AcDbEntity
  8
Make2D$可见线$普通线
100
AcDbVertex
100
AcDb2dVertex
 10
291.8071545892159
 20
648.0632472190459
 30
0.0
 42
-0.1428378110147536
  0
VERTEX
  5
FC
330
EF
100
AcDbEntity
  8
Make2D$可见线$普通线
100
AcDbVertex
100
AcDb2dVertex
 10
291.7032795911233
 20
647.9967471808983
 30
0.0
 42
-0.2761877879024535
  0
VERTEX
  5
FD
330
EF
100
AcDbEntity
  8
Make2D$可见线$普通线
100
AcDbVertex
100
AcDb2dVertex
 10
291.6541544518846
 20
648.016997245749
 30
0.0
 42
-0.0571749277114737
  0
VERTEX
  5
FE
330
EF
100
AcDbEntity
  8
Make2D$可见线$普通线
100
AcDbVertex
100
AcDb2dVertex
 10
291.6450294347184
 20
648.1369973678213
 30
0.0
  0
VERTEX
  5
FF
330
EF
100
AcDbEntity
  8
Make2D$可见线$普通线
100
AcDbVertex
100
AcDb2dVertex
 10
291.6450294347183
 20
648.7647471808983
 30
0.0
  0
VERTEX
  5
100
330
EF
100
AcDbEntity
  8
Make2D$可见线$普通线
100
AcDbVertex
100
AcDb2dVertex
 10
291.4932795606052
 20
648.6737472571934
 30
0.0
 42
0.1502501413442014
  0
VERTEX
  5
101
330
EF
100
AcDbEntity
  8
Make2D$可见线$普通线
100
AcDbVertex
100
AcDb2dVertex
 10
291.3155295339019
 20
648.7327471808983
 30
0.0
 42
0.1599176099073711
  0
VERTEX
  5
102
330
EF
100
AcDbEntity
  8
Make2D$可见线$普通线
100
AcDbVertex
100
AcDb2dVertex
 10
291.0211545586978
 20
648.5963722972484
 30
0.0
 42
0.075863589272541
  0
VERTEX
  5
103
330
EF
100
AcDbEntity
  8
Make2D$可见线$普通线
100
AcDbVertex
100
AcDb2dVertex
 10
290.7227862871055
 20
648.2543914233263
 30
0.0
  0
SEQEND
  5
104
330
EF
100
AcDbEntity
  8
Make2D$可见线$普通线
  0
POLYLINE
  5
105
330
1F
100
AcDbEntity
  8
Make2D$可见线$普通线
100
AcDb2dPolyline
 66
     1
 10
0.0
 20
0.0
 30
0.0
  0
VERTEX
  5
106
330
105
100
AcDbEntity
  8
Make2D$可见线$普通线
100
AcDbVertex
100
AcDb2dVertex
 10
293.1610964843854
 20
648.2076568309291
 30
0.0
 42
-0.1662242512741844
  0
VERTEX
  5
107
330
105
100
AcDbEntity
  8
Make2D$可见线$普通线
100
AcDbVertex
100
AcDb2dVertex
 10
292.9307795224577
 20
647.9967471808983
 30
0.0
 42
-0.409609669636171
  0
VERTEX
  5
108
330
105
100
AcDbEntity
  8
Make2D$可见线$普通线
100
AcDbVertex
100
AcDb2dVertex
 10
292.8850294347184
 20
648.0378721980647
 30
0.0
 42
-0.0359875033187626
  0
VERTEX
  5
109
330
105
100
AcDbEntity
  8
Make2D$可见线$普通线
100
AcDbVertex
100
AcDb2dVertex
 10
292.8770294347183
 20
648.1924972381197
 30
0.0
  0
VERTEX
  5
10A
330
105
100
AcDbEntity
  8
Make2D$可见线$普通线
100
AcDbVertex
100
AcDb2dVertex
 10
292.8770294347183
 20
648.7647471808983
 30
0.0
  0
VERTEX
  5
10B
330
105
100
AcDbEntity
  8
Make2D$可见线$普通线
100
AcDbVertex
100
AcDb2dVertex
 10
292.7010294347183
 20
648.6687471808983
 30
0.0
  0
VERTEX
  5
10C
330
105
100
AcDbEntity
  8
Make2D$可见线$普通线
100
AcDbVertex
100
AcDb2dVertex
 10
292.7010294347183
 20
648.4102473868952
 30
0.0
 42
-0.0315006340450054
  0
VERTEX
  5
10D
330
105
100
AcDbEntity
  8
Make2D$可见线$普通线
100
AcDbVertex
100
AcDb2dVertex
 10
292.6150294652364
 20
648.2596222858042
 30
0.0
 42
-0.0495947407591114
  0
VERTEX
  5
10E
330
105
100
AcDbEntity
  8
Make2D$可见线$普通线
100
AcDbVertex
100
AcDb2dVertex
 10
292.4672795300873
 20
648.059247280082
 30
0.0
 42
-0.16354567503847
  0
VERTEX
  5
10F
330
105
100
AcDbEntity
  8
Make2D$可见线$普通线
100
AcDbVertex
100
AcDb2dVertex
 10
292.3675294728658
 20
647.9967471808982
 30
0.0
 42
-0.3454524552572992
  0
VERTEX
  5
110
330
105
100
AcDbEntity
  8
Make2D$可见线$普通线
100
AcDbVertex
100
AcDb2dVertex
 10
292.324904554883
 20
648.0209971847131
 30
0.0
 42
-0.058453830305772
  0
VERTEX
  5
111
330
105
100
AcDbEntity
  8
Make2D$可见线$普通线
100
AcDbVertex
100
AcDb2dVertex
 10
292.3170294347183
 20
648.115247280082
 30
0.0
  0
VERTEX
  5
112
330
105
100
AcDbEntity
  8
Make2D$可见线$普通线
100
AcDbVertex
100
AcDb2dVertex
 10
292.3170294347183
 20
648.7647471808983
 30
0.0
  0
VERTEX
  5
113
330
105
100
AcDbEntity
  8
Make2D$可见线$普通线
100
AcDbVertex
100
AcDb2dVertex
 10
292.1410294347182
 20
648.6687471808983
 30
0.0
 42
-0.0854035441353271
  0
VERTEX
  5
114
330
105
100
AcDbEntity
  8
Make2D$可见线$普通线
100
AcDbVertex
100
AcDb2dVertex
 10
291.9556611441848
 20
648.2544601974745
 30
0.0
  0
SEQEND
  5
115
330
105
100
AcDbEntity
  8
Make2D$可见线$普通线
  0
POLYLINE
  5
116
330
1F
100
AcDbEntity
  8
Make2D$可见线$普通线
100
AcDb2dPolyline
 66
     1
 10
0.0
 20
0.0
 30
0.0
  0
VERTEX
  5
117
330
116
100
AcDbEntity
  8
Make2D$可见线$普通线
100
AcDbVertex
100
AcDb2dVertex
 10
293.2193174928234
 20
648.1648040628468
 30
0.0
  0
VERTEX
  5
118
330
116
100
AcDbEntity
  8
Make2D$可见线$普通线
100
AcDbVertex
100
AcDb2dVertex
 10
293.2965294881249
 20
648.2802473563771
 30
0.0
  0
VERTEX
  5
119
330
116
100
AcDbEntity
  8
Make2D$可见线$普通线
100
AcDbVertex
100
AcDb2dVertex
 10
293.2930294347183
 20
648.2152473411181
 30
0.0
  0
VERTEX
  5
11A
330
116
100
AcDbEntity
  8
Make2D$可见线$普通线
100
AcDbVertex
100
AcDb2dVertex
 10
293.2930294347183
 20
648.1542473868951
 30
0.0
 42
0.427275691420178
  0
VERTEX
  5
11B
330
116
100
AcDbEntity
  8
Make2D$可见线$普通线
100
AcDbVertex
100
AcDb2dVertex
 10
293.5880295415315
 20
647.8847471808983
 30
0.0
 42
0.2487271514903296
  0
VERTEX
  5
11C
330
116
100
AcDbEntity
  8
Make2D$可见线$普通线
100
AcDbVertex
100
AcDb2dVertex
 10
294.0059044480698
 20
648.1419971999723
 30
0.0
 42
0.1520076421304665
  0
VERTEX
  5
11D
330
116
100
AcDbEntity
  8
Make2D$可见线$普通线
100
AcDbVertex
100
AcDb2dVertex
 10
294.1886285106023
 20
648.7425924469171
 30
0.0
  0
VERTEX
  5
11E
330
116
100
AcDbEntity
  8
Make2D$可见线$普通线
100
AcDbVertex
100
AcDb2dVertex
 10
294.1890294347183
 20
648.7777473792656
 30
0.0
 42
0.1665147948456799
  0
VERTEX
  5
11F
330
116
100
AcDbEntity
  8
Make2D$可见线$普通线
100
AcDbVertex
100
AcDb2dVertex
 10
294.0200295415314
 20
649.3437472266754
 30
0.0
 42
0.2411988715894778
  0
VERTEX
  5
120
330
116
100
AcDbEntity
  8
Make2D$可见线$普通线
100
AcDbVertex
100
AcDb2dVertex
 10
293.6332794995691
 20
649.5647471808985
 30
0.0
 42
0.1965046676527222
  0
VERTEX
  5
121
330
116
100
AcDbEntity
  8
Make2D$可见线$普通线
100
AcDbVertex
100
AcDb2dVertex
 10
293.4687795529756
 20
649.5048722438418
 30
0.0
 42
0.2138201024058599
  0
VERTEX
  5
122
330
116
100
AcDbEntity
  8
Make2D$可见线$普通线
100
AcDbVertex
100
AcDb2dVertex
 10
293.4050294347182
 20
649.3407471808983
 30
0.0
 42
-0.1324401692695385
  0
VERTEX
  5
123
330
116
100
AcDbEntity
  8
Make2D$可见线$普通线
100
AcDbVertex
100
AcDb2dVertex
 10
293.5857795071987
 20
649.3887471808983
 30
0.0
 42
-0.2458455606885035
  0
VERTEX
  5
124
330
116
100
AcDbEntity
  8
Make2D$可见线$普通线
100
AcDbVertex
100
AcDb2dVertex
 10
293.9181544518846
 20
649.1964972991557
 30
0.0
 42
-0.2102634964983144
  0
VERTEX
  5
125
330
116
100
AcDbEntity
  8
Make2D$可见线$普通线
100
AcDbVertex
100
AcDb2dVertex
 10
294.0505295186429
 20
648.6232472190459
 30
0.0
 42
0.1585956739379406
  0
VERTEX
  5
126
330
116
100
AcDbEntity
  8
Make2D$可见线$普通线
100
AcDbVertex
100
AcDb2dVertex
 10
293.9193533721648
 20
648.7425924469171
 30
0.0
 42
0.1020400573917518
  0
VERTEX
  5
127
330
116
100
AcDbEntity
  8
Make2D$可见线$普通线
100
AcDbVertex
100
AcDb2dVertex
 10
293.8042796674184
 20
648.7647471808983
 30
0.0
  0
VERTEX
  5
128
330
116
100
AcDbEntity
  8
Make2D$可见线$普通线
100
AcDbVertex
100
AcDb2dVertex
 10
293.7965972080519
 20
648.7646115039255
 30
0.0
  0
VERTEX
  5
129
330
116
100
AcDbEntity
  8
Make2D$可见线$普通线
100
AcDbVertex
100
AcDb2dVertex
 10
293.7889067211121
 20
648.7643082863261
 30
0.0
  0
VERTEX
  5
12A
330
116
100
AcDbEntity
  8
Make2D$可见线$普通线
100
AcDbVertex
100
AcDb2dVertex
 10
293.7812136737128
 20
648.7638369656671
 30
0.0
  0
VERTEX
  5
12B
330
116
100
AcDbEntity
  8
Make2D$可见线$普通线
100
AcDbVertex
100
AcDb2dVertex
 10
293.7735235679754
 20
648.7631972171891
 30
0.0
  0
VERTEX
  5
12C
330
116
100
AcDbEntity
  8
Make2D$可见线$普通线
100
AcDbVertex
100
AcDb2dVertex
 10
293.7658419281063
 20
648.7623889561451
 30
0.0
  0
VERTEX
  5
12D
330
116
100
AcDbEntity
  8
Make2D$可见线$普通线
100
AcDbVertex
100
AcDb2dVertex
 10
293.758174287304
 20
648.7614123392962
 30
0.0
  0
VERTEX
  5
12E
330
116
100
AcDbEntity
  8
Make2D$可见线$普通线
100
AcDbVertex
100
AcDb2dVertex
 10
293.750526174556
 20
648.7602677655451
 30
0.0
  0
VERTEX
  5
12F
330
116
100
AcDbEntity
  8
Make2D$可见线$普通线
100
AcDbVertex
100
AcDb2dVertex
 10
293.7429031013971
 20
648.7589558757088
 30
0.0
  0
VERTEX
  5
130
330
116
100
AcDbEntity
  8
Make2D$可见线$普通线
100
AcDbVertex
100
AcDb2dVertex
 10
293.7353105486894
 20
648.7574775514172
 30
0.0
  0
VERTEX
  5
131
330
116
100
AcDbEntity
  8
Make2D$可见线$普通线
100
AcDbVertex
100
AcDb2dVertex
 10
293.7277539534956
 20
648.7558339131499
 30
0.0
  0
VERTEX
  5
132
330
116
100
AcDbEntity
  8
Make2D$可见线$普通线
100
AcDbVertex
100
AcDb2dVertex
 10
293.7202386961082
 20
648.7540263174136
 30
0.0
  0
VERTEX
  5
133
330
116
100
AcDbEntity
  8
Make2D$可见线$普通线
100
AcDbVertex
100
AcDb2dVertex
 10
293.7127700873007
 20
648.7520563530811
 30
0.0
  0
VERTEX
  5
134
330
116
100
AcDbEntity
  8
Make2D$可见线$普通线
100
AcDbVertex
100
AcDb2dVertex
 10
293.7053533558644
 20
648.7499258369062
 30
0.0
  0
VERTEX
  5
135
330
116
100
AcDbEntity
  8
Make2D$可见线$普通线
100
AcDbVertex
100
AcDb2dVertex
 10
293.6979936364918
 20
648.7476368082455
 30
0.0
  0
VERTEX
  5
136
330
116
100
AcDbEntity
  8
Make2D$可见线$普通线
100
AcDbVertex
100
AcDb2dVertex
 10
293.6906959580649
 20
648.7451915230146
 30
0.0
  0
VERTEX
  5
137
330
116
100
AcDbEntity
  8
Make2D$可见线$普通线
100
AcDbVertex
100
AcDb2dVertex
 10
293.683465232403
 20
648.7425924469171
 30
0.0
  0
VERTEX
  5
138
330
116
100
AcDbEntity
  8
Make2D$可见线$普通线
100
AcDbVertex
100
AcDb2dVertex
 10
293.6732857011896
 20
648.7387561490139
 30
0.0
  0
VERTEX
  5
139
330
116
100
AcDbEntity
  8
Make2D$可见线$普通线
100
AcDbVertex
100
AcDb2dVertex
 10
293.6631478919092
 20
648.7346373864393
 30
0.0
  0
VERTEX
  5
13A
330
116
100
AcDbEntity
  8
Make2D$可见线$普通线
100
AcDbVertex
100
AcDb2dVertex
 10
293.6530529814383
 20
648.7302428142436
 30
0.0
  0
VERTEX
  5
13B
330
116
100
AcDbEntity
  8
Make2D$可见线$普通线
100
AcDbVertex
100
AcDb2dVertex
 10
293.6430021466534
 20
648.7255790874767
 30
0.0
  0
VERTEX
  5
13C
330
116
100
AcDbEntity
  8
Make2D$可见线$普通线
100
AcDbVertex
100
AcDb2dVertex
 10
293.6329965644309
 20
648.7206528611883
 30
0.0
  0
VERTEX
  5
13D
330
116
100
AcDbEntity
  8
Make2D$可见线$普通线
100
AcDbVertex
100
AcDb2dVertex
 10
293.6230374116474
 20
648.7154707904286
 30
0.0
  0
VERTEX
  5
13E
330
116
100
AcDbEntity
  8
Make2D$可见线$普通线
100
AcDbVertex
100
AcDb2dVertex
 10
293.6131258651792
 20
648.7100395302474
 30
0.0
  0
VERTEX
  5
13F
330
116
100
AcDbEntity
  8
Make2D$可见线$普通线
100
AcDbVertex
100
AcDb2dVertex
 10
293.6032631019028
 20
648.7043657356948
 30
0.0
  0
VERTEX
  5
140
330
116
100
AcDbEntity
  8
Make2D$可见线$普通线
100
AcDbVertex
100
AcDb2dVertex
 10
293.5934502986948
 20
648.6984560618205
 30
0.0
  0
VERTEX
  5
141
330
116
100
AcDbEntity
  8
Make2D$可见线$普通线
100
AcDbVertex
100
AcDb2dVertex
 10
293.5836886324316
 20
648.6923171636747
 30
0.0
  0
VERTEX
  5
142
330
116
100
AcDbEntity
  8
Make2D$可见线$普通线
100
AcDbVertex
100
AcDb2dVertex
 10
293.5739792799897
 20
648.6859556963071
 30
0.0
  0
VERTEX
  5
143
330
116
100
AcDbEntity
  8
Make2D$可见线$普通线
100
AcDbVertex
100
AcDb2dVertex
 10
293.5643234182455
 20
648.6793783147677
 30
0.0
  0
VERTEX
  5
144
330
116
100
AcDbEntity
  8
Make2D$可见线$普通线
100
AcDbVertex
100
AcDb2dVertex
 10
293.5451768743562
 20
648.6656024293737
 30
0.0
  0
VERTEX
  5
145
330
116
100
AcDbEntity
  8
Make2D$可见线$普通线
100
AcDbVertex
100
AcDb2dVertex
 10
293.5262584157755
 20
648.6510427478921
 30
0.0
  0
VERTEX
  5
146
330
116
100
AcDbEntity
  8
Make2D$可见线$普通线
100
AcDbVertex
100
AcDb2dVertex
 10
293.5075774575152
 20
648.6357525107225
 30
0.0
  0
VERTEX
  5
147
330
116
100
AcDbEntity
  8
Make2D$可见线$普通线
100
AcDbVertex
100
AcDb2dVertex
 10
293.4891434145871
 20
648.6197849582643
 30
0.0
  0
VERTEX
  5
148
330
116
100
AcDbEntity
  8
Make2D$可见线$普通线
100
AcDbVertex
100
AcDb2dVertex
 10
293.470965702003
 20
648.6031933309171
 30
0.0
  0
VERTEX
  5
149
330
116
100
AcDbEntity
  8
Make2D$可见线$普通线
100
AcDbVertex
100
AcDb2dVertex
 10
293.4530537347745
 20
648.5860308690806
 30
0.0
  0
VERTEX
  5
14A
330
116
100
AcDbEntity
  8
Make2D$可见线$普通线
100
AcDbVertex
100
AcDb2dVertex
 10
293.4354169279136
 20
648.5683508131542
 30
0.0
  0
VERTEX
  5
14B
330
116
100
AcDbEntity
  8
Make2D$可见线$普通线
100
AcDbVertex
100
AcDb2dVertex
 10
293.4180646964319
 20
648.5502064035375
 30
0.0
  0
VERTEX
  5
14C
330
116
100
AcDbEntity
  8
Make2D$可见线$普通线
100
AcDbVertex
100
AcDb2dVertex
 10
293.4010064553412
 20
648.53165088063
 30
0.0
  0
VERTEX
  5
14D
330
116
100
AcDbEntity
  8
Make2D$可见线$普通线
100
AcDbVertex
100
AcDb2dVertex
 10
293.3842516196535
 20
648.5127374848312
 30
0.0
  0
VERTEX
  5
14E
330
116
100
AcDbEntity
  8
Make2D$可见线$普通线
100
AcDbVertex
100
AcDb2dVertex
 10
293.3516898245334
 20
648.4740500361584
 30
0.0
  0
VERTEX
  5
14F
330
116
100
AcDbEntity
  8
Make2D$可见线$普通线
100
AcDbVertex
100
AcDb2dVertex
 10
293.320454631166
 20
648.4345699807152
 30
0.0
  0
VERTEX
  5
150
330
116
100
AcDbEntity
  8
Make2D$可见线$普通线
100
AcDbVertex
100
AcDb2dVertex
 10
293.2906213596453
 20
648.3947232416982
 30
0.0
  0
VERTEX
  5
151
330
116
100
AcDbEntity
  8
Make2D$可见线$普通线
100
AcDbVertex
100
AcDb2dVertex
 10
293.2622653300656
 20
648.3549357423037
 30
0.0
  0
VERTEX
  5
152
330
116
100
AcDbEntity
  8
Make2D$可见线$普通线
100
AcDbVertex
100
AcDb2dVertex
 10
293.2354618625209
 20
648.3156334057282
 30
0.0
  0
VERTEX
  5
153
330
116
100
AcDbEntity
  8
Make2D$可见线$普通线
100
AcDbVertex
100
AcDb2dVertex
 10
293.2102862771057
 20
648.277242155168
 30
0.0
  0
VERTEX
  5
154
330
116
100
AcDbEntity
  8
Make2D$可见线$普通线
100
AcDbVertex
100
AcDb2dVertex
 10
293.16512003304
 20
648.2048966048791
 30
0.0
  0
VERTEX
  5
155
330
116
100
AcDbEntity
  8
Make2D$可见线$普通线
100
AcDbVertex
100
AcDb2dVertex
 10
293.2174386379453
 20
648.1660833397345
 30
0.0
 42
-0.2213892331652166
  0
VERTEX
  5
156
330
116
100
AcDbEntity
  8
Make2D$可见线$普通线
100
AcDbVertex
100
AcDb2dVertex
 10
292.8357795377167
 20
647.8847471808983
 30
0.0
 42
-0.2440020583180688
  0
VERTEX
  5
157
330
116
100
AcDbEntity
  8
Make2D$可见线$普通线
100
AcDbVertex
100
AcDb2dVertex
 10
292.7355294728659
 20
647.9296222552862
 30
0.0
 42
-0.1247645786017825
  0
VERTEX
  5
158
330
116
100
AcDbEntity
  8
Make2D$可见线$普通线
100
AcDbVertex
100
AcDb2dVertex
 10
292.7010294347183
 20
648.1247471808983
 30
0.0
  0
VERTEX
  5
159
330
116
100
AcDbEntity
  8
Make2D$可见线$普通线
100
AcDbVertex
100
AcDb2dVertex
 10
292.7010294347182
 20
648.2784973296738
 30
0.0
 42
-0.0543742809395502
  0
VERTEX
  5
15A
330
116
100
AcDbEntity
  8
Make2D$可见线$普通线
100
AcDbVertex
100
AcDb2dVertex
 10
292.4357795377167
 20
647.9418721980647
 30
0.0
 42
-0.1590639597034821
  0
VERTEX
  5
15B
330
116
100
AcDbEntity
  8
Make2D$可见线$普通线
100
AcDbVertex
100
AcDb2dVertex
 10
292.2910295262724
 20
647.8847471808984
 30
0.0
 42
-0.2371829143704962
  0
VERTEX
  5
15C
330
116
100
AcDbEntity
  8
Make2D$可见线$普通线
100
AcDbVertex
100
AcDb2dVertex
 10
292.1802795453463
 20
647.9333721904352
 30
0.0
 42
-0.1241480925053002
  0
VERTEX
  5
15D
330
116
100
AcDbEntity
  8
Make2D$可见线$普通线
100
AcDbVertex
100
AcDb2dVertex
 10
292.1410294347182
 20
648.1594972228606
 30
0.0
  0
VERTEX
  5
15E
330
116
100
AcDbEntity
  8
Make2D$可见线$普通线
100
AcDbVertex
100
AcDb2dVertex
 10
292.1410294347182
 20
648.4474972228605
 30
0.0
 42
-0.0501400011432052
  0
VERTEX
  5
15F
330
116
100
AcDbEntity
  8
Make2D$可见线$普通线
100
AcDbVertex
100
AcDb2dVertex
 10
292.0110163713285
 20
648.2071735228524
 30
0.0
  0
SEQEND
  5
160
330
116
100
AcDbEntity
  8
Make2D$可见线$普通线
  0
LINE
  5
161
330
1F
100
AcDbEntity
  8
Make2D$可见线$普通线
100
AcDbLine
 10
293.2450294347183
 20
648.2069972152311
 30
0.0
 11
293.1922796063823
 21
648.2527471808983
 31
0.0
  0
LINE
  5
162
330
1F
100
AcDbEntity
  8
Make2D$可见线$普通线
100
AcDbLine
 10
291.9337990236428
 20
648.2202097984609
 30
0.0
 11
291.9910295873085
 21
648.180247295341
 31
0.0
  0
LINE
  5
163
330
1F
100
AcDbEntity
  8
Make2D$可见线$普通线
100
AcDbLine
 10
290.7013048448586
 20
648.220522468886
 30
0.0
 11
290.7512794690512
 21
648.1797472877115
 31
0.0
  0
LINE
  5
164
330
1F
100
AcDbEntity
  8
Make2D$可见线$普通线
100
AcDbLine
 10
304.2190030729735
 20
648.2047471808984
 30
0.0
 11
304.2717824857792
 21
648.1658316719949
 31
0.0
  0
LINE
  5
165
330
1F
100
AcDbEntity
  8
Make2D$可见线$普通线
100
AcDbLine
 10
306.915879088909
 20
625.7737385689385
 30
0.0
 11
306.9463991768721
 21
625.8419580244321
 31
0.0
  0
ARC
  5
166
330
1F
100
AcDbEntity
  8
Make2D$可见线$普通线
100
AcDbCircle
 10
296.5336220713822
 20
648.742592446918
 30
0.0
 40
22.89822952860121
100
AcDbArc
 50
301.0793849797228
 51
238.9206150202777
  0
ARC
  5
167
330
1F
100
AcDbEntity
  8
Make2D$可见线$普通线
100
AcDbCircle
 10
296.5336220713825
 20
648.7425915935926
 30
0.0
 40
20.99092758776044
100
AcDbArc
 50
311.1813601752052
 51
228.8186398247939
  0
ARC
  5
168
330
1F
100
AcDbEntity
  8
Make2D$可见线$普通线
100
AcDbCircle
 10
296.5336220713822
 20
648.7425920909229
 30
0.0
 40
30.36114923704383
100
AcDbArc
 50
286.1719795081643
 51
253.8280204918363
  0
POLYLINE
  5
169
330
1F
100
AcDbEntity
  8
Make2D$可见线$普通线
100
AcDb2dPolyline
 66
     1
 10
0.0
 20
0.0
 30
0.0
  0
VERTEX
  5
16A
330
169
100
AcDbEntity
  8
Make2D$可见线$普通线
100
AcDbVertex
100
AcDb2dVertex
 10
308.0453718404677
 20
628.4627819376716
 30
0.0
 42
-0.0449377325889233
  0
VERTEX
  5
16B
330
169
100
AcDbEntity
  8
Make2D$可见线$普通线
100
AcDbVertex
100
AcDb2dVertex
 10
312.4649389273472
 20
636.2676302127421
 30
0.0
  0
VERTEX
  5
16C
330
169
100
AcDbEntity
  8
Make2D$可见线$普通线
100
AcDbVertex
100
AcDb2dVertex
 10
312.9649930963931
 20
636.9774172126835
 30
0.0
 42
0.281362411237472
  0
VERTEX
  5
16D
330
169
100
AcDbEntity
  8
Make2D$可见线$普通线
100
AcDbVertex
100
AcDb2dVertex
 10
314.5255101680417
 20
657.9915658635864
 30
0.0
 42
0.2811016120540752
  0
VERTEX
  5
16E
330
169
100
AcDbEntity
  8
Make2D$可见线$普通线
100
AcDbVertex
100
AcDb2dVertex
 10
296.542741328487
 20
668.9752048180044
 30
0.0
  0
SEQEND
  5
16F
330
169
100
AcDbEntity
  8
Make2D$可见线$普通线
  0
POLYLINE
  5
170
330
1F
100
AcDbEntity
  8
Make2D$可见线$普通线
100
AcDb2dPolyline
 66
     1
 10
0.0
 20
0.0
 30
0.0
  0
VERTEX
  5
171
330
170
100
AcDbEntity
  8
Make2D$可见线$普通线
100
AcDbVertex
100
AcDb2dVertex
 10
296.5427413284872
 20
665.9709266528951
 30
0.0
 42
-0.6297913561579506
  0
VERTEX
  5
172
330
170
100
AcDbEntity
  8
Make2D$可见线$普通线
100
AcDbVertex
100
AcDb2dVertex
 10
309.954938481236
 20
637.9681413447142
 30
0.0
  0
VERTEX
  5
173
330
170
100
AcDbEntity
  8
Make2D$可见线$普通线
100
AcDbVertex
100
AcDb2dVertex
 10
309.9950482058174
 20
637.9675442908335
 30
0.0
 42
0.0644049821710457
  0
VERTEX
  5
174
330
170
100
AcDbEntity
  8
Make2D$可见线$普通线
100
AcDbVertex
100
AcDb2dVertex
 10
304.0927293195665
 20
628.2356401822267
 30
0.0
 42
0.0446243710640361
  0
VERTEX
  5
175
330
170
100
AcDbEntity
  8
Make2D$可见线$普通线
100
AcDbVertex
100
AcDb2dVertex
 10
301.4776196368333
 20
618.7760871355867
 30
0.0
 42
0.0275563103810949
  0
VERTEX
  5
176
330
170
100
AcDbEntity
  8
Make2D$可见线$普通线
100
AcDbVertex
100
AcDb2dVertex
 10
300.3362675862109
 20
609.7362252425839
 30
0.0
 42
0.0322659099578003
  0
VERTEX
  5
177
330
170
100
AcDbEntity
  8
Make2D$可见线$普通线
100
AcDbVertex
100
AcDb2dVertex
 10
300.3096167598299
 20
597.436614861904
 30
0.0
  0
VERTEX
  5
178
330
170
100
AcDbEntity
  8
Make2D$可见线$普通线
100
AcDbVertex
100
AcDb2dVertex
 10
300.4656813183203
 20
595.1373269281258
 30
0.0
  0
VERTEX
  5
179
330
170
100
AcDbEntity
  8
Make2D$可见线$普通线
100
AcDbVertex
100
AcDb2dVertex
 10
300.6479724015789
 20
592.8398191241647
 30
0.0
  0
VERTEX
  5
17A
330
170
100
AcDbEntity
  8
Make2D$可见线$普通线
100
AcDbVertex
100
AcDb2dVertex
 10
300.8564569942994
 20
590.5445399858253
 30
0.0
  0
VERTEX
  5
17B
330
170
100
AcDbEntity
  8
Make2D$可见线$普通线
100
AcDbVertex
100
AcDb2dVertex
 10
301.5597020971592
 20
583.7370658962667
 30
0.0
  0
VERTEX
  5
17C
330
170
100
AcDbEntity
  8
Make2D$可见线$普通线
100
AcDbVertex
100
AcDb2dVertex
 10
301.7859772840742
 20
581.4610717778409
 30
0.0
  0
VERTEX
  5
17D
330
170
100
AcDbEntity
  8
Make2D$可见线$普通线
100
AcDbVertex
100
AcDb2dVertex
 10
301.9197307400877
 20
580.0220393029681
 30
0.0
  0
VERTEX
  5
17E
330
170
100
AcDbEntity
  8
Make2D$可见线$普通线
100
AcDbVertex
100
AcDb2dVertex
 10
302.0430612280892
 20
578.577159319864
 30
0.0
  0
VERTEX
  5
17F
330
170
100
AcDbEntity
  8
Make2D$可见线$普通线
100
AcDbVertex
100
AcDb2dVertex
 10
302.152240842551
 20
577.1285827826014
 30
0.0
  0
VERTEX
  5
180
330
170
100
AcDbEntity
  8
Make2D$可见线$普通线
100
AcDbVertex
100
AcDb2dVertex
 10
302.2435416779446
 20
575.6784606452525
 30
0.0
  0
VERTEX
  5
181
330
170
100
AcDbEntity
  8
Make2D$可见线$普通线
100
AcDbVertex
100
AcDb2dVertex
 10
302.3168534857111
 20
574.0883755808243
 30
0.0
  0
VERTEX
  5
182
330
170
100
AcDbEntity
  8
Make2D$可见线$普通线
100
AcDbVertex
100
AcDb2dVertex
 10
302.3559528109634
 20
572.5317407666378
 30
0.0
  0
VERTEX
  5
183
330
170
100
AcDbEntity
  8
Make2D$可见线$普通线
100
AcDbVertex
100
AcDb2dVertex
 10
302.3589822633087
 20
571.7674546236667
 30
0.0
  0
VERTEX
  5
184
330
170
100
AcDbEntity
  8
Make2D$可见线$普通线
100
AcDbVertex
100
AcDb2dVertex
 10
302.34902995982
 20
571.0133159475936
 30
0.0
  0
VERTEX
  5
185
330
170
100
AcDbEntity
  8
Make2D$可见线$普通线
100
AcDbVertex
100
AcDb2dVertex
 10
302.324619688762
 20
570.269919706531
 30
0.0
  0
VERTEX
  5
186
330
170
100
AcDbEntity
  8
Make2D$可见线$普通线
100
AcDbVertex
100
AcDb2dVertex
 10
302.2842752383993
 20
569.5378608685917
 30
0.0
  0
VERTEX
  5
187
330
170
100
AcDbEntity
  8
Make2D$可见线$普通线
100
AcDbVertex
100
AcDb2dVertex
 10
302.2281129660971
 20
568.8394035916757
 30
0.0
  0
VERTEX
  5
188
330
170
100
AcDbEntity
  8
Make2D$可见线$普通线
100
AcDbVertex
100
AcDb2dVertex
 10
302.1516061904453
 20
568.1521419496577
 30
0.0
  0
VERTEX
  5
189
330
170
100
AcDbEntity
  8
Make2D$可见线$普通线
100
AcDbVertex
100
AcDb2dVertex
 10
302.10448015527
 20
567.812703064638
 30
0.0
  0
VERTEX
  5
18A
330
170
100
AcDbEntity
  8
Make2D$可见线$普通线
100
AcDbVertex
100
AcDb2dVertex
 10
302.0507758439454
 20
567.4760553758263
 30
0.0
  0
VERTEX
  5
18B
330
170
100
AcDbEntity
  8
Make2D$可见线$普通线
100
AcDbVertex
100
AcDb2dVertex
 10
301.9899958730338
 20
567.1421963123829
 30
0.0
  0
VERTEX
  5
18C
330
170
100
AcDbEntity
  8
Make2D$可见线$普通线
100
AcDbVertex
100
AcDb2dVertex
 10
301.9216428590982
 20
566.8111233034693
 30
0.0
  0
VERTEX
  5
18D
330
170
100
AcDbEntity
  8
Make2D$可见线$普通线
100
AcDbVertex
100
AcDb2dVertex
 10
301.8626539975669
 20
566.5547371028115
 30
0.0
  0
VERTEX
  5
18E
330
170
100
AcDbEntity
  8
Make2D$可见线$普通线
100
AcDbVertex
100
AcDb2dVertex
 10
301.7981358442606
 20
566.3003890252999
 30
0.0
  0
VERTEX
  5
18F
330
170
100
AcDbEntity
  8
Make2D$可见线$普通线
100
AcDbVertex
100
AcDb2dVertex
 10
301.7274745003058
 20
566.048421878965
 30
0.0
  0
VERTEX
  5
190
330
170
100
AcDbEntity
  8
Make2D$可见线$普通线
100
AcDbVertex
100
AcDb2dVertex
 10
301.6500560668287
 20
565.7991784718367
 30
0.0
  0
VERTEX
  5
191
330
170
100
AcDbEntity
  8
Make2D$可见线$普通线
100
AcDbVertex
100
AcDb2dVertex
 10
301.5652666449554
 20
565.5530016119457
 30
0.0
  0
VERTEX
  5
192
330
170
100
AcDbEntity
  8
Make2D$可见线$普通线
100
AcDbVertex
100
AcDb2dVertex
 10
301.4724923358124
 20
565.3102341073217
 30
0.0
  0
VERTEX
  5
193
330
170
100
AcDbEntity
  8
Make2D$可见线$普通线
100
AcDbVertex
100
AcDb2dVertex
 10
301.4229190051167
 20
565.1902359907443
 30
0.0
  0
VERTEX
  5
194
330
170
100
AcDbEntity
  8
Make2D$可见线$普通线
100
AcDbVertex
100
AcDb2dVertex
 10
301.3711192405261
 20
565.0712187659952
 30
0.0
  0
VERTEX
  5
195
330
170
100
AcDbEntity
  8
Make2D$可见线$普通线
100
AcDbVertex
100
AcDb2dVertex
 10
301.3170163046809
 20
564.9532252840779
 30
0.0
  0
VERTEX
  5
196
330
170
100
AcDbEntity
  8
Make2D$可见线$普通线
100
AcDbVertex
100
AcDb2dVertex
 10
301.2605334602224
 20
564.8362983959962
 30
0.0
  0
VERTEX
  5
197
330
170
100
AcDbEntity
  8
Make2D$可见线$普通线
100
AcDbVertex
100
AcDb2dVertex
 10
301.2092008080256
 20
564.7361331190818
 30
0.0
  0
VERTEX
  5
198
330
170
100
AcDbEntity
  8
Make2D$可见线$普通线
100
AcDbVertex
100
AcDb2dVertex
 10
301.1559634673787
 20
564.6365786921997
 30
0.0
  0
VERTEX
  5
199
330
170
100
AcDbEntity
  8
Make2D$可见线$普通线
100
AcDbVertex
100
AcDb2dVertex
 10
301.1006897525572
 20
564.5377590025694
 30
0.0
  0
VERTEX
  5
19A
330
170
100
AcDbEntity
  8
Make2D$可见线$普通线
100
AcDbVertex
100
AcDb2dVertex
 10
301.0432479778365
 20
564.4397979374102
 30
0.0
  0
VERTEX
  5
19B
330
170
100
AcDbEntity
  8
Make2D$可见线$普通线
100
AcDbVertex
100
AcDb2dVertex
 10
300.983506457492
 20
564.3428193839414
 30
0.0
  0
VERTEX
  5
19C
330
170
100
AcDbEntity
  8
Make2D$可见线$普通线
100
AcDbVertex
100
AcDb2dVertex
 10
300.9213335057992
 20
564.2469472293825
 30
0.0
  0
VERTEX
  5
19D
330
170
100
AcDbEntity
  8
Make2D$可见线$普通线
100
AcDbVertex
100
AcDb2dVertex
 10
300.8565974370335
 20
564.1523053609528
 30
0.0
  0
VERTEX
  5
19E
330
170
100
AcDbEntity
  8
Make2D$可见线$普通线
100
AcDbVertex
100
AcDb2dVertex
 10
300.7891665654704
 20
564.0590176658716
 30
0.0
  0
VERTEX
  5
19F
330
170
100
AcDbEntity
  8
Make2D$可见线$普通线
100
AcDbVertex
100
AcDb2dVertex
 10
300.7110348703656
 20
563.9572165909108
 30
0.0
  0
VERTEX
  5
1A0
330
170
100
AcDbEntity
  8
Make2D$可见线$普通线
100
AcDbVertex
100
AcDb2dVertex
 10
300.6294427958431
 20
563.8574902134484
 30
0.0
  0
VERTEX
  5
1A1
330
170
100
AcDbEntity
  8
Make2D$可见线$普通线
100
AcDbVertex
100
AcDb2dVertex
 10
300.544412613462
 20
563.760092042239
 30
0.0
  0
VERTEX
  5
1A2
330
170
100
AcDbEntity
  8
Make2D$可见线$普通线
100
AcDbVertex
100
AcDb2dVertex
 10
300.4559665947812
 20
563.6652755860373
 30
0.0
  0
VERTEX
  5
1A3
330
170
100
AcDbEntity
  8
Make2D$可见线$普通线
100
AcDbVertex
100
AcDb2dVertex
 10
300.3641270113593
 20
563.5732943535982
 30
0.0
  0
VERTEX
  5
1A4
330
170
100
AcDbEntity
  8
Make2D$可见线$普通线
100
AcDbVertex
100
AcDb2dVertex
 10
300.3169415927326
 20
563.5284461677754
 30
0.0
  0
VERTEX
  5
1A5
330
170
100
AcDbEntity
  8
Make2D$可见线$普通线
100
AcDbVertex
100
AcDb2dVertex
 10
300.2689161347553
 20
563.4844018536762
 30
0.0
  0
VERTEX
  5
1A6
330
170
100
AcDbEntity
  8
Make2D$可见线$普通线
100
AcDbVertex
100
AcDb2dVertex
 10
300.2200534213721
 20
563.4411930998951
 30
0.0
  0
VERTEX
  5
1A7
330
170
100
AcDbEntity
  8
Make2D$可见线$普通线
100
AcDbVertex
100
AcDb2dVertex
 10
300.1703562365279
 20
563.3988515950264
 30
0.0
  0
VERTEX
  5
1A8
330
170
100
AcDbEntity
  8
Make2D$可见线$普通线
100
AcDbVertex
100
AcDb2dVertex
 10
300.1198273641677
 20
563.3574090276643
 30
0.0
  0
VERTEX
  5
1A9
330
170
100
AcDbEntity
  8
Make2D$可见线$普通线
100
AcDbVertex
100
AcDb2dVertex
 10
300.0684695882363
 20
563.3168970864032
 30
0.0
  0
VERTEX
  5
1AA
330
170
100
AcDbEntity
  8
Make2D$可见线$普通线
100
AcDbVertex
100
AcDb2dVertex
 10
300.0116283291341
 20
563.2738834894191
 30
0.0
  0
VERTEX
  5
1AB
330
170
100
AcDbEntity
  8
Make2D$可见线$普通线
100
AcDbVertex
100
AcDb2dVertex
 10
299.9538441662395
 20
563.2320050223808
 30
0.0
  0
VERTEX
  5
1AC
330
170
100
AcDbEntity
  8
Make2D$可见线$普通线
100
AcDbVertex
100
AcDb2dVertex
 10
299.8951531730121
 20
563.1912564426234
 30
0.0
  0
VERTEX
  5
1AD
330
170
100
AcDbEntity
  8
Make2D$可见线$普通线
100
AcDbVertex
100
AcDb2dVertex
 10
299.8355914229111
 20
563.1516325074815
 30
0.0
  0
VERTEX
  5
1AE
330
170
100
AcDbEntity
  8
Make2D$可见线$普通线
100
AcDbVertex
100
AcDb2dVertex
 10
299.7751949893957
 20
563.1131279742898
 30
0.0
  0
VERTEX
  5
1AF
330
170
100
AcDbEntity
  8
Make2D$可见线$普通线
100
AcDbVertex
100
AcDb2dVertex
 10
299.7139999459254
 20
563.0757376003833
 30
0.0
  0
VERTEX
  5
1B0
330
170
100
AcDbEntity
  8
Make2D$可见线$普通线
100
AcDbVertex
100
AcDb2dVertex
 10
299.6520423659593
 20
563.0394561430962
 30
0.0
  0
VERTEX
  5
1B1
330
170
100
AcDbEntity
  8
Make2D$可见线$普通线
100
AcDbVertex
100
AcDb2dVertex
 10
299.5893583229567
 20
563.0042783597639
 30
0.0
  0
VERTEX
  5
1B2
330
170
100
AcDbEntity
  8
Make2D$可见线$普通线
100
AcDbVertex
100
AcDb2dVertex
 10
299.5259838903771
 20
562.9701990077207
 30
0.0
  0
VERTEX
  5
1B3
330
170
100
AcDbEntity
  8
Make2D$可见线$普通线
100
AcDbVertex
100
AcDb2dVertex
 10
299.4619551416795
 20
562.9372128443015
 30
0.0
  0
VERTEX
  5
1B4
330
170
100
AcDbEntity
  8
Make2D$可见线$普通线
100
AcDbVertex
100
AcDb2dVertex
 10
299.3320789897681
 20
562.8744991126741
 30
0.0
  0
VERTEX
  5
1B5
330
170
100
AcDbEntity
  8
Make2D$可见线$普通线
100
AcDbVertex
100
AcDb2dVertex
 10
299.2000184548969
 20
562.8160952235596
 30
0.0
  0
VERTEX
  5
1B6
330
170
100
AcDbEntity
  8
Make2D$可见线$普通线
100
AcDbVertex
100
AcDb2dVertex
 10
299.0660621247401
 20
562.7619592356359
 30
0.0
  0
VERTEX
  5
1B7
330
170
100
AcDbEntity
  8
Make2D$可见线$普通线
100
AcDbVertex
100
AcDb2dVertex
 10
298.9195607768702
 20
562.7082118203041
 30
0.0
  0
VERTEX
  5
1B8
330
170
100
AcDbEntity
  8
Make2D$可见线$普通线
100
AcDbVertex
100
AcDb2dVertex
 10
298.7713630901215
 20
562.6591876969168
 30
0.0
  0
VERTEX
  5
1B9
330
170
100
AcDbEntity
  8
Make2D$可见线$普通线
100
AcDbVertex
100
AcDb2dVertex
 10
298.6216473998404
 20
562.6146809261307
 30
0.0
  0
VERTEX
  5
1BA
330
170
100
AcDbEntity
  8
Make2D$可见线$普通线
100
AcDbVertex
100
AcDb2dVertex
 10
298.4705920413735
 20
562.5744855686028
 30
0.0
  0
VERTEX
  5
1BB
330
170
100
AcDbEntity
  8
Make2D$可见线$普通线
100
AcDbVertex
100
AcDb2dVertex
 10
298.3183753500672
 20
562.5383956849895
 30
0.0
  0
VERTEX
  5
1BC
330
170
100
AcDbEntity
  8
Make2D$可见线$普通线
100
AcDbVertex
100
AcDb2dVertex
 10
298.1651756612679
 20
562.5062053359476
 30
0.0
  0
VERTEX
  5
1BD
330
170
100
AcDbEntity
  8
Make2D$可见线$普通线
100
AcDbVertex
100
AcDb2dVertex
 10
298.0111713103222
 20
562.4777085821336
 30
0.0
  0
VERTEX
  5
1BE
330
170
100
AcDbEntity
  8
Make2D$可见线$普通线
100
AcDbVertex
100
AcDb2dVertex
 10
297.8565406325765
 20
562.4526994842045
 30
0.0
  0
VERTEX
  5
1BF
330
170
100
AcDbEntity
  8
Make2D$可见线$普通线
100
AcDbVertex
100
AcDb2dVertex
 10
297.6933793002194
 20
562.4299469361206
 30
0.0
  0
VERTEX
  5
1C0
330
170
100
AcDbEntity
  8
Make2D$可见线$普通线
100
AcDbVertex
100
AcDb2dVertex
 10
297.529786202984
 20
562.410687392959
 30
0.0
  0
VERTEX
  5
1C1
330
170
100
AcDbEntity
  8
Make2D$可见线$普通线
100
AcDbVertex
100
AcDb2dVertex
 10
297.3658252832161
 20
562.3947826060013
 30
0.0
  0
VERTEX
  5
1C2
330
170
100
AcDbEntity
  8
Make2D$可见线$普通线
100
AcDbVertex
100
AcDb2dVertex
 10
297.2015604832613
 20
562.3820943265299
 30
0.0
  0
VERTEX
  5
1C3
330
170
100
AcDbEntity
  8
Make2D$可见线$普通线
100
AcDbVertex
100
AcDb2dVertex
 10
297.0370557454653
 20
562.3724843058269
 30
0.0
  0
VERTEX
  5
1C4
330
170
100
AcDbEntity
  8
Make2D$可见线$普通线
100
AcDbVertex
100
AcDb2dVertex
 10
296.8723750121738
 20
562.3658142951745
 30
0.0
  0
VERTEX
  5
1C5
330
170
100
AcDbEntity
  8
Make2D$可见线$普通线
100
AcDbVertex
100
AcDb2dVertex
 10
296.5427413284871
 20
562.3607413091495
 30
0.0
  0
SEQEND
  5
1C6
330
170
100
AcDbEntity
  8
Make2D$可见线$普通线
  0
POLYLINE
  5
1C7
330
1F
100
AcDbEntity
  8
Make2D$可见线$普通线
100
AcDb2dPolyline
 66
     1
 10
0.0
 20
0.0
 30
0.0
  0
VERTEX
  5
1C8
330
1C7
100
AcDbEntity
  8
Make2D$可见线$普通线
100
AcDbVertex
100
AcDb2dVertex
 10
296.5427413284872
 20
508.310189514016
 30
0.0
 42
0.0549170920644606
  0
VERTEX
  5
1C9
330
1C7
100
AcDbEntity
  8
Make2D$可见线$普通线
100
AcDbVertex
100
AcDb2dVertex
 10
306.8479078617783
 20
509.4404885279606
 30
0.0
  0
VERTEX
  5
1CA
330
1C7
100
AcDbEntity
  8
Make2D$可见线$普通线
100
AcDbVertex
100
AcDb2dVertex
 10
307.6003192708737
 20
509.612567795572
 30
0.0
 42
0.0085774275082608
  0
VERTEX
  5
1CB
330
1C7
100
AcDbEntity
  8
Make2D$可见线$普通线
100
AcDbVertex
100
AcDb2dVertex
 10
309.2791509066186
 20
510.0407908692315
 30
0.0
  0
VERTEX
  5
1CC
330
1C7
100
AcDbEntity
  8
Make2D$可见线$普通线
100
AcDbVertex
100
AcDb2dVertex
 10
309.9928289847321
 20
510.2414890481388
 30
0.0
 42
0.0665592424302557
  0
VERTEX
  5
1CD
330
1C7
100
AcDbEntity
  8
Make2D$可见线$普通线
100
AcDbVertex
100
AcDb2dVertex
 10
323.1161153237014
 20
516.0577106518922
 30
0.0
  0
VERTEX
  5
1CE
330
1C7
100
AcDbEntity
  8
Make2D$可见线$普通线
100
AcDbVertex
100
AcDb2dVertex
 10
323.5321767423467
 20
516.3127401693481
 30
0.0
  0
VERTEX
  5
1CF
330
1C7
100
AcDbEntity
  8
Make2D$可见线$普通线
100
AcDbVertex
100
AcDb2dVertex
 10
323.9206153049761
 20
516.5550303250255
 30
0.0
  0
VERTEX
  5
1D0
330
1C7
100
AcDbEntity
  8
Make2D$可见线$普通线
100
AcDbVertex
100
AcDb2dVertex
 10
324.7228168600271
 20
517.0683441617374
 30
0.0
  0
VERTEX
  5
1D1
330
1C7
100
AcDbEntity
  8
Make2D$可见线$普通线
100
AcDbVertex
100
AcDb2dVertex
 10
325.5225207048229
 20
517.5976283571022
 30
0.0
  0
VERTEX
  5
1D2
330
1C7
100
AcDbEntity
  8
Make2D$可见线$普通线
100
AcDbVertex
100
AcDb2dVertex
 10
325.9558804128304
 20
517.8918736017631
 30
0.0
  0
VERTEX
  5
1D3
330
1C7
100
AcDbEntity
  8
Make2D$可见线$普通线
100
AcDbVertex
100
AcDb2dVertex
 10
326.3195251039428
 20
518.1428553801377
 30
0.0
  0
VERTEX
  5
1D4
330
1C7
100
AcDbEntity
  8
Make2D$可见线$普通线
100
AcDbVertex
100
AcDb2dVertex
 10
327.1136204470455
 20
518.70400144128
 30
0.0
 42
0.0074994992519097
  0
VERTEX
  5
1D5
330
1C7
100
AcDbEntity
  8
Make2D$可见线$普通线
100
AcDbVertex
100
AcDb2dVertex
 10
328.6922159787595
 20
519.8739496643276
 30
0.0
  0
VERTEX
  5
1D6
330
1C7
100
AcDbEntity
  8
Make2D$可见线$普通线
100
AcDbVertex
100
AcDb2dVertex
 10
329.4413656984294
 20
520.455171045815
 30
0.0
 42
0.007498577524738
  0
VERTEX
  5
1D7
330
1C7
100
AcDbEntity
  8
Make2D$可见线$普通线
100
AcDbVertex
100
AcDb2dVertex
 10
331.032874021288
 20
521.7473819906245
 30
0.0
  0
VERTEX
  5
1D8
330
1C7
100
AcDbEntity
  8
Make2D$可见线$普通线
100
AcDbVertex
100
AcDb2dVertex
 10
331.6643791094712
 20
522.2823668841374
 30
0.0
  0
VERTEX
  5
1D9
330
1C7
100
AcDbEntity
  8
Make2D$可见线$普通线
100
AcDbVertex
100
AcDb2dVertex
 10
332.4772174460769
 20
522.9901064996064
 30
0.0
  0
VERTEX
  5
1DA
330
1C7
100
AcDbEntity
  8
Make2D$可见线$普通线
100
AcDbVertex
100
AcDb2dVertex
 10
333.2787048595908
 20
523.7095232436424
 30
0.0
  0
VERTEX
  5
1DB
330
1C7
100
AcDbEntity
  8
Make2D$可见线$普通线
100
AcDbVertex
100
AcDb2dVertex
 10
334.0688345478698
 20
524.4402194988475
 30
0.0
  0
VERTEX
  5
1DC
330
1C7
100
AcDbEntity
  8
Make2D$可见线$普通线
100
AcDbVertex
100
AcDb2dVertex
 10
334.8475997087704
 20
525.181797647824
 30
0.0
  0
VERTEX
  5
1DD
330
1C7
100
AcDbEntity
  8
Make2D$可见线$普通线
100
AcDbVertex
100
AcDb2dVertex
 10
335.6669531252251
 20
525.9855702444802
 30
0.0
  0
VERTEX
  5
1DE
330
1C7
100
AcDbEntity
  8
Make2D$可见线$普通线
100
AcDbVertex
100
AcDb2dVertex
 10
336.4734227357367
 20
526.8009821946762
 30
0.0
  0
VERTEX
  5
1DF
330
1C7
100
AcDbEntity
  8
Make2D$可见线$普通线
100
AcDbVertex
100
AcDb2dVertex
 10
337.2671006734171
 20
527.6277091382099
 30
0.0
  0
VERTEX
  5
1E0
330
1C7
100
AcDbEntity
  8
Make2D$可见线$普通线
100
AcDbVertex
100
AcDb2dVertex
 10
338.0480790713783
 20
528.4654267148788
 30
0.0
  0
VERTEX
  5
1E1
330
1C7
100
AcDbEntity
  8
Make2D$可见线$普通线
100
AcDbVertex
100
AcDb2dVertex
 10
338.8164500627323
 20
529.313810564481
 30
0.0
  0
VERTEX
  5
1E2
330
1C7
100
AcDbEntity
  8
Make2D$可见线$普通线
100
AcDbVertex
100
AcDb2dVertex
 10
339.5723057805911
 20
530.1725363268142
 30
0.0
  0
VERTEX
  5
1E3
330
1C7
100
AcDbEntity
  8
Make2D$可见线$普通线
100
AcDbVertex
100
AcDb2dVertex
 10
340.3157383580668
 20
531.041279641676
 30
0.0
  0
VERTEX
  5
1E4
330
1C7
100
AcDbEntity
  8
Make2D$可见线$普通线
100
AcDbVertex
100
AcDb2dVertex
 10
341.0468399282713
 20
531.9197161488644
 30
0.0
  0
VERTEX
  5
1E5
330
1C7
100
AcDbEntity
  8
Make2D$可见线$普通线
100
AcDbVertex
100
AcDb2dVertex
 10
341.7657026243166
 20
532.8075214881769
 30
0.0
  0
VERTEX
  5
1E6
330
1C7
100
AcDbEntity
  8
Make2D$可见线$普通线
100
AcDbVertex
100
AcDb2dVertex
 10
342.4724185793148
 20
533.7043712994114
 30
0.0
  0
VERTEX
  5
1E7
330
1C7
100
AcDbEntity
  8
Make2D$可见线$普通线
100
AcDbVertex
100
AcDb2dVertex
 10
343.1670799263778
 20
534.6099412223657
 30
0.0
  0
VERTEX
  5
1E8
330
1C7
100
AcDbEntity
  8
Make2D$可见线$普通线
100
AcDbVertex
100
AcDb2dVertex
 10
343.8497787986176
 20
535.5239068968376
 30
0.0
  0
VERTEX
  5
1E9
330
1C7
100
AcDbEntity
  8
Make2D$可见线$普通线
100
AcDbVertex
100
AcDb2dVertex
 10
344.5206073291464
 20
536.4459439626248
 30
0.0
  0
VERTEX
  5
1EA
330
1C7
100
AcDbEntity
  8
Make2D$可见线$普通线
100
AcDbVertex
100
AcDb2dVertex
 10
345.179657651076
 20
537.375728059525
 30
0.0
  0
VERTEX
  5
1EB
330
1C7
100
AcDbEntity
  8
Make2D$可见线$普通线
100
AcDbVertex
100
AcDb2dVertex
 10
345.8270218975185
 20
538.3129348273362
 30
0.0
  0
VERTEX
  5
1EC
330
1C7
100
AcDbEntity
  8
Make2D$可见线$普通线
100
AcDbVertex
100
AcDb2dVertex
 10
346.4627922015859
 20
539.2572399058558
 30
0.0
  0
VERTEX
  5
1ED
330
1C7
100
AcDbEntity
  8
Make2D$可见线$普通线
100
AcDbVertex
100
AcDb2dVertex
 10
347.050734989485
 20
540.1523357047898
 30
0.0
  0
VERTEX
  5
1EE
330
1C7
100
AcDbEntity
  8
Make2D$可见线$普通线
100
AcDbVertex
100
AcDb2dVertex
 10
347.6285614350832
 20
541.0532934762855
 30
0.0
  0
VERTEX
  5
1EF
330
1C7
100
AcDbEntity
  8
Make2D$可见线$普通线
100
AcDbVertex
100
AcDb2dVertex
 10
348.1963464317344
 20
541.9599731001593
 30
0.0
  0
VERTEX
  5
1F0
330
1C7
100
AcDbEntity
  8
Make2D$可见线$普通线
100
AcDbVertex
100
AcDb2dVertex
 10
348.754164872793
 20
542.8722344562284
 30
0.0
  0
VERTEX
  5
1F1
330
1C7
100
AcDbEntity
  8
Make2D$可见线$普通线
100
AcDbVertex
100
AcDb2dVertex
 10
349.3020916516132
 20
543.7899374243095
 30
0.0
  0
VERTEX
  5
1F2
330
1C7
100
AcDbEntity
  8
Make2D$可见线$普通线
100
AcDbVertex
100
AcDb2dVertex
 10
349.8402016615493
 20
544.7129418842194
 30
0.0
  0
VERTEX
  5
1F3
330
1C7
100
AcDbEntity
  8
Make2D$可见线$普通线
100
AcDbVertex
100
AcDb2dVertex
 10
350.3685697959556
 20
545.641107715775
 30
0.0
  0
VERTEX
  5
1F4
330
1C7
100
AcDbEntity
  8
Make2D$可见线$普通线
100
AcDbVertex
100
AcDb2dVertex
 10
350.8872709481863
 20
546.5742947987932
 30
0.0
  0
VERTEX
  5
1F5
330
1C7
100
AcDbEntity
  8
Make2D$可见线$普通线
100
AcDbVertex
100
AcDb2dVertex
 10
351.1424288923444
 20
547.0416387172684
 30
0.0
  0
VERTEX
  5
1F6
330
1C7
100
AcDbEntity
  8
Make2D$可见线$普通线
100
AcDbVertex
100
AcDb2dVertex
 10
351.4522071424066
 20
547.6166044140641
 30
0.0
  0
VERTEX
  5
1F7
330
1C7
100
AcDbEntity
  8
Make2D$可见线$普通线
100
AcDbVertex
100
AcDb2dVertex
 10
351.6779149570538
 20
548.040887038429
 30
0.0
  0
VERTEX
  5
1F8
330
1C7
100
AcDbEntity
  8
Make2D$可见线$普通线
100
AcDbVertex
100
AcDb2dVertex
 10
352.0075406643121
 20
548.6688354112167
 30
0.0
  0
VERTEX
  5
1F9
330
1C7
100
AcDbEntity
  8
Make2D$可见线$普通线
100
AcDbVertex
100
AcDb2dVertex
 10
352.2027073853607
 20
549.0453973244112
 30
0.0
  0
VERTEX
  5
1FA
330
1C7
100
AcDbEntity
  8
Make2D$可见线$普通线
100
AcDbVertex
100
AcDb2dVertex
 10
352.9700422787895
 20
550.5616622320655
 30
0.0
  0
VERTEX
  5
1FB
330
1C7
100
AcDbEntity
  8
Make2D$可见线$普通线
100
AcDbVertex
100
AcDb2dVertex
 10
353.7138215378594
 20
552.0888215291916
 30
0.0
  0
VERTEX
  5
1FC
330
1C7
100
AcDbEntity
  8
Make2D$可见线$普通线
100
AcDbVertex
100
AcDb2dVertex
 10
354.4343482209506
 20
553.626308214936
 30
0.0
  0
VERTEX
  5
1FD
330
1C7
100
AcDbEntity
  8
Make2D$可见线$普通线
100
AcDbVertex
100
AcDb2dVertex
 10
355.1319253864435
 20
555.1735552884456
 30
0.0
  0
VERTEX
  5
1FE
330
1C7
100
AcDbEntity
  8
Make2D$可见线$普通线
100
AcDbVertex
100
AcDb2dVertex
 10
355.8670658552734
 20
556.8719299474801
 30
0.0
  0
VERTEX
  5
1FF
330
1C7
100
AcDbEntity
  8
Make2D$可见线$普通线
100
AcDbVertex
100
AcDb2dVertex
 10
356.5755294029678
 20
558.5807418358238
 30
0.0
  0
VERTEX
  5
200
330
1C7
100
AcDbEntity
  8
Make2D$可见线$普通线
100
AcDbVertex
100
AcDb2dVertex
 10
357.2575891440413
 20
560.2994877482297
 30
0.0
  0
VERTEX
  5
201
330
1C7
100
AcDbEntity
  8
Make2D$可见线$普通线
100
AcDbVertex
100
AcDb2dVertex
 10
357.913518193008
 20
562.0276644794499
 30
0.0
  0
VERTEX
  5
202
330
1C7
100
AcDbEntity
  8
Make2D$可见线$普通线
100
AcDbVertex
100
AcDb2dVertex
 10
358.5435896643826
 20
563.764768824237
 30
0.0
  0
VERTEX
  5
203
330
1C7
100
AcDbEntity
  8
Make2D$可见线$普通线
100
AcDbVertex
100
AcDb2dVertex
 10
359.1480766726792
 20
565.5102975773433
 30
0.0
  0
VERTEX
  5
204
330
1C7
100
AcDbEntity
  8
Make2D$可见线$普通线
100
AcDbVertex
100
AcDb2dVertex
 10
359.7272523324123
 20
567.2637475335215
 30
0.0
  0
VERTEX
  5
205
330
1C7
100
AcDbEntity
  8
Make2D$可见线$普通线
100
AcDbVertex
100
AcDb2dVertex
 10
360.2813897580965
 20
569.0246154875242
 30
0.0
  0
VERTEX
  5
206
330
1C7
100
AcDbEntity
  8
Make2D$可见线$普通线
100
AcDbVertex
100
AcDb2dVertex
 10
360.8107506868847
 20
570.7924239445805
 30
0.0
  0
VERTEX
  5
207
330
1C7
100
AcDbEntity
  8
Make2D$可见线$普通线
100
AcDbVertex
100
AcDb2dVertex
 10
361.3155513464854
 20
572.5667982518266
 30
0.0
  0
VERTEX
  5
208
330
1C7
100
AcDbEntity
  8
Make2D$可见线$普通线
100
AcDbVertex
100
AcDb2dVertex
 10
361.7959965872459
 20
574.3473894668762
 30
0.0
  0
VERTEX
  5
209
330
1C7
100
AcDbEntity
  8
Make2D$可见线$普通线
100
AcDbVertex
100
AcDb2dVertex
 10
362.2522912595132
 20
576.1338486473419
 30
0.0
  0
VERTEX
  5
20A
330
1C7
100
AcDbEntity
  8
Make2D$可见线$普通线
100
AcDbVertex
100
AcDb2dVertex
 10
362.6846402136346
 20
577.9258268508372
 30
0.0
  0
VERTEX
  5
20B
330
1C7
100
AcDbEntity
  8
Make2D$可见线$普通线
100
AcDbVertex
100
AcDb2dVertex
 10
363.0932482999573
 20
579.7229751349751
 30
0.0
  0
VERTEX
  5
20C
330
1C7
100
AcDbEntity
  8
Make2D$可见线$普通线
100
AcDbVertex
100
AcDb2dVertex
 10
363.4783203688284
 20
581.5249445573688
 30
0.0
  0
VERTEX
  5
20D
330
1C7
100
AcDbEntity
  8
Make2D$可见线$普通线
100
AcDbVertex
100
AcDb2dVertex
 10
363.8400612705952
 20
583.3313861756318
 30
0.0
  0
VERTEX
  5
20E
330
1C7
100
AcDbEntity
  8
Make2D$可见线$普通线
100
AcDbVertex
100
AcDb2dVertex
 10
364.1697718932434
 20
585.0927768039453
 30
0.0
  0
VERTEX
  5
20F
330
1C7
100
AcDbEntity
  8
Make2D$可见线$普通线
100
AcDbVertex
100
AcDb2dVertex
 10
364.477673212518
 20
586.8578173637702
 30
0.0
  0
VERTEX
  5
210
330
1C7
100
AcDbEntity
  8
Make2D$可见线$普通线
100
AcDbVertex
100
AcDb2dVertex
 10
364.7638440898578
 20
588.6262552865903
 30
0.0
  0
VERTEX
  5
211
330
1C7
100
AcDbEntity
  8
Make2D$可见线$普通线
100
AcDbVertex
100
AcDb2dVertex
 10
365.0283633867016
 20
590.3978380038894
 30
0.0
  0
VERTEX
  5
212
330
1C7
100
AcDbEntity
  8
Make2D$可见线$普通线
100
AcDbVertex
100
AcDb2dVertex
 10
365.2713099644882
 20
592.1723129471515
 30
0.0
  0
VERTEX
  5
213
330
1C7
100
AcDbEntity
  8
Make2D$可见线$普通线
100
AcDbVertex
100
AcDb2dVertex
 10
365.4927626846562
 20
593.9494275478603
 30
0.0
  0
VERTEX
  5
214
330
1C7
100
AcDbEntity
  8
Make2D$可见线$普通线
100
AcDbVertex
100
AcDb2dVertex
 10
365.6928004086444
 20
595.7289292374996
 30
0.0
  0
VERTEX
  5
215
330
1C7
100
AcDbEntity
  8
Make2D$可见线$普通线
100
AcDbVertex
100
AcDb2dVertex
 10
365.8715019978916
 20
597.5105654475535
 30
0.0
  0
VERTEX
  5
216
330
1C7
100
AcDbEntity
  8
Make2D$可见线$普通线
100
AcDbVertex
100
AcDb2dVertex
 10
366.0289463138366
 20
599.2940836095056
 30
0.0
  0
VERTEX
  5
217
330
1C7
100
AcDbEntity
  8
Make2D$可见线$普通线
100
AcDbVertex
100
AcDb2dVertex
 10
366.165212217918
 20
601.0792311548399
 30
0.0
  0
VERTEX
  5
218
330
1C7
100
AcDbEntity
  8
Make2D$可见线$普通线
100
AcDbVertex
100
AcDb2dVertex
 10
366.2803785715746
 20
602.8657555150402
 30
0.0
  0
VERTEX
  5
219
330
1C7
100
AcDbEntity
  8
Make2D$可见线$普通线
100
AcDbVertex
100
AcDb2dVertex
 10
366.3745242362452
 20
604.6534041215903
 30
0.0
  0
VERTEX
  5
21A
330
1C7
100
AcDbEntity
  8
Make2D$可见线$普通线
100
AcDbVertex
100
AcDb2dVertex
 10
366.4477280733686
 20
606.4419244059741
 30
0.0
  0
VERTEX
  5
21B
330
1C7
100
AcDbEntity
  8
Make2D$可见线$普通线
100
AcDbVertex
100
AcDb2dVertex
 10
366.5000689443833
 20
608.2310637996752
 30
0.0
  0
VERTEX
  5
21C
330
1C7
100
AcDbEntity
  8
Make2D$可见线$普通线
100
AcDbVertex
100
AcDb2dVertex
 10
366.5316257107283
 20
610.0205697341779
 30
0.0
  0
VERTEX
  5
21D
330
1C7
100
AcDbEntity
  8
Make2D$可见线$普通线
100
AcDbVertex
100
AcDb2dVertex
 10
366.5424772338423
 20
611.8101896409656
 30
0.0
  0
VERTEX
  5
21E
330
1C7
100
AcDbEntity
  8
Make2D$可见线$普通线
100
AcDbVertex
100
AcDb2dVertex
 10
366.5323108878534
 20
613.5999002023597
 30
0.0
  0
VERTEX
  5
21F
330
1C7
100
AcDbEntity
  8
Make2D$可见线$普通线
100
AcDbVertex
100
AcDb2dVertex
 10
366.5011997243278
 20
615.38944798633
 30
0.0
  0
VERTEX
  5
220
330
1C7
100
AcDbEntity
  8
Make2D$可见线$普通线
100
AcDbVertex
100
AcDb2dVertex
 10
366.4490934600939
 20
617.1785885805244
 30
0.0
  0
VERTEX
  5
221
330
1C7
100
AcDbEntity
  8
Make2D$可见线$普通线
100
AcDbVertex
100
AcDb2dVertex
 10
366.3759418119806
 20
618.9670775725914
 30
0.0
  0
VERTEX
  5
222
330
1C7
100
AcDbEntity
  8
Make2D$可见线$普通线
100
AcDbVertex
100
AcDb2dVertex
 10
366.2816944968166
 20
620.7546705501788
 30
0.0
  0
VERTEX
  5
223
330
1C7
100
AcDbEntity
  8
Make2D$可见线$普通线
100
AcDbVertex
100
AcDb2dVertex
 10
366.1663012314306
 20
622.5411231009348
 30
0.0
  0
VERTEX
  5
224
330
1C7
100
AcDbEntity
  8
Make2D$可见线$普通线
100
AcDbVertex
100
AcDb2dVertex
 10
366.0297117326512
 20
624.3261908125073
 30
0.0
  0
VERTEX
  5
225
330
1C7
100
AcDbEntity
  8
Make2D$可见线$普通线
100
AcDbVertex
100
AcDb2dVertex
 10
365.871875717307
 20
626.1096292725445
 30
0.0
  0
VERTEX
  5
226
330
1C7
100
AcDbEntity
  8
Make2D$可见线$普通线
100
AcDbVertex
100
AcDb2dVertex
 10
365.692742902227
 20
627.8911940686944
 30
0.0
  0
VERTEX
  5
227
330
1C7
100
AcDbEntity
  8
Make2D$可见线$普通线
100
AcDbVertex
100
AcDb2dVertex
 10
365.4922630042396
 20
629.6706407886052
 30
0.0
  0
VERTEX
  5
228
330
1C7
100
AcDbEntity
  8
Make2D$可见线$普通线
100
AcDbVertex
100
AcDb2dVertex
 10
365.2703857401738
 20
631.447725019925
 30
0.0
  0
VERTEX
  5
229
330
1C7
100
AcDbEntity
  8
Make2D$可见线$普通线
100
AcDbVertex
100
AcDb2dVertex
 10
365.0270608268579
 20
633.2222023503017
 30
0.0
  0
VERTEX
  5
22A
330
1C7
100
AcDbEntity
  8
Make2D$可见线$普通线
100
AcDbVertex
100
AcDb2dVertex
 10
364.7622379811209
 20
634.9938283673835
 30
0.0
  0
VERTEX
  5
22B
330
1C7
100
AcDbEntity
  8
Make2D$可见线$普通线
100
AcDbVertex
100
AcDb2dVertex
 10
364.4758669197914
 20
636.7623586588182
 30
0.0
  0
VERTEX
  5
22C
330
1C7
100
AcDbEntity
  8
Make2D$可见线$普通线
100
AcDbVertex
100
AcDb2dVertex
 10
364.1678973596981
 20
638.5275488122543
 30
0.0
  0
VERTEX
  5
22D
330
1C7
100
AcDbEntity
  8
Make2D$可见线$普通线
100
AcDbVertex
100
AcDb2dVertex
 10
363.8382790176698
 20
640.2891544153397
 30
0.0
  0
VERTEX
  5
22E
330
1C7
100
AcDbEntity
  8
Make2D$可见线$普通线
100
AcDbVertex
100
AcDb2dVertex
 10
363.5693457092355
 20
641.6446036303294
 30
0.0
  0
VERTEX
  5
22F
330
1C7
100
AcDbEntity
  8
Make2D$可见线$普通线
100
AcDbVertex
100
AcDb2dVertex
 10
363.2874097404579
 20
642.9976108943456
 30
0.0
  0
VERTEX
  5
230
330
1C7
100
AcDbEntity
  8
Make2D$可见线$普通线
100
AcDbVertex
100
AcDb2dVertex
 10
362.9923646313803
 20
644.3480098841189
 30
0.0
  0
VERTEX
  5
231
330
1C7
100
AcDbEntity
  8
Make2D$可见线$普通线
100
AcDbVertex
100
AcDb2dVertex
 10
362.6841039020459
 20
645.6956342763795
 30
0.0
  0
VERTEX
  5
232
330
1C7
100
AcDbEntity
  8
Make2D$可见线$普通线
100
AcDbVertex
100
AcDb2dVertex
 10
362.362521072498
 20
647.0403177478579
 30
0.0
  0
VERTEX
  5
233
330
1C7
100
AcDbEntity
  8
Make2D$可见线$普通线
100
AcDbVertex
100
AcDb2dVertex
 10
362.02750966278
 20
648.3818939752846
 30
0.0
  0
VERTEX
  5
234
330
1C7
100
AcDbEntity
  8
Make2D$可见线$普通线
100
AcDbVertex
100
AcDb2dVertex
 10
361.6789631929352
 20
649.7201966353899
 30
0.0
  0
VERTEX
  5
235
330
1C7
100
AcDbEntity
  8
Make2D$可见线$普通线
100
AcDbVertex
100
AcDb2dVertex
 10
361.3167751830067
 20
651.0550594049046
 30
0.0
  0
VERTEX
  5
236
330
1C7
100
AcDbEntity
  8
Make2D$可见线$普通线
100
AcDbVertex
100
AcDb2dVertex
 10
361.3039412018627
 20
651.1013870310198
 30
0.0
 42
0.0326426539997509
  0
VERTEX
  5
237
330
1C7
100
AcDbEntity
  8
Make2D$可见线$普通线
100
AcDbVertex
100
AcDb2dVertex
 10
355.867723627339
 20
666.744551495912
 30
0.0
  0
VERTEX
  5
238
330
1C7
100
AcDbEntity
  8
Make2D$可见线$普通线
100
AcDbVertex
100
AcDb2dVertex
 10
355.6165689748599
 20
667.3326613902557
 30
0.0
 42
0.0056336580069187
  0
VERTEX
  5
239
330
1C7
100
AcDbEntity
  8
Make2D$可见线$普通线
100
AcDbVertex
100
AcDb2dVertex
 10
354.5330406573241
 20
669.7753492963423
 30
0.0
  0
VERTEX
  5
23A
330
1C7
100
AcDbEntity
  8
Make2D$可见线$普通线
100
AcDbVertex
100
AcDb2dVertex
 10
354.1293890769336
 20
670.6486643547728
 30
0.0
  0
VERTEX
  5
23B
330
1C7
100
AcDbEntity
  8
Make2D$可见线$普通线
100
AcDbVertex
100
AcDb2dVertex
 10
353.9170597194585
 20
671.100531419652
 30
0.0
  0
VERTEX
  5
23C
330
1C7
100
AcDbEntity
  8
Make2D$可见线$普通线
100
AcDbVertex
100
AcDb2dVertex
 10
353.6135866584409
 20
671.7376489006118
 30
0.0
  0
VERTEX
  5
23D
330
1C7
100
AcDbEntity
  8
Make2D$可见线$普通线
100
AcDbVertex
100
AcDb2dVertex
 10
353.2839495038161
 20
672.4183973425719
 30
0.0
  0
VERTEX
  5
23E
330
1C7
100
AcDbEntity
  8
Make2D$可见线$普通线
100
AcDbVertex
100
AcDb2dVertex
 10
353.087850537411
 20
672.8179380752218
 30
0.0
 42
0.0090012001668697
  0
VERTEX
  5
23F
330
1C7
100
AcDbEntity
  8
Make2D$可见线$普通线
100
AcDbVertex
100
AcDb2dVertex
 10
351.2800191809178
 20
676.3236844231042
 30
0.0
  0
VERTEX
  5
240
330
1C7
100
AcDbEntity
  8
Make2D$可见线$普通线
100
AcDbVertex
100
AcDb2dVertex
 10
350.8871715161351
 20
677.0460298829441
 30
0.0
  0
VERTEX
  5
241
330
1C7
100
AcDbEntity
  8
Make2D$可见线$普通线
100
AcDbVertex
100
AcDb2dVertex
 10
350.5765648797437
 20
677.6078779383968
 30
0.0
  0
VERTEX
  5
242
330
1C7
100
AcDbEntity
  8
Make2D$可见线$普通线
100
AcDbVertex
100
AcDb2dVertex
 10
350.3130446974055
 20
678.0782960384754
 30
0.0
 42
0.0371281135803438
  0
VERTEX
  5
243
330
1C7
100
AcDbEntity
  8
Make2D$可见线$普通线
100
AcDbVertex
100
AcDb2dVertex
 10
342.4288579458944
 20
689.9700683702345
 30
0.0
  0
VERTEX
  5
244
330
1C7
100
AcDbEntity
  8
Make2D$可见线$普通线
100
AcDbVertex
100
AcDb2dVertex
 10
342.0520400282965
 20
690.450419910437
 30
0.0
 42
0.058788450837969
  0
VERTEX
  5
245
330
1C7
100
AcDbEntity
  8
Make2D$可见线$普通线
100
AcDbVertex
100
AcDb2dVertex
 10
329.4380941151864
 20
703.1696148338478
 30
0.0
  0
VERTEX
  5
246
330
1C7
100
AcDbEntity
  8
Make2D$可见线$普通线
100
AcDbVertex
100
AcDb2dVertex
 10
328.6931791851272
 20
703.7476895036099
 30
0.0
 42
0.0075183038736267
  0
VERTEX
  5
247
330
1C7
100
AcDbEntity
  8
Make2D$可见线$普通线
100
AcDbVertex
100
AcDb2dVertex
 10
327.1146792862207
 20
704.9178524225556
 30
0.0
  0
VERTEX
  5
248
330
1C7
100
AcDbEntity
  8
Make2D$可见线$普通线
100
AcDbVertex
100
AcDb2dVertex
 10
326.3205834504951
 20
705.4790459024315
 30
0.0
  0
VERTEX
  5
249
330
1C7
100
AcDbEntity
  8
Make2D$可见线$普通线
100
AcDbVertex
100
AcDb2dVertex
 10
325.9503809910919
 20
705.7345099661427
 30
0.0
  0
VERTEX
  5
24A
330
1C7
100
AcDbEntity
  8
Make2D$可见线$普通线
100
AcDbVertex
100
AcDb2dVertex
 10
325.5235326731261
 20
706.0242548484507
 30
0.0
  0
VERTEX
  5
24B
330
1C7
100
AcDbEntity
  8
Make2D$可见线$普通线
100
AcDbVertex
100
AcDb2dVertex
 10
324.723733176931
 20
706.5534434618726
 30
0.0
  0
VERTEX
  5
24C
330
1C7
100
AcDbEntity
  8
Make2D$可见线$普通线
100
AcDbVertex
100
AcDb2dVertex
 10
323.9213910117862
 20
707.0665829518343
 30
0.0
  0
VERTEX
  5
24D
330
1C7
100
AcDbEntity
  8
Make2D$可见线$普通线
100
AcDbVertex
100
AcDb2dVertex
 10
323.5280533435753
 20
707.3117381402678
 30
0.0
  0
VERTEX
  5
24E
330
1C7
100
AcDbEntity
  8
Make2D$可见线$普通线
100
AcDbVertex
100
AcDb2dVertex
 10
323.1167119445873
 20
707.563651823275
 30
0.0
 42
0.0662211329479405
  0
VERTEX
  5
24F
330
1C7
100
AcDbEntity
  8
Make2D$可见线$普通线
100
AcDbVertex
100
AcDb2dVertex
 10
309.9950145596142
 20
713.3765281856249
 30
0.0
  0
VERTEX
  5
250
330
1C7
100
AcDbEntity
  8
Make2D$可见线$普通线
100
AcDbVertex
100
AcDb2dVertex
 10
309.2788335199148
 20
713.5784374124621
 30
0.0
 42
0.0085561888670788
  0
VERTEX
  5
251
330
1C7
100
AcDbEntity
  8
Make2D$可见线$普通线
100
AcDbVertex
100
AcDb2dVertex
 10
307.6006155989073
 20
714.0077679013389
 30
0.0
  0
VERTEX
  5
252
330
1C7
100
AcDbEntity
  8
Make2D$可见线$普通线
100
AcDbVertex
100
AcDb2dVertex
 10
306.8480352155329
 20
714.1804745716549
 30
0.0
 42
0.0555271124184306
  0
VERTEX
  5
253
330
1C7
100
AcDbEntity
  8
Make2D$可见线$普通线
100
AcDbVertex
100
AcDb2dVertex
 10
296.5427413284871
 20
715.3101901042796
 30
0.0
  0
SEQEND
  5
254
330
1C7
100
AcDbEntity
  8
Make2D$可见线$普通线
  0
ARC
  5
255
330
1F
100
AcDbEntity
  8
Make2D$可见线$普通线
100
AcDbCircle
 10
296.5336220713823
 20
648.7425924469172
 30
0.0
 40
14.22400324823264
100
AcDbArc
 50
270.0367333282393
 51
89.96326667176064
  0
ARC
  5
256
330
1F
100
AcDbEntity
  8
Make2D$可见线$普通线
100
AcDbCircle
 10
296.5336220713821
 20
648.7425924469171
 30
0.0
 40
13.46374855692944
100
AcDbArc
 50
270.0388075417592
 51
89.9611924582406
  0
SPLINE
  5
257
330
1F
100
AcDbEntity
  8
Make2D$可见线$普通线
100
AcDbSpline
210
0.0
220
0.0
230
1.0
 70
     8
 71
     3
 72
    24
 73
    20
 74
     0
 42
0.000000001
 43
0.0000000001
 12
1.0
 22
0.0
 32
0.0
 13
1.0
 23
0.0
 33
0.0
 40
398.5106717943364
 40
398.5106717943364
 40
398.5106717943364
 40
398.5106717943364
 40
411.53607113608
 40
418.2210023897718
 40
425.3772064202129
 40
440.0223898717161
 40
456.7823325138697
 40
474.4208886698241
 40
492.4621916604951
 40
511.7102677052205
 40
531.3671864910488
 40
531.3671864910488
 40
531.3671864910488
 40
559.443708342119
 40
588.3034171415432
 40
611.058050072385
 40
623.5771242599071
 40
645.5909750528106
 40
664.1937370720666
 40
664.1937370720666
 40
664.1937370720666
 40
664.1937370720666
 10
296.5427413284871
 20
511.2940886956317
 30
0.0
 10
300.8866753959798
 20
511.2837415995061
 30
0.0
 10
307.4466093240899
 20
512.2863329398432
 30
0.0
 10
315.858347782228
 20
515.4112984155191
 30
0.0
 10
324.2502220153569
 20
519.9075878746521
 30
0.0
 10
334.3084386792261
 20
528.0445166226447
 30
0.0
 10
344.5837688961554
 20
540.8653094323938
 30
0.0
 10
352.8857934391351
 20
556.3168933963519
 30
0.0
 10
358.9723976218686
 20
573.6354936903449
 30
0.0
 10
362.7197474839684
 20
592.2890723048457
 30
0.0
 10
363.5652340977105
 20
605.2577768584565
 30
0.0
 10
363.565845941728
 20
611.8101896407848
 30
0.0
 10
363.5672187775295
 20
621.1702089473788
 30
0.0
 10
361.7968556765443
 20
640.155702767892
 30
0.0
 10
354.1064335578665
 20
665.7426279014455
 30
0.0
 10
343.5086148339067
 20
684.4916722288465
 30
0.0
 10
330.9604835289549
 20
698.9440668556132
 30
0.0
 10
316.25688578893
 20
709.3552932911471
 30
0.0
 10
302.7458149556477
 20
712.3494783444937
 30
0.0
 10
296.5427413284874
 20
712.3262909439712
 30
0.0
  0
LINE
  5
258
330
1F
100
AcDbEntity
  8
Make2D$可见线$普通线
100
AcDbLine
 10
305.3482363627349
 20
571.9725458482864
 30
0.0
 11
305.3514046365246
 21
572.1109407667843
 31
0.0
  0
LINE
  5
259
330
1F
100
AcDbEntity
  8
Make2D$可见线$普通线
100
AcDbLine
 10
286.1513650538557
 20
625.7737385689385
 30
0.0
 11
286.1208449658926
 21
625.8419580244321
 31
0.0
  0
LINE
  5
25A
330
1F
100
AcDbEntity
  8
Make2D$可见线$普通线
100
AcDbLine
 10
287.7190077800299
 20
571.9725458482864
 30
0.0
 11
287.7158395062402
 21
572.1109407667843
 31
0.0
  0
SPLINE
  5
25B
330
1F
100
AcDbEntity
  8
Make2D$可见线$普通线
100
AcDbSpline
210
0.0
220
0.0
230
1.0
 70
     8
 71
     3
 72
    24
 73
    20
 74
     0
 42
0.000000001
 43
0.0000000001
 12
1.0
 22
0.0
 32
0.0
 13
1.0
 23
0.0
 33
0.0
 40
398.5106717943364
 40
398.5106717943364
 40
398.5106717943364
 40
398.5106717943364
 40
411.53607113608
 40
418.2210023897718
 40
425.3772064202129
 40
440.0223898717161
 40
456.7823325138697
 40
474.4208886698241
 40
492.4621916604951
 40
511.7102677052205
 40
531.3671864910488
 40
531.3671864910488
 40
531.3671864910488
 40
559.443708342119
 40
588.3034171415432
 40
611.058050072385
 40
623.5771242599071
 40
645.5909750528106
 40
664.1937370720666
 40
664.1937370720666
 40
664.1937370720666
 40
664.1937370720666
 10
296.5245028142776
 20
511.2940886956317
 30
0.0
 10
292.180568746785
 20
511.2837415995061
 30
0.0
 10
285.6206348186748
 20
512.2863329398432
 30
0.0
 10
277.2088963605367
 20
515.4112984155191
 30
0.0
 10
268.8170221274078
 20
519.9075878746521
 30
0.0
 10
258.7588054635386
 20
528.0445166226447
 30
0.0
 10
248.4834752466093
 20
540.8653094323938
 30
0.0
 10
240.1814507036297
 20
556.3168933963519
 30
0.0
 10
234.0948465208961
 20
573.6354936903449
 30
0.0
 10
230.3474966587964
 20
592.2890723048457
 30
0.0
 10
229.5020100450542
 20
605.2577768584565
 30
0.0
 10
229.5013982010368
 20
611.8101896407848
 30
0.0
 10
229.5000253652352
 20
621.1702089473788
 30
0.0
 10
231.2703884662205
 20
640.155702767892
 30
0.0
 10
238.9608105848982
 20
665.7426279014455
 30
0.0
 10
249.5586293088581
 20
684.4916722288465
 30
0.0
 10
262.1067606138099
 20
698.9440668556132
 30
0.0
 10
276.8103583538347
 20
709.3552932911471
 30
0.0
 10
290.321429187117
 20
712.3494783444937
 30
0.0
 10
296.5245028142774
 20
712.3262909439712
 30
0.0
  0
ARC
  5
25C
330
1F
100
AcDbEntity
  8
Make2D$可见线$普通线
100
AcDbCircle
 10
296.5336220713825
 20
648.742592446917
 30
0.0
 40
13.46374855692932
100
AcDbArc
 50
90.03880754175917
 51
269.9611924582413
  0
ARC
  5
25D
330
1F
100
AcDbEntity
  8
Make2D$可见线$普通线
100
AcDbCircle
 10
296.5336220713825
 20
648.7425924469172
 30
0.0
 40
14.22400324823264
100
AcDbArc
 50
90.03673332823959
 51
269.9632666717607
  0
POLYLINE
  5
25E
330
1F
100
AcDbEntity
  8
Make2D$可见线$普通线
100
AcDb2dPolyline
 66
     1
 10
0.0
 20
0.0
 30
0.0
  0
VERTEX
  5
25F
330
25E
100
AcDbEntity
  8
Make2D$可见线$普通线
100
AcDbVertex
100
AcDb2dVertex
 10
296.5245028142775
 20
508.310189514016
 30
0.0
 42
-0.0549170920644594
  0
VERTEX
  5
260
330
25E
100
AcDbEntity
  8
Make2D$可见线$普通线
100
AcDbVertex
100
AcDb2dVertex
 10
286.2193362809864
 20
509.4404885279606
 30
0.0
  0
VERTEX
  5
261
330
25E
100
AcDbEntity
  8
Make2D$可见线$普通线
100
AcDbVertex
100
AcDb2dVertex
 10
285.466924871891
 20
509.6125677955721
 30
0.0
 42
-0.0085774275082856
  0
VERTEX
  5
262
330
25E
100
AcDbEntity
  8
Make2D$可见线$普通线
100
AcDbVertex
100
AcDb2dVertex
 10
283.7880932361462
 20
510.0407908692315
 30
0.0
  0
VERTEX
  5
263
330
25E
100
AcDbEntity
  8
Make2D$可见线$普通线
100
AcDbVertex
100
AcDb2dVertex
 10
283.0744151580326
 20
510.2414890481389
 30
0.0
 42
-0.066559242430255
  0
VERTEX
  5
264
330
25E
100
AcDbEntity
  8
Make2D$可见线$普通线
100
AcDbVertex
100
AcDb2dVertex
 10
269.9511288190634
 20
516.0577106518922
 30
0.0
  0
VERTEX
  5
265
330
25E
100
AcDbEntity
  8
Make2D$可见线$普通线
100
AcDbVertex
100
AcDb2dVertex
 10
269.5350674004181
 20
516.3127401693481
 30
0.0
  0
VERTEX
  5
266
330
25E
100
AcDbEntity
  8
Make2D$可见线$普通线
100
AcDbVertex
100
AcDb2dVertex
 10
269.1466288377886
 20
516.5550303250255
 30
0.0
  0
VERTEX
  5
267
330
25E
100
AcDbEntity
  8
Make2D$可见线$普通线
100
AcDbVertex
100
AcDb2dVertex
 10
268.3444272827377
 20
517.0683441617374
 30
0.0
  0
VERTEX
  5
268
330
25E
100
AcDbEntity
  8
Make2D$可见线$普通线
100
AcDbVertex
100
AcDb2dVertex
 10
267.5447234379419
 20
517.5976283571022
 30
0.0
  0
VERTEX
  5
269
330
25E
100
AcDbEntity
  8
Make2D$可见线$普通线
100
AcDbVertex
100
AcDb2dVertex
 10
267.1113637299344
 20
517.8918736017631
 30
0.0
  0
VERTEX
  5
26A
330
25E
100
AcDbEntity
  8
Make2D$可见线$普通线
100
AcDbVertex
100
AcDb2dVertex
 10
266.747719038822
 20
518.1428553801377
 30
0.0
  0
VERTEX
  5
26B
330
25E
100
AcDbEntity
  8
Make2D$可见线$普通线
100
AcDbVertex
100
AcDb2dVertex
 10
265.9536236957192
 20
518.70400144128
 30
0.0
 42
-0.0074994992518445
  0
VERTEX
  5
26C
330
25E
100
AcDbEntity
  8
Make2D$可见线$普通线
100
AcDbVertex
100
AcDb2dVertex
 10
264.3750281640052
 20
519.8739496643276
 30
0.0
  0
VERTEX
  5
26D
330
25E
100
AcDbEntity
  8
Make2D$可见线$普通线
100
AcDbVertex
100
AcDb2dVertex
 10
263.6258784443354
 20
520.455171045815
 30
0.0
 42
-0.0074985775246673
  0
VERTEX
  5
26E
330
25E
100
AcDbEntity
  8
Make2D$可见线$普通线
100
AcDbVertex
100
AcDb2dVertex
 10
262.0343701214766
 20
521.7473819906245
 30
0.0
  0
VERTEX
  5
26F
330
25E
100
AcDbEntity
  8
Make2D$可见线$普通线
100
AcDbVertex
100
AcDb2dVertex
 10
261.4028650332936
 20
522.2823668841374
 30
0.0
  0
VERTEX
  5
270
330
25E
100
AcDbEntity
  8
Make2D$可见线$普通线
100
AcDbVertex
100
AcDb2dVertex
 10
260.5900266966878
 20
522.9901064996064
 30
0.0
  0
VERTEX
  5
271
330
25E
100
AcDbEntity
  8
Make2D$可见线$普通线
100
AcDbVertex
100
AcDb2dVertex
 10
259.7885392831739
 20
523.7095232436424
 30
0.0
  0
VERTEX
  5
272
330
25E
100
AcDbEntity
  8
Make2D$可见线$普通线
100
AcDbVertex
100
AcDb2dVertex
 10
258.998409594895
 20
524.4402194988475
 30
0.0
  0
VERTEX
  5
273
330
25E
100
AcDbEntity
  8
Make2D$可见线$普通线
100
AcDbVertex
100
AcDb2dVertex
 10
258.2196444339943
 20
525.181797647824
 30
0.0
  0
VERTEX
  5
274
330
25E
100
AcDbEntity
  8
Make2D$可见线$普通线
100
AcDbVertex
100
AcDb2dVertex
 10
257.4002910175396
 20
525.9855702444802
 30
0.0
  0
VERTEX
  5
275
330
25E
100
AcDbEntity
  8
Make2D$可见线$普通线
100
AcDbVertex
100
AcDb2dVertex
 10
256.593821407028
 20
526.8009821946762
 30
0.0
  0
VERTEX
  5
276
330
25E
100
AcDbEntity
  8
Make2D$可见线$普通线
100
AcDbVertex
100
AcDb2dVertex
 10
255.8001434693476
 20
527.6277091382099
 30
0.0
  0
VERTEX
  5
277
330
25E
100
AcDbEntity
  8
Make2D$可见线$普通线
100
AcDbVertex
100
AcDb2dVertex
 10
255.0191650713864
 20
528.4654267148788
 30
0.0
  0
VERTEX
  5
278
330
25E
100
AcDbEntity
  8
Make2D$可见线$普通线
100
AcDbVertex
100
AcDb2dVertex
 10
254.2507940800324
 20
529.313810564481
 30
0.0
  0
VERTEX
  5
279
330
25E
100
AcDbEntity
  8
Make2D$可见线$普通线
100
AcDbVertex
100
AcDb2dVertex
 10
253.4949383621736
 20
530.1725363268142
 30
0.0
  0
VERTEX
  5
27A
330
25E
100
AcDbEntity
  8
Make2D$可见线$普通线
100
AcDbVertex
100
AcDb2dVertex
 10
252.7515057846979
 20
531.041279641676
 30
0.0
  0
VERTEX
  5
27B
330
25E
100
AcDbEntity
  8
Make2D$可见线$普通线
100
AcDbVertex
100
AcDb2dVertex
 10
252.0204042144935
 20
531.9197161488644
 30
0.0
  0
VERTEX
  5
27C
330
25E
100
AcDbEntity
  8
Make2D$可见线$普通线
100
AcDbVertex
100
AcDb2dVertex
 10
251.3015415184481
 20
532.8075214881769
 30
0.0
  0
VERTEX
  5
27D
330
25E
100
AcDbEntity
  8
Make2D$可见线$普通线
100
AcDbVertex
100
AcDb2dVertex
 10
250.59482556345
 20
533.7043712994114
 30
0.0
  0
VERTEX
  5
27E
330
25E
100
AcDbEntity
  8
Make2D$可见线$普通线
100
AcDbVertex
100
AcDb2dVertex
 10
249.900164216387
 20
534.6099412223657
 30
0.0
  0
VERTEX
  5
27F
330
25E
100
AcDbEntity
  8
Make2D$可见线$普通线
100
AcDbVertex
100
AcDb2dVertex
 10
249.2174653441471
 20
535.5239068968376
 30
0.0
  0
VERTEX
  5
280
330
25E
100
AcDbEntity
  8
Make2D$可见线$普通线
100
AcDbVertex
100
AcDb2dVertex
 10
248.5466368136184
 20
536.4459439626248
 30
0.0
  0
VERTEX
  5
281
330
25E
100
AcDbEntity
  8
Make2D$可见线$普通线
100
AcDbVertex
100
AcDb2dVertex
 10
247.8875864916888
 20
537.375728059525
 30
0.0
  0
VERTEX
  5
282
330
25E
100
AcDbEntity
  8
Make2D$可见线$普通线
100
AcDbVertex
100
AcDb2dVertex
 10
247.2402222452463
 20
538.3129348273362
 30
0.0
  0
VERTEX
  5
283
330
25E
100
AcDbEntity
  8
Make2D$可见线$普通线
100
AcDbVertex
100
AcDb2dVertex
 10
246.6044519411789
 20
539.2572399058558
 30
0.0
  0
VERTEX
  5
284
330
25E
100
AcDbEntity
  8
Make2D$可见线$普通线
100
AcDbVertex
100
AcDb2dVertex
 10
246.0165091532797
 20
540.1523357047898
 30
0.0
  0
VERTEX
  5
285
330
25E
100
AcDbEntity
  8
Make2D$可见线$普通线
100
AcDbVertex
100
AcDb2dVertex
 10
245.4386827076816
 20
541.0532934762855
 30
0.0
  0
VERTEX
  5
286
330
25E
100
AcDbEntity
  8
Make2D$可见线$普通线
100
AcDbVertex
100
AcDb2dVertex
 10
244.8708977110303
 20
541.9599731001593
 30
0.0
  0
VERTEX
  5
287
330
25E
100
AcDbEntity
  8
Make2D$可见线$普通线
100
AcDbVertex
100
AcDb2dVertex
 10
244.3130792699717
 20
542.8722344562284
 30
0.0
  0
VERTEX
  5
288
330
25E
100
AcDbEntity
  8
Make2D$可见线$普通线
100
AcDbVertex
100
AcDb2dVertex
 10
243.7651524911515
 20
543.7899374243095
 30
0.0
  0
VERTEX
  5
289
330
25E
100
AcDbEntity
  8
Make2D$可见线$普通线
100
AcDbVertex
100
AcDb2dVertex
 10
243.2270424812154
 20
544.7129418842194
 30
0.0
  0
VERTEX
  5
28A
330
25E
100
AcDbEntity
  8
Make2D$可见线$普通线
100
AcDbVertex
100
AcDb2dVertex
 10
242.6986743468091
 20
545.641107715775
 30
0.0
  0
VERTEX
  5
28B
330
25E
100
AcDbEntity
  8
Make2D$可见线$普通线
100
AcDbVertex
100
AcDb2dVertex
 10
242.1799731945785
 20
546.5742947987932
 30
0.0
  0
VERTEX
  5
28C
330
25E
100
AcDbEntity
  8
Make2D$可见线$普通线
100
AcDbVertex
100
AcDb2dVertex
 10
241.9248152504203
 20
547.0416387172684
 30
0.0
  0
VERTEX
  5
28D
330
25E
100
AcDbEntity
  8
Make2D$可见线$普通线
100
AcDbVertex
100
AcDb2dVertex
 10
241.6150370003581
 20
547.6166044140641
 30
0.0
  0
VERTEX
  5
28E
330
25E
100
AcDbEntity
  8
Make2D$可见线$普通线
100
AcDbVertex
100
AcDb2dVertex
 10
241.3893291857109
 20
548.040887038429
 30
0.0
  0
VERTEX
  5
28F
330
25E
100
AcDbEntity
  8
Make2D$可见线$普通线
100
AcDbVertex
100
AcDb2dVertex
 10
241.0597034784526
 20
548.6688354112167
 30
0.0
  0
VERTEX
  5
290
330
25E
100
AcDbEntity
  8
Make2D$可见线$普通线
100
AcDbVertex
100
AcDb2dVertex
 10
240.864536757404
 20
549.0453973244112
 30
0.0
  0
VERTEX
  5
291
330
25E
100
AcDbEntity
  8
Make2D$可见线$普通线
100
AcDbVertex
100
AcDb2dVertex
 10
240.0972018639752
 20
550.5616622320655
 30
0.0
  0
VERTEX
  5
292
330
25E
100
AcDbEntity
  8
Make2D$可见线$普通线
100
AcDbVertex
100
AcDb2dVertex
 10
239.3534226049052
 20
552.0888215291916
 30
0.0
  0
VERTEX
  5
293
330
25E
100
AcDbEntity
  8
Make2D$可见线$普通线
100
AcDbVertex
100
AcDb2dVertex
 10
238.632895921814
 20
553.626308214936
 30
0.0
  0
VERTEX
  5
294
330
25E
100
AcDbEntity
  8
Make2D$可见线$普通线
100
AcDbVertex
100
AcDb2dVertex
 10
237.9353187563211
 20
555.1735552884456
 30
0.0
  0
VERTEX
  5
295
330
25E
100
AcDbEntity
  8
Make2D$可见线$普通线
100
AcDbVertex
100
AcDb2dVertex
 10
237.2001782874913
 20
556.8719299474801
 30
0.0
  0
VERTEX
  5
296
330
25E
100
AcDbEntity
  8
Make2D$可见线$普通线
100
AcDbVertex
100
AcDb2dVertex
 10
236.4917147397969
 20
558.5807418358238
 30
0.0
  0
VERTEX
  5
297
330
25E
100
AcDbEntity
  8
Make2D$可见线$普通线
100
AcDbVertex
100
AcDb2dVertex
 10
235.8096549987234
 20
560.2994877482297
 30
0.0
  0
VERTEX
  5
298
330
25E
100
AcDbEntity
  8
Make2D$可见线$普通线
100
AcDbVertex
100
AcDb2dVertex
 10
235.1537259497567
 20
562.0276644794499
 30
0.0
  0
VERTEX
  5
299
330
25E
100
AcDbEntity
  8
Make2D$可见线$普通线
100
AcDbVertex
100
AcDb2dVertex
 10
234.5236544783822
 20
563.764768824237
 30
0.0
  0
VERTEX
  5
29A
330
25E
100
AcDbEntity
  8
Make2D$可见线$普通线
100
AcDbVertex
100
AcDb2dVertex
 10
233.9191674700855
 20
565.5102975773433
 30
0.0
  0
VERTEX
  5
29B
330
25E
100
AcDbEntity
  8
Make2D$可见线$普通线
100
AcDbVertex
100
AcDb2dVertex
 10
233.3399918103523
 20
567.2637475335215
 30
0.0
  0
VERTEX
  5
29C
330
25E
100
AcDbEntity
  8
Make2D$可见线$普通线
100
AcDbVertex
100
AcDb2dVertex
 10
232.7858543846682
 20
569.0246154875242
 30
0.0
  0
VERTEX
  5
29D
330
25E
100
AcDbEntity
  8
Make2D$可见线$普通线
100
AcDbVertex
100
AcDb2dVertex
 10
232.25649345588
 20
570.7924239445805
 30
0.0
  0
VERTEX
  5
29E
330
25E
100
AcDbEntity
  8
Make2D$可见线$普通线
100
AcDbVertex
100
AcDb2dVertex
 10
231.7516927962793
 20
572.5667982518266
 30
0.0
  0
VERTEX
  5
29F
330
25E
100
AcDbEntity
  8
Make2D$可见线$普通线
100
AcDbVertex
100
AcDb2dVertex
 10
231.2712475555189
 20
574.3473894668762
 30
0.0
  0
VERTEX
  5
2A0
330
25E
100
AcDbEntity
  8
Make2D$可见线$普通线
100
AcDbVertex
100
AcDb2dVertex
 10
230.8149528832516
 20
576.1338486473419
 30
0.0
  0
VERTEX
  5
2A1
330
25E
100
AcDbEntity
  8
Make2D$可见线$普通线
100
AcDbVertex
100
AcDb2dVertex
 10
230.3826039291302
 20
577.9258268508372
 30
0.0
  0
VERTEX
  5
2A2
330
25E
100
AcDbEntity
  8
Make2D$可见线$普通线
100
AcDbVertex
100
AcDb2dVertex
 10
229.9739958428075
 20
579.7229751349751
 30
0.0
  0
VERTEX
  5
2A3
330
25E
100
AcDbEntity
  8
Make2D$可见线$普通线
100
AcDbVertex
100
AcDb2dVertex
 10
229.5889237739364
 20
581.5249445573688
 30
0.0
  0
VERTEX
  5
2A4
330
25E
100
AcDbEntity
  8
Make2D$可见线$普通线
100
AcDbVertex
100
AcDb2dVertex
 10
229.2271828721695
 20
583.3313861756318
 30
0.0
  0
VERTEX
  5
2A5
330
25E
100
AcDbEntity
  8
Make2D$可见线$普通线
100
AcDbVertex
100
AcDb2dVertex
 10
228.8974722495214
 20
585.0927768039453
 30
0.0
  0
VERTEX
  5
2A6
330
25E
100
AcDbEntity
  8
Make2D$可见线$普通线
100
AcDbVertex
100
AcDb2dVertex
 10
228.5895709302468
 20
586.8578173637702
 30
0.0
  0
VERTEX
  5
2A7
330
25E
100
AcDbEntity
  8
Make2D$可见线$普通线
100
AcDbVertex
100
AcDb2dVertex
 10
228.3034000529069
 20
588.6262552865903
 30
0.0
  0
VERTEX
  5
2A8
330
25E
100
AcDbEntity
  8
Make2D$可见线$普通线
100
AcDbVertex
100
AcDb2dVertex
 10
228.0388807560631
 20
590.3978380038894
 30
0.0
  0
VERTEX
  5
2A9
330
25E
100
AcDbEntity
  8
Make2D$可见线$普通线
100
AcDbVertex
100
AcDb2dVertex
 10
227.7959341782766
 20
592.1723129471515
 30
0.0
  0
VERTEX
  5
2AA
330
25E
100
AcDbEntity
  8
Make2D$可见线$普通线
100
AcDbVertex
100
AcDb2dVertex
 10
227.5744814581086
 20
593.9494275478603
 30
0.0
  0
VERTEX
  5
2AB
330
25E
100
AcDbEntity
  8
Make2D$可见线$普通线
100
AcDbVertex
100
AcDb2dVertex
 10
227.3744437341203
 20
595.7289292374996
 30
0.0
  0
VERTEX
  5
2AC
330
25E
100
AcDbEntity
  8
Make2D$可见线$普通线
100
AcDbVertex
100
AcDb2dVertex
 10
227.1957421448731
 20
597.5105654475535
 30
0.0
  0
VERTEX
  5
2AD
330
25E
100
AcDbEntity
  8
Make2D$可见线$普通线
100
AcDbVertex
100
AcDb2dVertex
 10
227.0382978289281
 20
599.2940836095056
 30
0.0
  0
VERTEX
  5
2AE
330
25E
100
AcDbEntity
  8
Make2D$可见线$普通线
100
AcDbVertex
100
AcDb2dVertex
 10
226.9020319248467
 20
601.0792311548399
 30
0.0
  0
VERTEX
  5
2AF
330
25E
100
AcDbEntity
  8
Make2D$可见线$普通线
100
AcDbVertex
100
AcDb2dVertex
 10
226.78686557119
 20
602.8657555150402
 30
0.0
  0
VERTEX
  5
2B0
330
25E
100
AcDbEntity
  8
Make2D$可见线$普通线
100
AcDbVertex
100
AcDb2dVertex
 10
226.6927199065195
 20
604.6534041215903
 30
0.0
  0
VERTEX
  5
2B1
330
25E
100
AcDbEntity
  8
Make2D$可见线$普通线
100
AcDbVertex
100
AcDb2dVertex
 10
226.6195160693962
 20
606.4419244059741
 30
0.0
  0
VERTEX
  5
2B2
330
25E
100
AcDbEntity
  8
Make2D$可见线$普通线
100
AcDbVertex
100
AcDb2dVertex
 10
226.5671751983814
 20
608.2310637996752
 30
0.0
  0
VERTEX
  5
2B3
330
25E
100
AcDbEntity
  8
Make2D$可见线$普通线
100
AcDbVertex
100
AcDb2dVertex
 10
226.5356184320364
 20
610.0205697341779
 30
0.0
  0
VERTEX
  5
2B4
330
25E
100
AcDbEntity
  8
Make2D$可见线$普通线
100
AcDbVertex
100
AcDb2dVertex
 10
226.5247669089224
 20
611.8101896409656
 30
0.0
  0
VERTEX
  5
2B5
330
25E
100
AcDbEntity
  8
Make2D$可见线$普通线
100
AcDbVertex
100
AcDb2dVertex
 10
226.5349332549113
 20
613.5999002023597
 30
0.0
  0
VERTEX
  5
2B6
330
25E
100
AcDbEntity
  8
Make2D$可见线$普通线
100
AcDbVertex
100
AcDb2dVertex
 10
226.5660444184369
 20
615.38944798633
 30
0.0
  0
VERTEX
  5
2B7
330
25E
100
AcDbEntity
  8
Make2D$可见线$普通线
100
AcDbVertex
100
AcDb2dVertex
 10
226.6181506826708
 20
617.1785885805244
 30
0.0
  0
VERTEX
  5
2B8
330
25E
100
AcDbEntity
  8
Make2D$可见线$普通线
100
AcDbVertex
100
AcDb2dVertex
 10
226.691302330784
 20
618.9670775725914
 30
0.0
  0
VERTEX
  5
2B9
330
25E
100
AcDbEntity
  8
Make2D$可见线$普通线
100
AcDbVertex
100
AcDb2dVertex
 10
226.785549645948
 20
620.7546705501788
 30
0.0
  0
VERTEX
  5
2BA
330
25E
100
AcDbEntity
  8
Make2D$可见线$普通线
100
AcDbVertex
100
AcDb2dVertex
 10
226.9009429113341
 20
622.5411231009348
 30
0.0
  0
VERTEX
  5
2BB
330
25E
100
AcDbEntity
  8
Make2D$可见线$普通线
100
AcDbVertex
100
AcDb2dVertex
 10
227.0375324101136
 20
624.3261908125073
 30
0.0
  0
VERTEX
  5
2BC
330
25E
100
AcDbEntity
  8
Make2D$可见线$普通线
100
AcDbVertex
100
AcDb2dVertex
 10
227.1953684254576
 20
626.1096292725445
 30
0.0
  0
VERTEX
  5
2BD
330
25E
100
AcDbEntity
  8
Make2D$可见线$普通线
100
AcDbVertex
100
AcDb2dVertex
 10
227.3745012405377
 20
627.8911940686944
 30
0.0
  0
VERTEX
  5
2BE
330
25E
100
AcDbEntity
  8
Make2D$可见线$普通线
100
AcDbVertex
100
AcDb2dVertex
 10
227.5749811385251
 20
629.6706407886052
 30
0.0
  0
VERTEX
  5
2BF
330
25E
100
AcDbEntity
  8
Make2D$可见线$普通线
100
AcDbVertex
100
AcDb2dVertex
 10
227.796858402591
 20
631.447725019925
 30
0.0
  0
VERTEX
  5
2C0
330
25E
100
AcDbEntity
  8
Make2D$可见线$普通线
100
AcDbVertex
100
AcDb2dVertex
 10
228.0401833159068
 20
633.2222023503017
 30
0.0
  0
VERTEX
  5
2C1
330
25E
100
AcDbEntity
  8
Make2D$可见线$普通线
100
AcDbVertex
100
AcDb2dVertex
 10
228.3050061616438
 20
634.9938283673835
 30
0.0
  0
VERTEX
  5
2C2
330
25E
100
AcDbEntity
  8
Make2D$可见线$普通线
100
AcDbVertex
100
AcDb2dVertex
 10
228.5913772229733
 20
636.7623586588182
 30
0.0
  0
VERTEX
  5
2C3
330
25E
100
AcDbEntity
  8
Make2D$可见线$普通线
100
AcDbVertex
100
AcDb2dVertex
 10
228.8993467830665
 20
638.5275488122543
 30
0.0
  0
VERTEX
  5
2C4
330
25E
100
AcDbEntity
  8
Make2D$可见线$普通线
100
AcDbVertex
100
AcDb2dVertex
 10
229.2289651250949
 20
640.2891544153397
 30
0.0
  0
VERTEX
  5
2C5
330
25E
100
AcDbEntity
  8
Make2D$可见线$普通线
100
AcDbVertex
100
AcDb2dVertex
 10
229.4978984335291
 20
641.6446036303294
 30
0.0
  0
VERTEX
  5
2C6
330
25E
100
AcDbEntity
  8
Make2D$可见线$普通线
100
AcDbVertex
100
AcDb2dVertex
 10
229.7798344023067
 20
642.9976108943456
 30
0.0
  0
VERTEX
  5
2C7
330
25E
100
AcDbEntity
  8
Make2D$可见线$普通线
100
AcDbVertex
100
AcDb2dVertex
 10
230.0748795113843
 20
644.3480098841189
 30
0.0
  0
VERTEX
  5
2C8
330
25E
100
AcDbEntity
  8
Make2D$可见线$普通线
100
AcDbVertex
100
AcDb2dVertex
 10
230.3831402407187
 20
645.6956342763795
 30
0.0
  0
VERTEX
  5
2C9
330
25E
100
AcDbEntity
  8
Make2D$可见线$普通线
100
AcDbVertex
100
AcDb2dVertex
 10
230.7047230702667
 20
647.0403177478579
 30
0.0
  0
VERTEX
  5
2CA
330
25E
100
AcDbEntity
  8
Make2D$可见线$普通线
100
AcDbVertex
100
AcDb2dVertex
 10
231.0397344799847
 20
648.3818939752846
 30
0.0
  0
VERTEX
  5
2CB
330
25E
100
AcDbEntity
  8
Make2D$可见线$普通线
100
AcDbVertex
100
AcDb2dVertex
 10
231.3882809498296
 20
649.7201966353899
 30
0.0
  0
VERTEX
  5
2CC
330
25E
100
AcDbEntity
  8
Make2D$可见线$普通线
100
AcDbVertex
100
AcDb2dVertex
 10
231.7504689597581
 20
651.0550594049046
 30
0.0
  0
VERTEX
  5
2CD
330
25E
100
AcDbEntity
  8
Make2D$可见线$普通线
100
AcDbVertex
100
AcDb2dVertex
 10
231.763302940902
 20
651.1013870310198
 30
0.0
 42
-0.0326426539997508
  0
VERTEX
  5
2CE
330
25E
100
AcDbEntity
  8
Make2D$可见线$普通线
100
AcDbVertex
100
AcDb2dVertex
 10
237.1995205154257
 20
666.744551495912
 30
0.0
  0
VERTEX
  5
2CF
330
25E
100
AcDbEntity
  8
Make2D$可见线$普通线
100
AcDbVertex
100
AcDb2dVertex
 10
237.4506751679048
 20
667.3326613902557
 30
0.0
 42
-0.0056336580069993
  0
VERTEX
  5
2D0
330
25E
100
AcDbEntity
  8
Make2D$可见线$普通线
100
AcDbVertex
100
AcDb2dVertex
 10
238.5342034854405
 20
669.7753492963423
 30
0.0
  0
VERTEX
  5
2D1
330
25E
100
AcDbEntity
  8
Make2D$可见线$普通线
100
AcDbVertex
100
AcDb2dVertex
 10
238.9378550658311
 20
670.6486643547728
 30
0.0
  0
VERTEX
  5
2D2
330
25E
100
AcDbEntity
  8
Make2D$可见线$普通线
100
AcDbVertex
100
AcDb2dVertex
 10
239.1501844233062
 20
671.100531419652
 30
0.0
  0
VERTEX
  5
2D3
330
25E
100
AcDbEntity
  8
Make2D$可见线$普通线
100
AcDbVertex
100
AcDb2dVertex
 10
239.4536574843238
 20
671.7376489006118
 30
0.0
  0
VERTEX
  5
2D4
330
25E
100
AcDbEntity
  8
Make2D$可见线$普通线
100
AcDbVertex
100
AcDb2dVertex
 10
239.7832946389486
 20
672.4183973425719
 30
0.0
  0
VERTEX
  5
2D5
330
25E
100
AcDbEntity
  8
Make2D$可见线$普通线
100
AcDbVertex
100
AcDb2dVertex
 10
239.9793936053536
 20
672.8179380752218
 30
0.0
 42
-0.00900120016687
  0
VERTEX
  5
2D6
330
25E
100
AcDbEntity
  8
Make2D$可见线$普通线
100
AcDbVertex
100
AcDb2dVertex
 10
241.7872249618469
 20
676.3236844231042
 30
0.0
  0
VERTEX
  5
2D7
330
25E
100
AcDbEntity
  8
Make2D$可见线$普通线
100
AcDbVertex
100
AcDb2dVertex
 10
242.1800726266296
 20
677.0460298829441
 30
0.0
  0
VERTEX
  5
2D8
330
25E
100
AcDbEntity
  8
Make2D$可见线$普通线
100
AcDbVertex
100
AcDb2dVertex
 10
242.4906792630209
 20
677.6078779383968
 30
0.0
  0
VERTEX
  5
2D9
330
25E
100
AcDbEntity
  8
Make2D$可见线$普通线
100
AcDbVertex
100
AcDb2dVertex
 10
242.7541994453591
 20
678.0782960384754
 30
0.0
 42
-0.0371281135803361
  0
VERTEX
  5
2DA
330
25E
100
AcDbEntity
  8
Make2D$可见线$普通线
100
AcDbVertex
100
AcDb2dVertex
 10
250.6383861968703
 20
689.9700683702345
 30
0.0
  0
VERTEX
  5
2DB
330
25E
100
AcDbEntity
  8
Make2D$可见线$普通线
100
AcDbVertex
100
AcDb2dVertex
 10
251.0152041144684
 20
690.4504199104368
 30
0.0
 42
-0.058788450837992
  0
VERTEX
  5
2DC
330
25E
100
AcDbEntity
  8
Make2D$可见线$普通线
100
AcDbVertex
100
AcDb2dVertex
 10
263.6291500275783
 20
703.1696148338478
 30
0.0
  0
VERTEX
  5
2DD
330
25E
100
AcDbEntity
  8
Make2D$可见线$普通线
100
AcDbVertex
100
AcDb2dVertex
 10
264.3740649576374
 20
703.7476895036101
 30
0.0
 42
-0.0075183038736483
  0
VERTEX
  5
2DE
330
25E
100
AcDbEntity
  8
Make2D$可见线$普通线
100
AcDbVertex
100
AcDb2dVertex
 10
265.952564856544
 20
704.9178524225556
 30
0.0
  0
VERTEX
  5
2DF
330
25E
100
AcDbEntity
  8
Make2D$可见线$普通线
100
AcDbVertex
100
AcDb2dVertex
 10
266.7466606922696
 20
705.4790459024315
 30
0.0
  0
VERTEX
  5
2E0
330
25E
100
AcDbEntity
  8
Make2D$可见线$普通线
100
AcDbVertex
100
AcDb2dVertex
 10
267.1168631516728
 20
705.7345099661427
 30
0.0
  0
VERTEX
  5
2E1
330
25E
100
AcDbEntity
  8
Make2D$可见线$普通线
100
AcDbVertex
100
AcDb2dVertex
 10
267.5437114696387
 20
706.0242548484507
 30
0.0
  0
VERTEX
  5
2E2
330
25E
100
AcDbEntity
  8
Make2D$可见线$普通线
100
AcDbVertex
100
AcDb2dVertex
 10
268.3435109658337
 20
706.5534434618726
 30
0.0
  0
VERTEX
  5
2E3
330
25E
100
AcDbEntity
  8
Make2D$可见线$普通线
100
AcDbVertex
100
AcDb2dVertex
 10
269.1458531309785
 20
707.0665829518343
 30
0.0
  0
VERTEX
  5
2E4
330
25E
100
AcDbEntity
  8
Make2D$可见线$普通线
100
AcDbVertex
100
AcDb2dVertex
 10
269.5391907991894
 20
707.3117381402678
 30
0.0
  0
VERTEX
  5
2E5
330
25E
100
AcDbEntity
  8
Make2D$可见线$普通线
100
AcDbVertex
100
AcDb2dVertex
 10
269.9505321981774
 20
707.563651823275
 30
0.0
 42
-0.0662211329479405
  0
VERTEX
  5
2E6
330
25E
100
AcDbEntity
  8
Make2D$可见线$普通线
100
AcDbVertex
100
AcDb2dVertex
 10
283.0722295831505
 20
713.3765281856249
 30
0.0
  0
VERTEX
  5
2E7
330
25E
100
AcDbEntity
  8
Make2D$可见线$普通线
100
AcDbVertex
100
AcDb2dVertex
 10
283.7884106228499
 20
713.578437412462
 30
0.0
 42
-0.0085561888670787
  0
VERTEX
  5
2E8
330
25E
100
AcDbEntity
  8
Make2D$可见线$普通线
100
AcDbVertex
100
AcDb2dVertex
 10
285.4666285438574
 20
714.0077679013389
 30
0.0
  0
VERTEX
  5
2E9
330
25E
100
AcDbEntity
  8
Make2D$可见线$普通线
100
AcDbVertex
100
AcDb2dVertex
 10
286.2192089272318
 20
714.1804745716549
 30
0.0
 42
-0.0555271124184311
  0
VERTEX
  5
2EA
330
25E
100
AcDbEntity
  8
Make2D$可见线$普通线
100
AcDbVertex
100
AcDb2dVertex
 10
296.5245028142775
 20
715.3101901042796
 30
0.0
  0
SEQEND
  5
2EB
330
25E
100
AcDbEntity
  8
Make2D$可见线$普通线
  0
POLYLINE
  5
2EC
330
1F
100
AcDbEntity
  8
Make2D$可见线$普通线
100
AcDb2dPolyline
 66
     1
 10
0.0
 20
0.0
 30
0.0
  0
VERTEX
  5
2ED
330
2EC
100
AcDbEntity
  8
Make2D$可见线$普通线
100
AcDbVertex
100
AcDb2dVertex
 10
296.5245028142776
 20
665.9709266528951
 30
0.0
 42
0.6297913561579589
  0
VERTEX
  5
2EE
330
2EC
100
AcDbEntity
  8
Make2D$可见线$普通线
100
AcDbVertex
100
AcDb2dVertex
 10
283.1123056615286
 20
637.9681413447142
 30
0.0
  0
VERTEX
  5
2EF
330
2EC
100
AcDbEntity
  8
Make2D$可见线$普通线
100
AcDbVertex
100
AcDb2dVertex
 10
283.0721959369473
 20
637.9675442908335
 30
0.0
 42
-0.064404982171031
  0
VERTEX
  5
2F0
330
2EC
100
AcDbEntity
  8
Make2D$可见线$普通线
100
AcDbVertex
100
AcDb2dVertex
 10
288.9745148231981
 20
628.2356401822266
 30
0.0
 42
-0.0446243710640369
  0
VERTEX
  5
2F1
330
2EC
100
AcDbEntity
  8
Make2D$可见线$普通线
100
AcDbVertex
100
AcDb2dVertex
 10
291.5896245059315
 20
618.7760871355867
 30
0.0
 42
-0.027556310381095
  0
VERTEX
  5
2F2
330
2EC
100
AcDbEntity
  8
Make2D$可见线$普通线
100
AcDbVertex
100
AcDb2dVertex
 10
292.7309765565539
 20
609.7362252425839
 30
0.0
 42
-0.0322659099577938
  0
VERTEX
  5
2F3
330
2EC
100
AcDbEntity
  8
Make2D$可见线$普通线
100
AcDbVertex
100
AcDb2dVertex
 10
292.7576273829348
 20
597.4366148619041
 30
0.0
  0
VERTEX
  5
2F4
330
2EC
100
AcDbEntity
  8
Make2D$可见线$普通线
100
AcDbVertex
100
AcDb2dVertex
 10
292.6015627609518
 20
595.1373262095939
 30
0.0
  0
VERTEX
  5
2F5
330
2EC
100
AcDbEntity
  8
Make2D$可见线$普通线
100
AcDbVertex
100
AcDb2dVertex
 10
292.419271665057
 20
592.8398183033437
 30
0.0
  0
VERTEX
  5
2F6
330
2EC
100
AcDbEntity
  8
Make2D$可见线$普通线
100
AcDbVertex
100
AcDb2dVertex
 10
292.2107870977698
 20
590.5445394731656
 30
0.0
  0
VERTEX
  5
2F7
330
2EC
100
AcDbEntity
  8
Make2D$可见线$普通线
100
AcDbVertex
100
AcDb2dVertex
 10
291.5075420456054
 20
583.7370658962667
 30
0.0
  0
VERTEX
  5
2F8
330
2EC
100
AcDbEntity
  8
Make2D$可见线$普通线
100
AcDbVertex
100
AcDb2dVertex
 10
291.2812668586905
 20
581.4610717778409
 30
0.0
  0
VERTEX
  5
2F9
330
2EC
100
AcDbEntity
  8
Make2D$可见线$普通线
100
AcDbVertex
100
AcDb2dVertex
 10
291.1475134026769
 20
580.0220393029681
 30
0.0
  0
VERTEX
  5
2FA
330
2EC
100
AcDbEntity
  8
Make2D$可见线$普通线
100
AcDbVertex
100
AcDb2dVertex
 10
291.0241829146753
 20
578.577159319864
 30
0.0
  0
VERTEX
  5
2FB
330
2EC
100
AcDbEntity
  8
Make2D$可见线$普通线
100
AcDbVertex
100
AcDb2dVertex
 10
290.9150033002138
 20
577.1285827826014
 30
0.0
  0
VERTEX
  5
2FC
330
2EC
100
AcDbEntity
  8
Make2D$可见线$普通线
100
AcDbVertex
100
AcDb2dVertex
 10
290.8237024648201
 20
575.6784606452525
 30
0.0
  0
VERTEX
  5
2FD
330
2EC
100
AcDbEntity
  8
Make2D$可见线$普通线
100
AcDbVertex
100
AcDb2dVertex
 10
290.7503906570537
 20
574.0883755808243
 30
0.0
  0
VERTEX
  5
2FE
330
2EC
100
AcDbEntity
  8
Make2D$可见线$普通线
100
AcDbVertex
100
AcDb2dVertex
 10
290.7112913318012
 20
572.5317407666378
 30
0.0
  0
VERTEX
  5
2FF
330
2EC
100
AcDbEntity
  8
Make2D$可见线$普通线
100
AcDbVertex
100
AcDb2dVertex
 10
290.7082618794558
 20
571.7674546236667
 30
0.0
  0
VERTEX
  5
300
330
2EC
100
AcDbEntity
  8
Make2D$可见线$普通线
100
AcDbVertex
100
AcDb2dVertex
 10
290.7182141829446
 20
571.0133159475936
 30
0.0
  0
VERTEX
  5
301
330
2EC
100
AcDbEntity
  8
Make2D$可见线$普通线
100
AcDbVertex
100
AcDb2dVertex
 10
290.7426244540027
 20
570.269919706531
 30
0.0
  0
VERTEX
  5
302
330
2EC
100
AcDbEntity
  8
Make2D$可见线$普通线
100
AcDbVertex
100
AcDb2dVertex
 10
290.7829689043654
 20
569.5378608685917
 30
0.0
  0
VERTEX
  5
303
330
2EC
100
AcDbEntity
  8
Make2D$可见线$普通线
100
AcDbVertex
100
AcDb2dVertex
 10
290.8391311766676
 20
568.8394035916758
 30
0.0
  0
VERTEX
  5
304
330
2EC
100
AcDbEntity
  8
Make2D$可见线$普通线
100
AcDbVertex
100
AcDb2dVertex
 10
290.9156379523193
 20
568.1521419496578
 30
0.0
  0
VERTEX
  5
305
330
2EC
100
AcDbEntity
  8
Make2D$可见线$普通线
100
AcDbVertex
100
AcDb2dVertex
 10
290.9627639874946
 20
567.8127030646381
 30
0.0
  0
VERTEX
  5
306
330
2EC
100
AcDbEntity
  8
Make2D$可见线$普通线
100
AcDbVertex
100
AcDb2dVertex
 10
291.0164682988194
 20
567.4760553758263
 30
0.0
  0
VERTEX
  5
307
330
2EC
100
AcDbEntity
  8
Make2D$可见线$普通线
100
AcDbVertex
100
AcDb2dVertex
 10
291.0772482697309
 20
567.1421963123829
 30
0.0
  0
VERTEX
  5
308
330
2EC
100
AcDbEntity
  8
Make2D$可见线$普通线
100
AcDbVertex
100
AcDb2dVertex
 10
291.1456012836666
 20
566.8111233034695
 30
0.0
  0
VERTEX
  5
309
330
2EC
100
AcDbEntity
  8
Make2D$可见线$普通线
100
AcDbVertex
100
AcDb2dVertex
 10
291.2045901451978
 20
566.5547371028115
 30
0.0
  0
VERTEX
  5
30A
330
2EC
100
AcDbEntity
  8
Make2D$可见线$普通线
100
AcDbVertex
100
AcDb2dVertex
 10
291.269108298504
 20
566.3003890253
 30
0.0
  0
VERTEX
  5
30B
330
2EC
100
AcDbEntity
  8
Make2D$可见线$普通线
100
AcDbVertex
100
AcDb2dVertex
 10
291.3397696424588
 20
566.0484218789649
 30
0.0
  0
VERTEX
  5
30C
330
2EC
100
AcDbEntity
  8
Make2D$可见线$普通线
100
AcDbVertex
100
AcDb2dVertex
 10
291.4171880759361
 20
565.7991784718369
 30
0.0
  0
VERTEX
  5
30D
330
2EC
100
AcDbEntity
  8
Make2D$可见线$普通线
100
AcDbVertex
100
AcDb2dVertex
 10
291.5019774978093
 20
565.5530016119457
 30
0.0
  0
VERTEX
  5
30E
330
2EC
100
AcDbEntity
  8
Make2D$可见线$普通线
100
AcDbVertex
100
AcDb2dVertex
 10
291.5947518069523
 20
565.3102341073217
 30
0.0
  0
VERTEX
  5
30F
330
2EC
100
AcDbEntity
  8
Make2D$可见线$普通线
100
AcDbVertex
100
AcDb2dVertex
 10
291.644325137648
 20
565.1902359907443
 30
0.0
  0
VERTEX
  5
310
330
2EC
100
AcDbEntity
  8
Make2D$可见线$普通线
100
AcDbVertex
100
AcDb2dVertex
 10
291.6961249022388
 20
565.0712187659952
 30
0.0
  0
VERTEX
  5
311
330
2EC
100
AcDbEntity
  8
Make2D$可见线$普通线
100
AcDbVertex
100
AcDb2dVertex
 10
291.7502278380837
 20
564.9532252840779
 30
0.0
  0
VERTEX
  5
312
330
2EC
100
AcDbEntity
  8
Make2D$可见线$普通线
100
AcDbVertex
100
AcDb2dVertex
 10
291.8067106825423
 20
564.8362983959962
 30
0.0
  0
VERTEX
  5
313
330
2EC
100
AcDbEntity
  8
Make2D$可见线$普通线
100
AcDbVertex
100
AcDb2dVertex
 10
291.8580433347391
 20
564.7361331190818
 30
0.0
  0
VERTEX
  5
314
330
2EC
100
AcDbEntity
  8
Make2D$可见线$普通线
100
AcDbVertex
100
AcDb2dVertex
 10
291.911280675386
 20
564.6365786921997
 30
0.0
  0
VERTEX
  5
315
330
2EC
100
AcDbEntity
  8
Make2D$可见线$普通线
100
AcDbVertex
100
AcDb2dVertex
 10
291.9665543902075
 20
564.5377590025694
 30
0.0
  0
VERTEX
  5
316
330
2EC
100
AcDbEntity
  8
Make2D$可见线$普通线
100
AcDbVertex
100
AcDb2dVertex
 10
292.0239961649282
 20
564.4397979374102
 30
0.0
  0
VERTEX
  5
317
330
2EC
100
AcDbEntity
  8
Make2D$可见线$普通线
100
AcDbVertex
100
AcDb2dVertex
 10
292.0837376852727
 20
564.3428193839414
 30
0.0
  0
VERTEX
  5
318
330
2EC
100
AcDbEntity
  8
Make2D$可见线$普通线
100
AcDbVertex
100
AcDb2dVertex
 10
292.1459106369655
 20
564.2469472293825
 30
0.0
  0
VERTEX
  5
319
330
2EC
100
AcDbEntity
  8
Make2D$可见线$普通线
100
AcDbVertex
100
AcDb2dVertex
 10
292.2106467057312
 20
564.1523053609528
 30
0.0
  0
VERTEX
  5
31A
330
2EC
100
AcDbEntity
  8
Make2D$可见线$普通线
100
AcDbVertex
100
AcDb2dVertex
 10
292.2780775772943
 20
564.0590176658716
 30
0.0
  0
VERTEX
  5
31B
330
2EC
100
AcDbEntity
  8
Make2D$可见线$普通线
100
AcDbVertex
100
AcDb2dVertex
 10
292.3562092723992
 20
563.9572165909108
 30
0.0
  0
VERTEX
  5
31C
330
2EC
100
AcDbEntity
  8
Make2D$可见线$普通线
100
AcDbVertex
100
AcDb2dVertex
 10
292.4378013469216
 20
563.8574902134484
 30
0.0
  0
VERTEX
  5
31D
330
2EC
100
AcDbEntity
  8
Make2D$可见线$普通线
100
AcDbVertex
100
AcDb2dVertex
 10
292.5228315293027
 20
563.760092042239
 30
0.0
  0
VERTEX
  5
31E
330
2EC
100
AcDbEntity
  8
Make2D$可见线$普通线
100
AcDbVertex
100
AcDb2dVertex
 10
292.6112775479835
 20
563.6652755860373
 30
0.0
  0
VERTEX
  5
31F
330
2EC
100
AcDbEntity
  8
Make2D$可见线$普通线
100
AcDbVertex
100
AcDb2dVertex
 10
292.7031171314054
 20
563.5732943535982
 30
0.0
  0
VERTEX
  5
320
330
2EC
100
AcDbEntity
  8
Make2D$可见线$普通线
100
AcDbVertex
100
AcDb2dVertex
 10
292.7503025500321
 20
563.5284461677754
 30
0.0
  0
VERTEX
  5
321
330
2EC
100
AcDbEntity
  8
Make2D$可见线$普通线
100
AcDbVertex
100
AcDb2dVertex
 10
292.7983280080094
 20
563.4844018536762
 30
0.0
  0
VERTEX
  5
322
330
2EC
100
AcDbEntity
  8
Make2D$可见线$普通线
100
AcDbVertex
100
AcDb2dVertex
 10
292.8471907213926
 20
563.4411930998951
 30
0.0
  0
VERTEX
  5
323
330
2EC
100
AcDbEntity
  8
Make2D$可见线$普通线
100
AcDbVertex
100
AcDb2dVertex
 10
292.8968879062367
 20
563.3988515950264
 30
0.0
  0
VERTEX
  5
324
330
2EC
100
AcDbEntity
  8
Make2D$可见线$普通线
100
AcDbVertex
100
AcDb2dVertex
 10
292.9474167785969
 20
563.3574090276643
 30
0.0
  0
VERTEX
  5
325
330
2EC
100
AcDbEntity
  8
Make2D$可见线$普通线
100
AcDbVertex
100
AcDb2dVertex
 10
292.9987745545284
 20
563.3168970864032
 30
0.0
  0
VERTEX
  5
326
330
2EC
100
AcDbEntity
  8
Make2D$可见线$普通线
100
AcDbVertex
100
AcDb2dVertex
 10
293.0556158136307
 20
563.2738834894191
 30
0.0
  0
VERTEX
  5
327
330
2EC
100
AcDbEntity
  8
Make2D$可见线$普通线
100
AcDbVertex
100
AcDb2dVertex
 10
293.1133999765252
 20
563.2320050223808
 30
0.0
  0
VERTEX
  5
328
330
2EC
100
AcDbEntity
  8
Make2D$可见线$普通线
100
AcDbVertex
100
AcDb2dVertex
 10
293.1720909697526
 20
563.1912564426234
 30
0.0
  0
VERTEX
  5
329
330
2EC
100
AcDbEntity
  8
Make2D$可见线$普通线
100
AcDbVertex
100
AcDb2dVertex
 10
293.2316527198536
 20
563.1516325074815
 30
0.0
  0
VERTEX
  5
32A
330
2EC
100
AcDbEntity
  8
Make2D$可见线$普通线
100
AcDbVertex
100
AcDb2dVertex
 10
293.292049153369
 20
563.1131279742898
 30
0.0
  0
VERTEX
  5
32B
330
2EC
100
AcDbEntity
  8
Make2D$可见线$普通线
100
AcDbVertex
100
AcDb2dVertex
 10
293.3532441968393
 20
563.0757376003833
 30
0.0
  0
VERTEX
  5
32C
330
2EC
100
AcDbEntity
  8
Make2D$可见线$普通线
100
AcDbVertex
100
AcDb2dVertex
 10
293.4152017768054
 20
563.0394561430962
 30
0.0
  0
VERTEX
  5
32D
330
2EC
100
AcDbEntity
  8
Make2D$可见线$普通线
100
AcDbVertex
100
AcDb2dVertex
 10
293.477885819808
 20
563.0042783597639
 30
0.0
  0
VERTEX
  5
32E
330
2EC
100
AcDbEntity
  8
Make2D$可见线$普通线
100
AcDbVertex
100
AcDb2dVertex
 10
293.5412602523876
 20
562.9701990077207
 30
0.0
  0
VERTEX
  5
32F
330
2EC
100
AcDbEntity
  8
Make2D$可见线$普通线
100
AcDbVertex
100
AcDb2dVertex
 10
293.6052890010852
 20
562.9372128443015
 30
0.0
  0
VERTEX
  5
330
330
2EC
100
AcDbEntity
  8
Make2D$可见线$普通线
100
AcDbVertex
100
AcDb2dVertex
 10
293.7351651529966
 20
562.8744991126741
 30
0.0
  0
VERTEX
  5
331
330
2EC
100
AcDbEntity
  8
Make2D$可见线$普通线
100
AcDbVertex
100
AcDb2dVertex
 10
293.8672256878677
 20
562.8160952235596
 30
0.0
  0
VERTEX
  5
332
330
2EC
100
AcDbEntity
  8
Make2D$可见线$普通线
100
AcDbVertex
100
AcDb2dVertex
 10
294.0011820180245
 20
562.7619592356359
 30
0.0
  0
VERTEX
  5
333
330
2EC
100
AcDbEntity
  8
Make2D$可见线$普通线
100
AcDbVertex
100
AcDb2dVertex
 10
294.1476833658944
 20
562.7082118203041
 30
0.0
  0
VERTEX
  5
334
330
2EC
100
AcDbEntity
  8
Make2D$可见线$普通线
100
AcDbVertex
100
AcDb2dVertex
 10
294.2958810526432
 20
562.6591876969168
 30
0.0
  0
VERTEX
  5
335
330
2EC
100
AcDbEntity
  8
Make2D$可见线$普通线
100
AcDbVertex
100
AcDb2dVertex
 10
294.4455967429242
 20
562.6146809261307
 30
0.0
  0
VERTEX
  5
336
330
2EC
100
AcDbEntity
  8
Make2D$可见线$普通线
100
AcDbVertex
100
AcDb2dVertex
 10
294.5966521013911
 20
562.5744855686028
 30
0.0
  0
VERTEX
  5
337
330
2EC
100
AcDbEntity
  8
Make2D$可见线$普通线
100
AcDbVertex
100
AcDb2dVertex
 10
294.7488687926974
 20
562.5383956849895
 30
0.0
  0
VERTEX
  5
338
330
2EC
100
AcDbEntity
  8
Make2D$可见线$普通线
100
AcDbVertex
100
AcDb2dVertex
 10
294.9020684814967
 20
562.5062053359476
 30
0.0
  0
VERTEX
  5
339
330
2EC
100
AcDbEntity
  8
Make2D$可见线$普通线
100
AcDbVertex
100
AcDb2dVertex
 10
295.0560728324424
 20
562.4777085821336
 30
0.0
  0
VERTEX
  5
33A
330
2EC
100
AcDbEntity
  8
Make2D$可见线$普通线
100
AcDbVertex
100
AcDb2dVertex
 10
295.2107035101881
 20
562.4526994842045
 30
0.0
  0
VERTEX
  5
33B
330
2EC
100
AcDbEntity
  8
Make2D$可见线$普通线
100
AcDbVertex
100
AcDb2dVertex
 10
295.3738648425453
 20
562.4299469361206
 30
0.0
  0
VERTEX
  5
33C
330
2EC
100
AcDbEntity
  8
Make2D$可见线$普通线
100
AcDbVertex
100
AcDb2dVertex
 10
295.5374579397807
 20
562.410687392959
 30
0.0
  0
VERTEX
  5
33D
330
2EC
100
AcDbEntity
  8
Make2D$可见线$普通线
100
AcDbVertex
100
AcDb2dVertex
 10
295.7014188595486
 20
562.3947826060013
 30
0.0
  0
VERTEX
  5
33E
330
2EC
100
AcDbEntity
  8
Make2D$可见线$普通线
100
AcDbVertex
100
AcDb2dVertex
 10
295.8656836595034
 20
562.3820943265299
 30
0.0
  0
VERTEX
  5
33F
330
2EC
100
AcDbEntity
  8
Make2D$可见线$普通线
100
AcDbVertex
100
AcDb2dVertex
 10
296.0301883972993
 20
562.3724843058269
 30
0.0
  0
VERTEX
  5
340
330
2EC
100
AcDbEntity
  8
Make2D$可见线$普通线
100
AcDbVertex
100
AcDb2dVertex
 10
296.1948691305908
 20
562.3658142951745
 30
0.0
  0
VERTEX
  5
341
330
2EC
100
AcDbEntity
  8
Make2D$可见线$普通线
100
AcDbVertex
100
AcDb2dVertex
 10
296.5245028142776
 20
562.3607413091495
 30
0.0
  0
SEQEND
  5
342
330
2EC
100
AcDbEntity
  8
Make2D$可见线$普通线
  0
POLYLINE
  5
343
330
1F
100
AcDbEntity
  8
Make2D$可见线$普通线
100
AcDb2dPolyline
 66
     1
 10
0.0
 20
0.0
 30
0.0
  0
VERTEX
  5
344
330
343
100
AcDbEntity
  8
Make2D$可见线$普通线
100
AcDbVertex
100
AcDb2dVertex
 10
285.021872302297
 20
628.4627819376716
 30
0.0
 42
0.0449377325889131
  0
VERTEX
  5
345
330
343
100
AcDbEntity
  8
Make2D$可见线$普通线
100
AcDbVertex
100
AcDb2dVertex
 10
280.6023052154175
 20
636.2676302127422
 30
0.0
  0
VERTEX
  5
346
330
343
100
AcDbEntity
  8
Make2D$可见线$普通线
100
AcDbVertex
100
AcDb2dVertex
 10
280.1022510463716
 20
636.9774172126835
 30
0.0
 42
-0.2813624112375273
  0
VERTEX
  5
347
330
343
100
AcDbEntity
  8
Make2D$可见线$普通线
100
AcDbVertex
100
AcDb2dVertex
 10
278.541733974723
 20
657.9915658635864
 30
0.0
 42
-0.2811016120540758
  0
VERTEX
  5
348
330
343
100
AcDbEntity
  8
Make2D$可见线$普通线
100
AcDbVertex
100
AcDb2dVertex
 10
296.5245028142777
 20
668.9752048180044
 30
0.0
  0
SEQEND
  5
349
330
343
100
AcDbEntity
  8
Make2D$可见线$普通线
  0
POLYLINE
  5
34A
330
1F
100
AcDbEntity
  8
Make2D$可见线$普通线
100
AcDb2dPolyline
 66
     1
 10
0.0
 20
0.0
 30
0.0
  0
VERTEX
  5
34B
330
34A
100
AcDbEntity
  8
Make2D$可见线$普通线
100
AcDbVertex
100
AcDb2dVertex
 10
288.2205035375169
 20
567.4214839898864
 30
0.0
  0
VERTEX
  5
34C
330
34A
100
AcDbEntity
  8
Make2D$可见线$普通线
100
AcDbVertex
100
AcDb2dVertex
 10
288.4756884105918
 20
566.4032326576399
 30
0.0
  0
VERTEX
  5
34D
330
34A
100
AcDbEntity
  8
Make2D$可见线$普通线
100
AcDbVertex
100
AcDb2dVertex
 10
288.8927683491134
 20
565.3404282361748
 30
0.0
 42
0.0364606364308047
  0
VERTEX
  5
34E
330
34A
100
AcDbEntity
  8
Make2D$可见线$普通线
100
AcDbVertex
100
AcDb2dVertex
 10
289.5987549841189
 20
564.0025342185558
 30
0.0
  0
VERTEX
  5
34F
330
34A
100
AcDbEntity
  8
Make2D$可见线$普通线
100
AcDbVertex
100
AcDb2dVertex
 10
289.8873686704325
 20
563.6314036751576
 30
0.0
 42
0.0399563254828645
  0
VERTEX
  5
350
330
34A
100
AcDbEntity
  8
Make2D$可见线$普通线
100
AcDbVertex
100
AcDb2dVertex
 10
290.5876272136319
 20
562.865785786874
 30
0.0
 42
0.0447695965736175
  0
VERTEX
  5
351
330
34A
100
AcDbEntity
  8
Make2D$可见线$普通线
100
AcDbVertex
100
AcDb2dVertex
 10
291.4796191313632
 20
562.1634685246884
 30
0.0
  0
VERTEX
  5
352
330
34A
100
AcDbEntity
  8
Make2D$可见线$普通线
100
AcDbVertex
100
AcDb2dVertex
 10
291.6964851471804
 20
562.0290307321782
 30
0.0
  0
VERTEX
  5
353
330
34A
100
AcDbEntity
  8
Make2D$可见线$普通线
100
AcDbVertex
100
AcDb2dVertex
 10
292.1381936282728
 20
561.7892603287073
 30
0.0
  0
VERTEX
  5
354
330
34A
100
AcDbEntity
  8
Make2D$可见线$普通线
100
AcDbVertex
100
AcDb2dVertex
 10
292.2075418497284
 20
561.7552999399827
 30
0.0
  0
VERTEX
  5
355
330
34A
100
AcDbEntity
  8
Make2D$可见线$普通线
100
AcDbVertex
100
AcDb2dVertex
 10
292.4184249178883
 20
561.6575655495863
 30
0.0
  0
VERTEX
  5
356
330
34A
100
AcDbEntity
  8
Make2D$可见线$普通线
100
AcDbVertex
100
AcDb2dVertex
 10
293.3032224320488
 20
561.2870963501139
 30
0.0
  0
VERTEX
  5
357
330
34A
100
AcDbEntity
  8
Make2D$可见线$普通线
100
AcDbVertex
100
AcDb2dVertex
 10
294.090697569808
 20
561.1274409745807
 30
0.0
 42
0.0272866604810606
  0
VERTEX
  5
358
330
34A
100
AcDbEntity
  8
Make2D$可见线$普通线
100
AcDbVertex
100
AcDb2dVertex
 10
295.2560664784488
 20
560.9567060595217
 30
0.0
  0
VERTEX
  5
359
330
34A
100
AcDbEntity
  8
Make2D$可见线$普通线
100
AcDbVertex
100
AcDb2dVertex
 10
296.5336220713845
 20
560.8406619627187
 30
0.0
  0
VERTEX
  5
35A
330
34A
100
AcDbEntity
  8
Make2D$可见线$普通线
100
AcDbVertex
100
AcDb2dVertex
 10
297.8111776643159
 20
560.9567060595217
 30
0.0
 42
0.0272866604810701
  0
VERTEX
  5
35B
330
34A
100
AcDbEntity
  8
Make2D$可见线$普通线
100
AcDbVertex
100
AcDb2dVertex
 10
298.9765465729566
 20
561.1274409745808
 30
0.0
  0
VERTEX
  5
35C
330
34A
100
AcDbEntity
  8
Make2D$可见线$普通线
100
AcDbVertex
100
AcDb2dVertex
 10
299.764021710716
 20
561.2870963501139
 30
0.0
  0
VERTEX
  5
35D
330
34A
100
AcDbEntity
  8
Make2D$可见线$普通线
100
AcDbVertex
100
AcDb2dVertex
 10
300.6488192248764
 20
561.6575655495863
 30
0.0
  0
VERTEX
  5
35E
330
34A
100
AcDbEntity
  8
Make2D$可见线$普通线
100
AcDbVertex
100
AcDb2dVertex
 10
300.8597022930363
 20
561.7552999399827
 30
0.0
  0
VERTEX
  5
35F
330
34A
100
AcDbEntity
  8
Make2D$可见线$普通线
100
AcDbVertex
100
AcDb2dVertex
 10
300.9290505144919
 20
561.7892603287073
 30
0.0
  0
VERTEX
  5
360
330
34A
100
AcDbEntity
  8
Make2D$可见线$普通线
100
AcDbVertex
100
AcDb2dVertex
 10
301.3707589955844
 20
562.0290307321782
 30
0.0
  0
VERTEX
  5
361
330
34A
100
AcDbEntity
  8
Make2D$可见线$普通线
100
AcDbVertex
100
AcDb2dVertex
 10
301.5876250114017
 20
562.1634685246884
 30
0.0
 42
0.0447695965736561
  0
VERTEX
  5
362
330
34A
100
AcDbEntity
  8
Make2D$可见线$普通线
100
AcDbVertex
100
AcDb2dVertex
 10
302.4796169291327
 20
562.865785786874
 30
0.0
 42
0.0399563254830265
  0
VERTEX
  5
363
330
34A
100
AcDbEntity
  8
Make2D$可见线$普通线
100
AcDbVertex
100
AcDb2dVertex
 10
303.1798754723322
 20
563.6314036751576
 30
0.0
  0
VERTEX
  5
364
330
34A
100
AcDbEntity
  8
Make2D$可见线$普通线
100
AcDbVertex
100
AcDb2dVertex
 10
303.4684891586458
 20
564.0025342185558
 30
0.0
 42
0.0364606364308093
  0
VERTEX
  5
365
330
34A
100
AcDbEntity
  8
Make2D$可见线$普通线
100
AcDbVertex
100
AcDb2dVertex
 10
304.1744757936513
 20
565.3404282361748
 30
0.0
  0
VERTEX
  5
366
330
34A
100
AcDbEntity
  8
Make2D$可见线$普通线
100
AcDbVertex
100
AcDb2dVertex
 10
304.5915557321729
 20
566.4032326576399
 30
0.0
  0
VERTEX
  5
367
330
34A
100
AcDbEntity
  8
Make2D$可见线$普通线
100
AcDbVertex
100
AcDb2dVertex
 10
304.8467406052478
 20
567.4214839898864
 30
0.0
  0
SEQEND
  5
368
330
34A
100
AcDbEntity
  8
Make2D$可见线$普通线
  0
POLYLINE
  5
369
330
1F
100
AcDbEntity
  8
Make2D$可见线$普通线
100
AcDb2dPolyline
 66
     1
 10
0.0
 20
0.0
 30
0.0
  0
VERTEX
  5
36A
330
369
100
AcDbEntity
  8
Make2D$可见线$普通线
100
AcDbVertex
100
AcDb2dVertex
 10
307.8363950039171
 20
627.9953730586168
 30
0.0
 42
0.0125344509266837
  0
VERTEX
  5
36B
330
369
100
AcDbEntity
  8
Make2D$可见线$普通线
100
AcDbVertex
100
AcDb2dVertex
 10
306.8943579126435
 20
625.7066381815845
 30
0.0
 42
0.0455988106150422
  0
VERTEX
  5
36C
330
369
100
AcDbEntity
  8
Make2D$可见线$普通线
100
AcDbVertex
100
AcDb2dVertex
 10
304.4272733069702
 20
616.9485709692091
 30
0.0
  0
VERTEX
  5
36D
330
369
100
AcDbEntity
  8
Make2D$可见线$普通线
100
AcDbVertex
100
AcDb2dVertex
 10
303.4922140938534
 20
609.8070147964321
 30
0.0
  0
VERTEX
  5
36E
330
369
100
AcDbEntity
  8
Make2D$可见线$普通线
100
AcDbVertex
100
AcDb2dVertex
 10
303.3630981020016
 20
608.7506533394328
 30
0.0
  0
VERTEX
  5
36F
330
369
100
AcDbEntity
  8
Make2D$可见线$普通线
100
AcDbVertex
100
AcDb2dVertex
 10
303.3409571449554
 20
608.5367459320901
 30
0.0
  0
VERTEX
  5
370
330
369
100
AcDbEntity
  8
Make2D$可见线$普通线
100
AcDbVertex
100
AcDb2dVertex
 10
303.3310232177157
 20
608.412608991732
 30
0.0
  0
VERTEX
  5
371
330
369
100
AcDbEntity
  8
Make2D$可见线$普通线
100
AcDbVertex
100
AcDb2dVertex
 10
303.2664989387672
 20
607.4348858865422
 30
0.0
  0
VERTEX
  5
372
330
369
100
AcDbEntity
  8
Make2D$可见线$普通线
100
AcDbVertex
100
AcDb2dVertex
 10
303.2553716492739
 20
607.2441753673518
 30
0.0
  0
VERTEX
  5
373
330
369
100
AcDbEntity
  8
Make2D$可见线$普通线
100
AcDbVertex
100
AcDb2dVertex
 10
303.2241042264731
 20
606.657746569503
 30
0.0
  0
VERTEX
  5
374
330
369
100
AcDbEntity
  8
Make2D$可见线$普通线
100
AcDbVertex
100
AcDb2dVertex
 10
303.1853308593975
 20
605.7754744904039
 30
0.0
  0
VERTEX
  5
375
330
369
100
AcDbEntity
  8
Make2D$可见线$普通线
100
AcDbVertex
100
AcDb2dVertex
 10
303.1765345682834
 20
605.5370971713279
 30
0.0
  0
VERTEX
  5
376
330
369
100
AcDbEntity
  8
Make2D$可见线$普通线
100
AcDbVertex
100
AcDb2dVertex
 10
303.1366118098024
 20
604.0021478672559
 30
0.0
 42
0.0156598436781178
  0
VERTEX
  5
377
330
369
100
AcDbEntity
  8
Make2D$可见线$普通线
100
AcDbVertex
100
AcDb2dVertex
 10
303.2253972807473
 20
598.2796286552559
 30
0.0
  0
VERTEX
  5
378
330
369
100
AcDbEntity
  8
Make2D$可见线$普通线
100
AcDbVertex
100
AcDb2dVertex
 10
303.3481145247976
 20
596.0959975593903
 30
0.0
  0
VERTEX
  5
379
330
369
100
AcDbEntity
  8
Make2D$可见线$普通线
100
AcDbVertex
100
AcDb2dVertex
 10
303.4271784565206
 20
594.9756394677579
 30
0.0
  0
VERTEX
  5
37A
330
369
100
AcDbEntity
  8
Make2D$可见线$普通线
100
AcDbVertex
100
AcDb2dVertex
 10
303.4492008925544
 20
594.6869957083446
 30
0.0
  0
VERTEX
  5
37B
330
369
100
AcDbEntity
  8
Make2D$可见线$普通线
100
AcDbVertex
100
AcDb2dVertex
 10
303.5272393297377
 20
593.7225978227204
 30
0.0
  0
VERTEX
  5
37C
330
369
100
AcDbEntity
  8
Make2D$可见线$普通线
100
AcDbVertex
100
AcDb2dVertex
 10
303.6040082565236
 20
592.8403668540536
 30
0.0
  0
VERTEX
  5
37D
330
369
100
AcDbEntity
  8
Make2D$可见线$普通线
100
AcDbVertex
100
AcDb2dVertex
 10
303.6939453808013
 20
591.8701347422827
 30
0.0
  0
VERTEX
  5
37E
330
369
100
AcDbEntity
  8
Make2D$可见线$普通线
100
AcDbVertex
100
AcDb2dVertex
 10
303.8394782394388
 20
590.4057425282211
 30
0.0
  0
VERTEX
  5
37F
330
369
100
AcDbEntity
  8
Make2D$可见线$普通线
100
AcDbVertex
100
AcDb2dVertex
 10
303.8408030260726
 20
590.3928098213335
 30
0.0
  0
VERTEX
  5
380
330
369
100
AcDbEntity
  8
Make2D$可见线$普通线
100
AcDbVertex
100
AcDb2dVertex
 10
303.915435419449
 20
589.6743383719659
 30
0.0
  0
VERTEX
  5
381
330
369
100
AcDbEntity
  8
Make2D$可见线$普通线
100
AcDbVertex
100
AcDb2dVertex
 10
303.9547538198789
 20
589.3029571934972
 30
0.0
  0
VERTEX
  5
382
330
369
100
AcDbEntity
  8
Make2D$可见线$普通线
100
AcDbVertex
100
AcDb2dVertex
 10
304.0733524127472
 20
588.2064448819017
 30
0.0
  0
VERTEX
  5
383
330
369
100
AcDbEntity
  8
Make2D$可见线$普通线
100
AcDbVertex
100
AcDb2dVertex
 10
304.0733606628503
 20
588.2063696582828
 30
0.0
  0
VERTEX
  5
384
330
369
100
AcDbEntity
  8
Make2D$可见线$普通线
100
AcDbVertex
100
AcDb2dVertex
 10
304.7698766633515
 20
581.8541621885706
 30
0.0
  0
VERTEX
  5
385
330
369
100
AcDbEntity
  8
Make2D$可见线$普通线
100
AcDbVertex
100
AcDb2dVertex
 10
304.9055638920106
 20
580.5117535333543
 30
0.0
  0
VERTEX
  5
386
330
369
100
AcDbEntity
  8
Make2D$可见线$普通线
100
AcDbVertex
100
AcDb2dVertex
 10
305.031342652871
 20
579.1646544836833
 30
0.0
  0
VERTEX
  5
387
330
369
100
AcDbEntity
  8
Make2D$可见线$普通线
100
AcDbVertex
100
AcDb2dVertex
 10
305.1433760702325
 20
577.8140287632189
 30
0.0
  0
VERTEX
  5
388
330
369
100
AcDbEntity
  8
Make2D$可见线$普通线
100
AcDbVertex
100
AcDb2dVertex
 10
305.2378272683951
 20
576.4610400956221
 30
0.0
  0
VERTEX
  5
389
330
369
100
AcDbEntity
  8
Make2D$可见线$普通线
100
AcDbVertex
100
AcDb2dVertex
 10
305.2760780424614
 20
575.7773490312967
 30
0.0
 42
-0.0098116104273388
  0
VERTEX
  5
38A
330
369
100
AcDbEntity
  8
Make2D$可见线$普通线
100
AcDbVertex
100
AcDb2dVertex
 10
305.3559505931402
 20
573.4727423587804
 30
0.0
  0
VERTEX
  5
38B
330
369
100
AcDbEntity
  8
Make2D$可见线$普通线
100
AcDbVertex
100
AcDb2dVertex
 10
305.3573950396388
 20
572.3413629511003
 30
0.0
  0
VERTEX
  5
38C
330
369
100
AcDbEntity
  8
Make2D$可见线$普通线
100
AcDbVertex
100
AcDb2dVertex
 10
305.3303614902891
 20
571.426262953799
 30
0.0
  0
VERTEX
  5
38D
330
369
100
AcDbEntity
  8
Make2D$可见线$普通线
100
AcDbVertex
100
AcDb2dVertex
 10
305.3211895856132
 20
571.2176533583449
 30
0.0
  0
VERTEX
  5
38E
330
369
100
AcDbEntity
  8
Make2D$可见线$普通线
100
AcDbVertex
100
AcDb2dVertex
 10
305.3008126605054
 20
570.8344673856993
 30
0.0
  0
VERTEX
  5
38F
330
369
100
AcDbEntity
  8
Make2D$可见线$普通线
100
AcDbVertex
100
AcDb2dVertex
 10
305.2949524331808
 20
570.7381249087896
 30
0.0
 42
-0.0151616759819205
  0
VERTEX
  5
390
330
369
100
AcDbEntity
  8
Make2D$可见线$普通线
100
AcDbVertex
100
AcDb2dVertex
 10
305.157094423401
 20
569.2171332241305
 30
0.0
  0
VERTEX
  5
391
330
369
100
AcDbEntity
  8
Make2D$可见线$普通线
100
AcDbVertex
100
AcDb2dVertex
 10
305.0892054245773
 20
568.7081634844237
 30
0.0
  0
VERTEX
  5
392
330
369
100
AcDbEntity
  8
Make2D$可见线$普通线
100
AcDbVertex
100
AcDb2dVertex
 10
304.9914004892831
 20
568.1326073509341
 30
0.0
 42
-0.0157684409216881
  0
VERTEX
  5
393
330
369
100
AcDbEntity
  8
Make2D$可见线$普通线
100
AcDbVertex
100
AcDb2dVertex
 10
304.7697192905694
 20
567.1061895227393
 30
0.0
  0
SEQEND
  5
394
330
369
100
AcDbEntity
  8
Make2D$可见线$普通线
  0
POLYLINE
  5
395
330
1F
100
AcDbEntity
  8
Make2D$可见线$普通线
100
AcDb2dPolyline
 66
     1
 10
0.0
 20
0.0
 30
0.0
  0
VERTEX
  5
396
330
395
100
AcDbEntity
  8
Make2D$可见线$普通线
100
AcDbVertex
100
AcDb2dVertex
 10
285.2308491388476
 20
627.9953730586168
 30
0.0
 42
-0.0125344509266824
  0
VERTEX
  5
397
330
395
100
AcDbEntity
  8
Make2D$可见线$普通线
100
AcDbVertex
100
AcDb2dVertex
 10
286.1728862301212
 20
625.7066381815845
 30
0.0
 42
-0.045598810615042
  0
VERTEX
  5
398
330
395
100
AcDbEntity
  8
Make2D$可见线$普通线
100
AcDbVertex
100
AcDb2dVertex
 10
288.6399708357945
 20
616.9485709692091
 30
0.0
  0
VERTEX
  5
399
330
395
100
AcDbEntity
  8
Make2D$可见线$普通线
100
AcDbVertex
100
AcDb2dVertex
 10
289.5750300489113
 20
609.807014796432
 30
0.0
  0
VERTEX
  5
39A
330
395
100
AcDbEntity
  8
Make2D$可见线$普通线
100
AcDbVertex
100
AcDb2dVertex
 10
289.7041460407631
 20
608.7506533394328
 30
0.0
  0
VERTEX
  5
39B
330
395
100
AcDbEntity
  8
Make2D$可见线$普通线
100
AcDbVertex
100
AcDb2dVertex
 10
289.7262869978093
 20
608.5367459320901
 30
0.0
  0
VERTEX
  5
39C
330
395
100
AcDbEntity
  8
Make2D$可见线$普通线
100
AcDbVertex
100
AcDb2dVertex
 10
289.7362209250491
 20
608.412608991732
 30
0.0
  0
VERTEX
  5
39D
330
395
100
AcDbEntity
  8
Make2D$可见线$普通线
100
AcDbVertex
100
AcDb2dVertex
 10
289.8007452039975
 20
607.4348858865422
 30
0.0
  0
VERTEX
  5
39E
330
395
100
AcDbEntity
  8
Make2D$可见线$普通线
100
AcDbVertex
100
AcDb2dVertex
 10
289.8118724934908
 20
607.2441753673518
 30
0.0
  0
VERTEX
  5
39F
330
395
100
AcDbEntity
  8
Make2D$可见线$普通线
100
AcDbVertex
100
AcDb2dVertex
 10
289.8431399162916
 20
606.657746569503
 30
0.0
  0
VERTEX
  5
3A0
330
395
100
AcDbEntity
  8
Make2D$可见线$普通线
100
AcDbVertex
100
AcDb2dVertex
 10
289.8819132833672
 20
605.7754744904039
 30
0.0
  0
VERTEX
  5
3A1
330
395
100
AcDbEntity
  8
Make2D$可见线$普通线
100
AcDbVertex
100
AcDb2dVertex
 10
289.8907095744813
 20
605.5370971713279
 30
0.0
  0
VERTEX
  5
3A2
330
395
100
AcDbEntity
  8
Make2D$可见线$普通线
100
AcDbVertex
100
AcDb2dVertex
 10
289.9306323329623
 20
604.0021478672559
 30
0.0
 42
-0.0156598436781177
  0
VERTEX
  5
3A3
330
395
100
AcDbEntity
  8
Make2D$可见线$普通线
100
AcDbVertex
100
AcDb2dVertex
 10
289.8418468620174
 20
598.2796286552559
 30
0.0
  0
VERTEX
  5
3A4
330
395
100
AcDbEntity
  8
Make2D$可见线$普通线
100
AcDbVertex
100
AcDb2dVertex
 10
289.7191296179672
 20
596.0959975593903
 30
0.0
  0
VERTEX
  5
3A5
330
395
100
AcDbEntity
  8
Make2D$可见线$普通线
100
AcDbVertex
100
AcDb2dVertex
 10
289.6400656862441
 20
594.9756394677579
 30
0.0
  0
VERTEX
  5
3A6
330
395
100
AcDbEntity
  8
Make2D$可见线$普通线
100
AcDbVertex
100
AcDb2dVertex
 10
289.6180432502103
 20
594.6869957083446
 30
0.0
  0
VERTEX
  5
3A7
330
395
100
AcDbEntity
  8
Make2D$可见线$普通线
100
AcDbVertex
100
AcDb2dVertex
 10
289.5400048449079
 20
593.7225982006173
 30
0.0
  0
VERTEX
  5
3A8
330
395
100
AcDbEntity
  8
Make2D$可见线$普通线
100
AcDbVertex
100
AcDb2dVertex
 10
289.4632358876642
 20
592.8403668695072
 30
0.0
  0
VERTEX
  5
3A9
330
395
100
AcDbEntity
  8
Make2D$可见线$普通线
100
AcDbVertex
100
AcDb2dVertex
 10
289.3732987635498
 20
591.8701347589447
 30
0.0
  0
VERTEX
  5
3AA
330
395
100
AcDbEntity
  8
Make2D$可见线$普通线
100
AcDbVertex
100
AcDb2dVertex
 10
289.2277659033259
 20
590.4057425282211
 30
0.0
  0
VERTEX
  5
3AB
330
395
100
AcDbEntity
  8
Make2D$可见线$普通线
100
AcDbVertex
100
AcDb2dVertex
 10
289.2264411166921
 20
590.3928098213335
 30
0.0
  0
VERTEX
  5
3AC
330
395
100
AcDbEntity
  8
Make2D$可见线$普通线
100
AcDbVertex
100
AcDb2dVertex
 10
289.1518087233157
 20
589.6743383719659
 30
0.0
  0
VERTEX
  5
3AD
330
395
100
AcDbEntity
  8
Make2D$可见线$普通线
100
AcDbVertex
100
AcDb2dVertex
 10
289.1124903228858
 20
589.3029571934972
 30
0.0
  0
VERTEX
  5
3AE
330
395
100
AcDbEntity
  8
Make2D$可见线$普通线
100
AcDbVertex
100
AcDb2dVertex
 10
288.9938917300175
 20
588.2064448819017
 30
0.0
  0
VERTEX
  5
3AF
330
395
100
AcDbEntity
  8
Make2D$可见线$普通线
100
AcDbVertex
100
AcDb2dVertex
 10
288.9938834799144
 20
588.2063696582828
 30
0.0
  0
VERTEX
  5
3B0
330
395
100
AcDbEntity
  8
Make2D$可见线$普通线
100
AcDbVertex
100
AcDb2dVertex
 10
288.2973674794132
 20
581.8541621885706
 30
0.0
  0
VERTEX
  5
3B1
330
395
100
AcDbEntity
  8
Make2D$可见线$普通线
100
AcDbVertex
100
AcDb2dVertex
 10
288.1616802507542
 20
580.5117535333543
 30
0.0
  0
VERTEX
  5
3B2
330
395
100
AcDbEntity
  8
Make2D$可见线$普通线
100
AcDbVertex
100
AcDb2dVertex
 10
288.0359014898938
 20
579.1646544836833
 30
0.0
  0
VERTEX
  5
3B3
330
395
100
AcDbEntity
  8
Make2D$可见线$普通线
100
AcDbVertex
100
AcDb2dVertex
 10
287.9238680725322
 20
577.8140287632189
 30
0.0
  0
VERTEX
  5
3B4
330
395
100
AcDbEntity
  8
Make2D$可见线$普通线
100
AcDbVertex
100
AcDb2dVertex
 10
287.8294168743696
 20
576.4610400956221
 30
0.0
  0
VERTEX
  5
3B5
330
395
100
AcDbEntity
  8
Make2D$可见线$普通线
100
AcDbVertex
100
AcDb2dVertex
 10
287.7911661003033
 20
575.7773490312967
 30
0.0
 42
0.0098116104274779
  0
VERTEX
  5
3B6
330
395
100
AcDbEntity
  8
Make2D$可见线$普通线
100
AcDbVertex
100
AcDb2dVertex
 10
287.7112935496245
 20
573.4727423587804
 30
0.0
  0
VERTEX
  5
3B7
330
395
100
AcDbEntity
  8
Make2D$可见线$普通线
100
AcDbVertex
100
AcDb2dVertex
 10
287.7098491031259
 20
572.3413629511003
 30
0.0
  0
VERTEX
  5
3B8
330
395
100
AcDbEntity
  8
Make2D$可见线$普通线
100
AcDbVertex
100
AcDb2dVertex
 10
287.7368826524756
 20
571.426262953799
 30
0.0
  0
VERTEX
  5
3B9
330
395
100
AcDbEntity
  8
Make2D$可见线$普通线
100
AcDbVertex
100
AcDb2dVertex
 10
287.7460545571516
 20
571.2176533583449
 30
0.0
  0
VERTEX
  5
3BA
330
395
100
AcDbEntity
  8
Make2D$可见线$普通线
100
AcDbVertex
100
AcDb2dVertex
 10
287.7664314822593
 20
570.8344673856993
 30
0.0
  0
VERTEX
  5
3BB
330
395
100
AcDbEntity
  8
Make2D$可见线$普通线
100
AcDbVertex
100
AcDb2dVertex
 10
287.7722917095841
 20
570.7381249087896
 30
0.0
 42
0.0151616759819797
  0
VERTEX
  5
3BC
330
395
100
AcDbEntity
  8
Make2D$可见线$普通线
100
AcDbVertex
100
AcDb2dVertex
 10
287.9101497193637
 20
569.2171332241305
 30
0.0
  0
VERTEX
  5
3BD
330
395
100
AcDbEntity
  8
Make2D$可见线$普通线
100
AcDbVertex
100
AcDb2dVertex
 10
287.9780387181874
 20
568.7081634844237
 30
0.0
  0
VERTEX
  5
3BE
330
395
100
AcDbEntity
  8
Make2D$可见线$普通线
100
AcDbVertex
100
AcDb2dVertex
 10
288.0758436534816
 20
568.1326073509342
 30
0.0
 42
0.0157684409219196
  0
VERTEX
  5
3BF
330
395
100
AcDbEntity
  8
Make2D$可见线$普通线
100
AcDbVertex
100
AcDb2dVertex
 10
288.2975248521953
 20
567.1061895227393
 30
0.0
  0
SEQEND
  5
3C0
330
395
100
AcDbEntity
  8
Make2D$可见线$普通线
  0
POLYLINE
  5
3C1
330
1F
100
AcDbEntity
  8
Make2D$可见线$普通线
100
AcDb2dPolyline
 66
     1
 10
0.0
 20
0.0
 30
0.0
  0
VERTEX
  5
3C2
330
3C1
100
AcDbEntity
  8
Make2D$可见线$普通线
100
AcDbVertex
100
AcDb2dVertex
 10
296.5338407549249
 20
659.978235261407
 30
0.0
  0
VERTEX
  5
3C3
330
3C1
100
AcDbEntity
  8
Make2D$可见线$普通线
100
AcDbVertex
100
AcDb2dVertex
 10
296.5336220713824
 20
659.9782352635351
 30
0.0
  0
VERTEX
  5
3C4
330
3C1
100
AcDbEntity
  8
Make2D$可见线$普通线
100
AcDbVertex
100
AcDb2dVertex
 10
296.5334033878398
 20
659.978235261407
 30
0.0
  0
SEQEND
  5
3C5
330
3C1
100
AcDbEntity
  8
Make2D$可见线$普通线
  0
POLYLINE
  5
3C6
330
1F
100
AcDbEntity
  8
Make2D$可见线$普通线
100
AcDb2dPolyline
 66
     1
 10
0.0
 20
0.0
 30
0.0
  0
VERTEX
  5
3C7
330
3C6
100
AcDbEntity
  8
Make2D$可见线$普通线
100
AcDbVertex
100
AcDb2dVertex
 10
302.6193290225312
 20
651.1744141892257
 30
0.0
 42
0.6772871854970626
  0
VERTEX
  5
3C8
330
3C6
100
AcDbEntity
  8
Make2D$可见线$普通线
100
AcDbVertex
100
AcDb2dVertex
 10
290.4479151202336
 20
651.1744141892257
 30
0.0
  0
VERTEX
  5
3C9
330
3C6
100
AcDbEntity
  8
Make2D$可见线$普通线
100
AcDbVertex
100
AcDb2dVertex
 10
290.5407757328163
 20
651.1373074966925
 30
0.0
 42
-0.6772872342491867
  0
VERTEX
  5
3CA
330
3C6
100
AcDbEntity
  8
Make2D$可见线$普通线
100
AcDbVertex
100
AcDb2dVertex
 10
302.5264684099486
 20
651.1373074966926
 30
0.0
  0
VERTEX
  5
3CB
330
3C6
100
AcDbEntity
  8
Make2D$可见线$普通线
100
AcDbVertex
100
AcDb2dVertex
 10
302.6193290225312
 20
651.1744141892257
 30
0.0
  0
SEQEND
  5
3CC
330
3C6
100
AcDbEntity
  8
Make2D$可见线$普通线
  0
POLYLINE
  5
3CD
330
1F
100
AcDbEntity
  8
Make2D$可见线$普通线
100
AcDb2dPolyline
 66
     1
 10
0.0
 20
0.0
 30
0.0
  0
VERTEX
  5
3CE
330
3CD
100
AcDbEntity
  8
Make2D$可见线$普通线
100
AcDbVertex
100
AcDb2dVertex
 10
293.8195296559741
 20
647.8527471808984
 30
0.0
 42
0.237642781979668
  0
VERTEX
  5
3CF
330
3CD
100
AcDbEntity
  8
Make2D$可见线$普通线
100
AcDbVertex
100
AcDb2dVertex
 10
294.3330294347182
 20
648.1947472724524
 30
0.0
  0
VERTEX
  5
3D0
330
3CD
100
AcDbEntity
  8
Make2D$可见线$普通线
100
AcDbVertex
100
AcDb2dVertex
 10
294.2767795529757
 20
648.2367471808983
 30
0.0
 42
-0.197846802651412
  0
VERTEX
  5
3D1
330
3CD
100
AcDbEntity
  8
Make2D$可见线$普通线
100
AcDbVertex
100
AcDb2dVertex
 10
293.8037796597889
 20
647.8929973067852
 30
0.0
  0
VERTEX
  5
3D2
330
3CD
100
AcDbEntity
  8
Make2D$可见线$普通线
100
AcDbVertex
100
AcDb2dVertex
 10
293.8195296559741
 20
647.8527471808984
 30
0.0
  0
SEQEND
  5
3D3
330
3CD
100
AcDbEntity
  8
Make2D$可见线$普通线
  0
POLYLINE
  5
3D4
330
1F
100
AcDbEntity
  8
Make2D$可见线$普通线
100
AcDb2dPolyline
 66
     1
 10
0.0
 20
0.0
 30
0.0
  0
VERTEX
  5
3D5
330
3D4
100
AcDbEntity
  8
Make2D$可见线$普通线
100
AcDbVertex
100
AcDb2dVertex
 10
303.0820033018588
 20
647.9249973067853
 30
0.0
  0
VERTEX
  5
3D6
330
3D4
100
AcDbEntity
  8
Make2D$可见线$普通线
100
AcDbVertex
100
AcDb2dVertex
 10
303.0960032713408
 20
647.8847471808983
 30
0.0
 42
0.2351849803441497
  0
VERTEX
  5
3D7
330
3D4
100
AcDbEntity
  8
Make2D$可见线$普通线
100
AcDbVertex
100
AcDb2dVertex
 10
303.6110030729735
 20
648.2267472724524
 30
0.0
  0
VERTEX
  5
3D8
330
3D4
100
AcDbEntity
  8
Make2D$可见线$普通线
100
AcDbVertex
100
AcDb2dVertex
 10
303.5530031645275
 20
648.2687471808985
 30
0.0
 42
-0.20305789338874
  0
VERTEX
  5
3D9
330
3D4
100
AcDbEntity
  8
Make2D$可见线$普通线
100
AcDbVertex
100
AcDb2dVertex
 10
303.0820033018588
 20
647.9249973067853
 30
0.0
  0
SEQEND
  5
3DA
330
3D4
100
AcDbEntity
  8
Make2D$可见线$普通线
  0
POLYLINE
  5
3DB
330
1F
100
AcDbEntity
  8
Make2D$可见线$普通线
100
AcDb2dPolyline
 66
     1
 10
0.0
 20
0.0
 30
0.0
  0
VERTEX
  5
3DC
330
3DB
100
AcDbEntity
  8
Make2D$可见线$普通线
100
AcDbVertex
100
AcDb2dVertex
 10
289.8370294347183
 20
647.9667472114163
 30
0.0
  0
VERTEX
  5
3DD
330
3DB
100
AcDbEntity
  8
Make2D$可见线$普通线
100
AcDbVertex
100
AcDb2dVertex
 10
289.8370294347183
 20
648.2389972152312
 30
0.0
 42
-0.0757485220930019
  0
VERTEX
  5
3DE
330
3DB
100
AcDbEntity
  8
Make2D$可见线$普通线
100
AcDbVertex
100
AcDb2dVertex
 10
289.8935294423477
 20
648.3837472266754
 30
0.0
 42
-0.0916685842242933
  0
VERTEX
  5
3DF
330
3DB
100
AcDbEntity
  8
Make2D$可见线$普通线
100
AcDbVertex
100
AcDb2dVertex
 10
290.0217794461626
 20
648.5571221866206
 30
0.0
 42
-0.1780289220008015
  0
VERTEX
  5
3E0
330
3DB
100
AcDbEntity
  8
Make2D$可见线$普通线
100
AcDbVertex
100
AcDb2dVertex
 10
290.1562796674184
 20
648.6207471808982
 30
0.0
 42
-0.4804882816077306
  0
VERTEX
  5
3E1
330
3DB
100
AcDbEntity
  8
Make2D$可见线$普通线
100
AcDbVertex
100
AcDb2dVertex
 10
290.2370294347181
 20
648.5177473182296
 30
0.0
  0
VERTEX
  5
3E2
330
3DB
100
AcDbEntity
  8
Make2D$可见线$普通线
100
AcDbVertex
100
AcDb2dVertex
 10
290.2370294347184
 20
648.1217473792657
 30
0.0
 42
0.1147032055743224
  0
VERTEX
  5
3E3
330
3DB
100
AcDbEntity
  8
Make2D$可见线$普通线
100
AcDbVertex
100
AcDb2dVertex
 10
290.2682795453462
 20
647.9299972610082
 30
0.0
 42
0.2612293385926083
  0
VERTEX
  5
3E4
330
3DB
100
AcDbEntity
  8
Make2D$可见线$普通线
100
AcDbVertex
100
AcDb2dVertex
 10
290.3600296025676
 20
647.8847471808982
 30
0.0
 42
0.2255291826015874
  0
VERTEX
  5
3E5
330
3DB
100
AcDbEntity
  8
Make2D$可见线$普通线
100
AcDbVertex
100
AcDb2dVertex
 10
290.7810294347183
 20
648.2057471961573
 30
0.0
  0
VERTEX
  5
3E6
330
3DB
100
AcDbEntity
  8
Make2D$可见线$普通线
100
AcDbVertex
100
AcDb2dVertex
 10
290.7252795606053
 20
648.2527471808983
 30
0.0
  0
VERTEX
  5
3E7
330
3DB
100
AcDbEntity
  8
Make2D$可见线$普通线
100
AcDbVertex
100
AcDb2dVertex
 10
290.7068709663218
 20
648.2247927793949
 30
0.0
  0
VERTEX
  5
3E8
330
3DB
100
AcDbEntity
  8
Make2D$可见线$普通线
100
AcDbVertex
100
AcDb2dVertex
 10
290.6814770571535
 20
648.1878345909342
 30
0.0
  0
VERTEX
  5
3E9
330
3DB
100
AcDbEntity
  8
Make2D$可见线$普通线
100
AcDbVertex
100
AcDb2dVertex
 10
290.6666215888748
 20
648.1672053112313
 30
0.0
  0
VERTEX
  5
3EA
330
3DB
100
AcDbEntity
  8
Make2D$可见线$普通线
100
AcDbVertex
100
AcDb2dVertex
 10
290.6505729671395
 20
648.1457965663526
 30
0.0
  0
VERTEX
  5
3EB
330
3DB
100
AcDbEntity
  8
Make2D$可见线$普通线
100
AcDbVertex
100
AcDb2dVertex
 10
290.6335155837027
 20
648.1240988501527
 30
0.0
  0
VERTEX
  5
3EC
330
3DB
100
AcDbEntity
  8
Make2D$可见线$普通线
100
AcDbVertex
100
AcDb2dVertex
 10
290.615633830319
 20
648.1026026564859
 30
0.0
  0
VERTEX
  5
3ED
330
3DB
100
AcDbEntity
  8
Make2D$可见线$普通线
100
AcDbVertex
100
AcDb2dVertex
 10
290.6064414373205
 20
648.0920834099322
 30
0.0
  0
VERTEX
  5
3EE
330
3DB
100
AcDbEntity
  8
Make2D$可见线$普通线
100
AcDbVertex
100
AcDb2dVertex
 10
290.5971120987435
 20
648.0817984792072
 30
0.0
  0
VERTEX
  5
3EF
330
3DB
100
AcDbEntity
  8
Make2D$可见线$普通线
100
AcDbVertex
100
AcDb2dVertex
 10
290.5876688635572
 20
648.0718091760428
 30
0.0
  0
VERTEX
  5
3F0
330
3DB
100
AcDbEntity
  8
Make2D$可见线$普通线
100
AcDbVertex
100
AcDb2dVertex
 10
290.578134780731
 20
648.062176812171
 30
0.0
  0
VERTEX
  5
3F1
330
3DB
100
AcDbEntity
  8
Make2D$可见线$普通线
100
AcDbVertex
100
AcDb2dVertex
 10
290.5685328992344
 20
648.0529626993232
 30
0.0
  0
VERTEX
  5
3F2
330
3DB
100
AcDbEntity
  8
Make2D$可见线$普通线
100
AcDbVertex
100
AcDb2dVertex
 10
290.5588862680365
 20
648.0442281492316
 30
0.0
  0
VERTEX
  5
3F3
330
3DB
100
AcDbEntity
  8
Make2D$可见线$普通线
100
AcDbVertex
100
AcDb2dVertex
 10
290.5540533741026
 20
648.0400598701356
 30
0.0
  0
VERTEX
  5
3F4
330
3DB
100
AcDbEntity
  8
Make2D$可见线$普通线
100
AcDbVertex
100
AcDb2dVertex
 10
290.5492179361069
 20
648.0360344736278
 30
0.0
  0
VERTEX
  5
3F5
330
3DB
100
AcDbEntity
  8
Make2D$可见线$普通线
100
AcDbVertex
100
AcDb2dVertex
 10
290.5443828351706
 20
648.032159623675
 30
0.0
  0
VERTEX
  5
3F6
330
3DB
100
AcDbEntity
  8
Make2D$可见线$普通线
100
AcDbVertex
100
AcDb2dVertex
 10
290.5395509524149
 20
648.0284429842437
 30
0.0
  0
VERTEX
  5
3F7
330
3DB
100
AcDbEntity
  8
Make2D$可见线$普通线
100
AcDbVertex
100
AcDb2dVertex
 10
290.5347251689608
 20
648.0248922193002
 30
0.0
  0
VERTEX
  5
3F8
330
3DB
100
AcDbEntity
  8
Make2D$可见线$普通线
100
AcDbVertex
100
AcDb2dVertex
 10
290.5299083659297
 20
648.0215149928111
 30
0.0
  0
VERTEX
  5
3F9
330
3DB
100
AcDbEntity
  8
Make2D$可见线$普通线
100
AcDbVertex
100
AcDb2dVertex
 10
290.5251034244427
 20
648.018318968743
 30
0.0
  0
VERTEX
  5
3FA
330
3DB
100
AcDbEntity
  8
Make2D$可见线$普通线
100
AcDbVertex
100
AcDb2dVertex
 10
290.5203132256208
 20
648.015311811062
 30
0.0
  0
VERTEX
  5
3FB
330
3DB
100
AcDbEntity
  8
Make2D$可见线$普通线
100
AcDbVertex
100
AcDb2dVertex
 10
290.5155406505854
 20
648.0125011837348
 30
0.0
  0
VERTEX
  5
3FC
330
3DB
100
AcDbEntity
  8
Make2D$可见线$普通线
100
AcDbVertex
100
AcDb2dVertex
 10
290.5107885804576
 20
648.0098947507279
 30
0.0
  0
VERTEX
  5
3FD
330
3DB
100
AcDbEntity
  8
Make2D$可见线$普通线
100
AcDbVertex
100
AcDb2dVertex
 10
290.5060598963586
 20
648.0075001760077
 30
0.0
  0
VERTEX
  5
3FE
330
3DB
100
AcDbEntity
  8
Make2D$可见线$普通线
100
AcDbVertex
100
AcDb2dVertex
 10
290.5037052244202
 20
648.0063847304948
 30
0.0
  0
VERTEX
  5
3FF
330
3DB
100
AcDbEntity
  8
Make2D$可见线$普通线
100
AcDbVertex
100
AcDb2dVertex
 10
290.5013574794095
 20
648.0053251235408
 30
0.0
  0
VERTEX
  5
400
330
3DB
100
AcDbEntity
  8
Make2D$可见线$普通线
100
AcDbVertex
100
AcDb2dVertex
 10
290.4990170214666
 20
648.0043223131419
 30
0.0
  0
VERTEX
  5
401
330
3DB
100
AcDbEntity
  8
Make2D$可见线$普通线
100
AcDbVertex
100
AcDb2dVertex
 10
290.4966842107315
 20
648.0033772572936
 30
0.0
  0
VERTEX
  5
402
330
3DB
100
AcDbEntity
  8
Make2D$可见线$普通线
100
AcDbVertex
100
AcDb2dVertex
 10
290.4943594073446
 20
648.0024909139918
 30
0.0
  0
VERTEX
  5
403
330
3DB
100
AcDbEntity
  8
Make2D$可见线$普通线
100
AcDbVertex
100
AcDb2dVertex
 10
290.4920429714458
 20
648.0016642412324
 30
0.0
  0
VERTEX
  5
404
330
3DB
100
AcDbEntity
  8
Make2D$可见线$普通线
100
AcDbVertex
100
AcDb2dVertex
 10
290.4897352631754
 20
648.0008981970113
 30
0.0
  0
VERTEX
  5
405
330
3DB
100
AcDbEntity
  8
Make2D$可见线$普通线
100
AcDbVertex
100
AcDb2dVertex
 10
290.4874366426735
 20
648.000193739324
 30
0.0
  0
VERTEX
  5
406
330
3DB
100
AcDbEntity
  8
Make2D$可见线$普通线
100
AcDbVertex
100
AcDb2dVertex
 10
290.4851474700802
 20
647.9995518261666
 30
0.0
  0
VERTEX
  5
407
330
3DB
100
AcDbEntity
  8
Make2D$可见线$普通线
100
AcDbVertex
100
AcDb2dVertex
 10
290.4828681055358
 20
647.9989734155347
 30
0.0
  0
VERTEX
  5
408
330
3DB
100
AcDbEntity
  8
Make2D$可见线$普通线
100
AcDbVertex
100
AcDb2dVertex
 10
290.4805989091802
 20
647.9984594654243
 30
0.0
  0
VERTEX
  5
409
330
3DB
100
AcDbEntity
  8
Make2D$可见线$普通线
100
AcDbVertex
100
AcDb2dVertex
 10
290.4783402411538
 20
647.9980109338311
 30
0.0
  0
VERTEX
  5
40A
330
3DB
100
AcDbEntity
  8
Make2D$可见线$普通线
100
AcDbVertex
100
AcDb2dVertex
 10
290.4760924615966
 20
647.9976287787508
 30
0.0
  0
VERTEX
  5
40B
330
3DB
100
AcDbEntity
  8
Make2D$可见线$普通线
100
AcDbVertex
100
AcDb2dVertex
 10
290.4738559306488
 20
647.9973139581795
 30
0.0
  0
VERTEX
  5
40C
330
3DB
100
AcDbEntity
  8
Make2D$可见线$普通线
100
AcDbVertex
100
AcDb2dVertex
 10
290.4716310084506
 20
647.9970674301128
 30
0.0
  0
VERTEX
  5
40D
330
3DB
100
AcDbEntity
  8
Make2D$可见线$普通线
100
AcDbVertex
100
AcDb2dVertex
 10
290.4694180551419
 20
647.9968901525465
 30
0.0
  0
VERTEX
  5
40E
330
3DB
100
AcDbEntity
  8
Make2D$可见线$普通线
100
AcDbVertex
100
AcDb2dVertex
 10
290.4672174308632
 20
647.9967830834764
 30
0.0
  0
VERTEX
  5
40F
330
3DB
100
AcDbEntity
  8
Make2D$可见线$普通线
100
AcDbVertex
100
AcDb2dVertex
 10
290.4650294957544
 20
647.9967471808984
 30
0.0
  0
VERTEX
  5
410
330
3DB
100
AcDbEntity
  8
Make2D$可见线$普通线
100
AcDbVertex
100
AcDb2dVertex
 10
290.4637811150205
 20
647.996768262337
 30
0.0
  0
VERTEX
  5
411
330
3DB
100
AcDbEntity
  8
Make2D$可见线$普通线
100
AcDbVertex
100
AcDb2dVertex
 10
290.4625528559679
 20
647.996831106035
 30
0.0
  0
VERTEX
  5
412
330
3DB
100
AcDbEntity
  8
Make2D$可见线$普通线
100
AcDbVertex
100
AcDb2dVertex
 10
290.4619462210319
 20
647.9968780009417
 30
0.0
  0
VERTEX
  5
413
330
3DB
100
AcDbEntity
  8
Make2D$可见线$普通线
100
AcDbVertex
100
AcDb2dVertex
 10
290.4613445552681
 20
647.9969351110658
 30
0.0
  0
VERTEX
  5
414
330
3DB
100
AcDbEntity
  8
Make2D$可见线$普通线
100
AcDbVertex
100
AcDb2dVertex
 10
290.4607478382604
 20
647.9970023612915
 30
0.0
  0
VERTEX
  5
415
330
3DB
100
AcDbEntity
  8
Make2D$可见线$普通线
100
AcDbVertex
100
AcDb2dVertex
 10
290.460156049593
 20
647.9970796765028
 30
0.0
  0
VERTEX
  5
416
330
3DB
100
AcDbEntity
  8
Make2D$可见线$普通线
100
AcDbVertex
100
AcDb2dVertex
 10
290.4595691688496
 20
647.9971669815841
 30
0.0
  0
VERTEX
  5
417
330
3DB
100
AcDbEntity
  8
Make2D$可见线$普通线
100
AcDbVertex
100
AcDb2dVertex
 10
290.4589871756142
 20
647.9972642014193
 30
0.0
  0
VERTEX
  5
418
330
3DB
100
AcDbEntity
  8
Make2D$可见线$普通线
100
AcDbVertex
100
AcDb2dVertex
 10
290.4584100494708
 20
647.9973712608928
 30
0.0
  0
VERTEX
  5
419
330
3DB
100
AcDbEntity
  8
Make2D$可见线$普通线
100
AcDbVertex
100
AcDb2dVertex
 10
290.4578377700034
 20
647.9974880848888
 30
0.0
  0
VERTEX
  5
41A
330
3DB
100
AcDbEntity
  8
Make2D$可见线$普通线
100
AcDbVertex
100
AcDb2dVertex
 10
290.457270316796
 20
647.9976145982913
 30
0.0
  0
VERTEX
  5
41B
330
3DB
100
AcDbEntity
  8
Make2D$可见线$普通线
100
AcDbVertex
100
AcDb2dVertex
 10
290.4567076694325
 20
647.9977507259844
 30
0.0
  0
VERTEX
  5
41C
330
3DB
100
AcDbEntity
  8
Make2D$可见线$普通线
100
AcDbVertex
100
AcDb2dVertex
 10
290.4561498074968
 20
647.9978963928525
 30
0.0
  0
VERTEX
  5
41D
330
3DB
100
AcDbEntity
  8
Make2D$可见线$普通线
100
AcDbVertex
100
AcDb2dVertex
 10
290.4555967105731
 20
647.9980515237795
 30
0.0
  0
VERTEX
  5
41E
330
3DB
100
AcDbEntity
  8
Make2D$可见线$普通线
100
AcDbVertex
100
AcDb2dVertex
 10
290.4550483582452
 20
647.9982160436498
 30
0.0
  0
VERTEX
  5
41F
330
3DB
100
AcDbEntity
  8
Make2D$可见线$普通线
100
AcDbVertex
100
AcDb2dVertex
 10
290.454504730097
 20
647.9983898773477
 30
0.0
  0
VERTEX
  5
420
330
3DB
100
AcDbEntity
  8
Make2D$可见线$普通线
100
AcDbVertex
100
AcDb2dVertex
 10
290.4539658057126
 20
647.9985729497571
 30
0.0
  0
VERTEX
  5
421
330
3DB
100
AcDbEntity
  8
Make2D$可见线$普通线
100
AcDbVertex
100
AcDb2dVertex
 10
290.453431564676
 20
647.9987651857622
 30
0.0
  0
VERTEX
  5
422
330
3DB
100
AcDbEntity
  8
Make2D$可见线$普通线
100
AcDbVertex
100
AcDb2dVertex
 10
290.452901986571
 20
647.9989665102472
 30
0.0
  0
VERTEX
  5
423
330
3DB
100
AcDbEntity
  8
Make2D$可见线$普通线
100
AcDbVertex
100
AcDb2dVertex
 10
290.4523770509816
 20
647.9991768480963
 30
0.0
  0
VERTEX
  5
424
330
3DB
100
AcDbEntity
  8
Make2D$可见线$普通线
100
AcDbVertex
100
AcDb2dVertex
 10
290.4518567374918
 20
647.9993961241937
 30
0.0
  0
VERTEX
  5
425
330
3DB
100
AcDbEntity
  8
Make2D$可见线$普通线
100
AcDbVertex
100
AcDb2dVertex
 10
290.4513410256857
 20
647.9996242634236
 30
0.0
  0
VERTEX
  5
426
330
3DB
100
AcDbEntity
  8
Make2D$可见线$普通线
100
AcDbVertex
100
AcDb2dVertex
 10
290.45032332546
 20
648.0001068308172
 30
0.0
  0
VERTEX
  5
427
330
3DB
100
AcDbEntity
  8
Make2D$可见线$普通线
100
AcDbVertex
100
AcDb2dVertex
 10
290.4493237869762
 20
648.0006239493508
 30
0.0
  0
VERTEX
  5
428
330
3DB
100
AcDbEntity
  8
Make2D$可见线$普通线
100
AcDbVertex
100
AcDb2dVertex
 10
290.448342246906
 20
648.0011750180975
 30
0.0
  0
VERTEX
  5
429
330
3DB
100
AcDbEntity
  8
Make2D$可见线$普通线
100
AcDbVertex
100
AcDb2dVertex
 10
290.4473785419213
 20
648.0017594361307
 30
0.0
  0
VERTEX
  5
42A
330
3DB
100
AcDbEntity
  8
Make2D$可见线$普通线
100
AcDbVertex
100
AcDb2dVertex
 10
290.4464325086936
 20
648.0023766025238
 30
0.0
  0
VERTEX
  5
42B
330
3DB
100
AcDbEntity
  8
Make2D$可见线$普通线
100
AcDbVertex
100
AcDb2dVertex
 10
290.4455039838949
 20
648.00302591635
 30
0.0
  0
VERTEX
  5
42C
330
3DB
100
AcDbEntity
  8
Make2D$可见线$普通线
100
AcDbVertex
100
AcDb2dVertex
 10
290.4445928041966
 20
648.0037067766829
 30
0.0
  0
VERTEX
  5
42D
330
3DB
100
AcDbEntity
  8
Make2D$可见线$普通线
100
AcDbVertex
100
AcDb2dVertex
 10
290.4436988062707
 20
648.0044185825957
 30
0.0
  0
VERTEX
  5
42E
330
3DB
100
AcDbEntity
  8
Make2D$可见线$普通线
100
AcDbVertex
100
AcDb2dVertex
 10
290.4428218267888
 20
648.0051607331619
 30
0.0
  0
VERTEX
  5
42F
330
3DB
100
AcDbEntity
  8
Make2D$可见线$普通线
100
AcDbVertex
100
AcDb2dVertex
 10
290.4419617024226
 20
648.0059326274549
 30
0.0
  0
VERTEX
  5
430
330
3DB
100
AcDbEntity
  8
Make2D$可见线$普通线
100
AcDbVertex
100
AcDb2dVertex
 10
290.441118269844
 20
648.0067336645479
 30
0.0
  0
VERTEX
  5
431
330
3DB
100
AcDbEntity
  8
Make2D$可见线$普通线
100
AcDbVertex
100
AcDb2dVertex
 10
290.4402913657245
 20
648.0075632435143
 30
0.0
  0
VERTEX
  5
432
330
3DB
100
AcDbEntity
  8
Make2D$可见线$普通线
100
AcDbVertex
100
AcDb2dVertex
 10
290.439480826736
 20
648.0084207634275
 30
0.0
  0
VERTEX
  5
433
330
3DB
100
AcDbEntity
  8
Make2D$可见线$普通线
100
AcDbVertex
100
AcDb2dVertex
 10
290.4386864895502
 20
648.0093056233607
 30
0.0
  0
VERTEX
  5
434
330
3DB
100
AcDbEntity
  8
Make2D$可见线$普通线
100
AcDbVertex
100
AcDb2dVertex
 10
290.4379081908388
 20
648.0102172223876
 30
0.0
  0
VERTEX
  5
435
330
3DB
100
AcDbEntity
  8
Make2D$可见线$普通线
100
AcDbVertex
100
AcDb2dVertex
 10
290.4371457672735
 20
648.0111549595813
 30
0.0
  0
VERTEX
  5
436
330
3DB
100
AcDbEntity
  8
Make2D$可见线$普通线
100
AcDbVertex
100
AcDb2dVertex
 10
290.4363990555261
 20
648.0121182340152
 30
0.0
  0
VERTEX
  5
437
330
3DB
100
AcDbEntity
  8
Make2D$可见线$普通线
100
AcDbVertex
100
AcDb2dVertex
 10
290.4356678922683
 20
648.0131064447628
 30
0.0
  0
VERTEX
  5
438
330
3DB
100
AcDbEntity
  8
Make2D$可见线$普通线
100
AcDbVertex
100
AcDb2dVertex
 10
290.4349521141718
 20
648.0141189908973
 30
0.0
  0
VERTEX
  5
439
330
3DB
100
AcDbEntity
  8
Make2D$可见线$普通线
100
AcDbVertex
100
AcDb2dVertex
 10
290.4342515579083
 20
648.0151552714922
 30
0.0
  0
VERTEX
  5
43A
330
3DB
100
AcDbEntity
  8
Make2D$可见线$普通线
100
AcDbVertex
100
AcDb2dVertex
 10
290.4335660601496
 20
648.0162146856208
 30
0.0
  0
VERTEX
  5
43B
330
3DB
100
AcDbEntity
  8
Make2D$可见线$普通线
100
AcDbVertex
100
AcDb2dVertex
 10
290.4328954575675
 20
648.0172966323564
 30
0.0
  0
VERTEX
  5
43C
330
3DB
100
AcDbEntity
  8
Make2D$可见线$普通线
100
AcDbVertex
100
AcDb2dVertex
 10
290.4322395868336
 20
648.0184005107724
 30
0.0
  0
VERTEX
  5
43D
330
3DB
100
AcDbEntity
  8
Make2D$可见线$普通线
100
AcDbVertex
100
AcDb2dVertex
 10
290.4315982846197
 20
648.0195257199423
 30
0.0
  0
VERTEX
  5
43E
330
3DB
100
AcDbEntity
  8
Make2D$可见线$普通线
100
AcDbVertex
100
AcDb2dVertex
 10
290.4303587324386
 20
648.0218377268368
 30
0.0
  0
VERTEX
  5
43F
330
3DB
100
AcDbEntity
  8
Make2D$可见线$普通线
100
AcDbVertex
100
AcDb2dVertex
 10
290.4291754943982
 20
648.0242278456269
 30
0.0
  0
VERTEX
  5
440
330
3DB
100
AcDbEntity
  8
Make2D$可见线$普通线
100
AcDbVertex
100
AcDb2dVertex
 10
290.4280472638724
 20
648.0266912688994
 30
0.0
  0
VERTEX
  5
441
330
3DB
100
AcDbEntity
  8
Make2D$可见线$普通线
100
AcDbVertex
100
AcDb2dVertex
 10
290.4269727342348
 20
648.0292231892411
 30
0.0
  0
VERTEX
  5
442
330
3DB
100
AcDbEntity
  8
Make2D$可见线$普通线
100
AcDbVertex
100
AcDb2dVertex
 10
290.4259505988595
 20
648.0318187992392
 30
0.0
  0
VERTEX
  5
443
330
3DB
100
AcDbEntity
  8
Make2D$可见线$普通线
100
AcDbVertex
100
AcDb2dVertex
 10
290.4249795511201
 20
648.0344732914804
 30
0.0
  0
VERTEX
  5
444
330
3DB
100
AcDbEntity
  8
Make2D$可见线$普通线
100
AcDbVertex
100
AcDb2dVertex
 10
290.4240582843906
 20
648.0371818585517
 30
0.0
  0
VERTEX
  5
445
330
3DB
100
AcDbEntity
  8
Make2D$可见线$普通线
100
AcDbVertex
100
AcDb2dVertex
 10
290.4231854920447
 20
648.03993969304
 30
0.0
  0
VERTEX
  5
446
330
3DB
100
AcDbEntity
  8
Make2D$可见线$普通线
100
AcDbVertex
100
AcDb2dVertex
 10
290.4223598674563
 20
648.042741987532
 30
0.0
  0
VERTEX
  5
447
330
3DB
100
AcDbEntity
  8
Make2D$可见线$普通线
100
AcDbVertex
100
AcDb2dVertex
 10
290.4215801039993
 20
648.045583934615
 30
0.0
  0
VERTEX
  5
448
330
3DB
100
AcDbEntity
  8
Make2D$可见线$普通线
100
AcDbVertex
100
AcDb2dVertex
 10
290.4201529339747
 20
648.0513675569008
 30
0.0
  0
VERTEX
  5
449
330
3DB
100
AcDbEntity
  8
Make2D$可见线$普通线
100
AcDbVertex
100
AcDb2dVertex
 10
290.4188935289615
 20
648.0572521005927
 30
0.0
  0
VERTEX
  5
44A
330
3DB
100
AcDbEntity
  8
Make2D$可见线$普通线
100
AcDbVertex
100
AcDb2dVertex
 10
290.4177914359504
 20
648.0631991063859
 30
0.0
  0
VERTEX
  5
44B
330
3DB
100
AcDbEntity
  8
Make2D$可见线$普通线
100
AcDbVertex
100
AcDb2dVertex
 10
290.4168362019323
 20
648.0691701149758
 30
0.0
  0
VERTEX
  5
44C
330
3DB
100
AcDbEntity
  8
Make2D$可见线$普通线
100
AcDbVertex
100
AcDb2dVertex
 10
290.4160173738977
 20
648.0751266670575
 30
0.0
  0
VERTEX
  5
44D
330
3DB
100
AcDbEntity
  8
Make2D$可见线$普通线
100
AcDbVertex
100
AcDb2dVertex
 10
290.4153244988373
 20
648.0810303033264
 30
0.0
  0
VERTEX
  5
44E
330
3DB
100
AcDbEntity
  8
Make2D$可见线$普通线
100
AcDbVertex
100
AcDb2dVertex
 10
290.414274795602
 20
648.0925249912068
 30
0.0
  0
VERTEX
  5
44F
330
3DB
100
AcDbEntity
  8
Make2D$可见线$普通线
100
AcDbVertex
100
AcDb2dVertex
 10
290.4136034681521
 20
648.103346504179
 30
0.0
  0
VERTEX
  5
450
330
3DB
100
AcDbEntity
  8
Make2D$可见线$普通线
100
AcDbVertex
100
AcDb2dVertex
 10
290.4132268924133
 20
648.1131871678051
 30
0.0
  0
VERTEX
  5
451
330
3DB
100
AcDbEntity
  8
Make2D$可见线$普通线
100
AcDbVertex
100
AcDb2dVertex
 10
290.4130294347183
 20
648.1337473182296
 30
0.0
  0
VERTEX
  5
452
330
3DB
100
AcDbEntity
  8
Make2D$可见线$普通线
100
AcDbVertex
100
AcDb2dVertex
 10
290.4130294347183
 20
648.4964972381197
 30
0.0
  0
VERTEX
  5
453
330
3DB
100
AcDbEntity
  8
Make2D$可见线$普通线
100
AcDbVertex
100
AcDb2dVertex
 10
290.4127354073652
 20
648.5163347895034
 30
0.0
  0
VERTEX
  5
454
330
3DB
100
AcDbEntity
  8
Make2D$可见线$普通线
100
AcDbVertex
100
AcDb2dVertex
 10
290.4123418784041
 20
648.5264238926366
 30
0.0
  0
VERTEX
  5
455
330
3DB
100
AcDbEntity
  8
Make2D$可见线$普通线
100
AcDbVertex
100
AcDb2dVertex
 10
290.4117608994577
 20
648.5365875658856
 30
0.0
  0
VERTEX
  5
456
330
3DB
100
AcDbEntity
  8
Make2D$可见线$普通线
100
AcDbVertex
100
AcDb2dVertex
 10
290.4109751406796
 20
648.5467965731168
 30
0.0
  0
VERTEX
  5
457
330
3DB
100
AcDbEntity
  8
Make2D$可见线$普通线
100
AcDbVertex
100
AcDb2dVertex
 10
290.4099672722231
 20
648.5570216781965
 30
0.0
  0
VERTEX
  5
458
330
3DB
100
AcDbEntity
  8
Make2D$可见线$普通线
100
AcDbVertex
100
AcDb2dVertex
 10
290.4087199642415
 20
648.5672336449909
 30
0.0
  0
VERTEX
  5
459
330
3DB
100
AcDbEntity
  8
Make2D$可见线$普通线
100
AcDbVertex
100
AcDb2dVertex
 10
290.4072158868885
 20
648.5774032373661
 30
0.0
  0
VERTEX
  5
45A
330
3DB
100
AcDbEntity
  8
Make2D$可见线$普通线
100
AcDbVertex
100
AcDb2dVertex
 10
290.4054377103173
 20
648.5875012191884
 30
0.0
  0
VERTEX
  5
45B
330
3DB
100
AcDbEntity
  8
Make2D$可见线$普通线
100
AcDbVertex
100
AcDb2dVertex
 10
290.4033681046814
 20
648.5974983543242
 30
0.0
  0
VERTEX
  5
45C
330
3DB
100
AcDbEntity
  8
Make2D$可见线$普通线
100
AcDbVertex
100
AcDb2dVertex
 10
290.4009897401342
 20
648.6073654066398
 30
0.0
  0
VERTEX
  5
45D
330
3DB
100
AcDbEntity
  8
Make2D$可见线$普通线
100
AcDbVertex
100
AcDb2dVertex
 10
290.3996793576918
 20
648.6122410154481
 30
0.0
  0
VERTEX
  5
45E
330
3DB
100
AcDbEntity
  8
Make2D$可见线$普通线
100
AcDbVertex
100
AcDb2dVertex
 10
290.398285286829
 20
648.6170731400013
 30
0.0
  0
VERTEX
  5
45F
330
3DB
100
AcDbEntity
  8
Make2D$可见线$普通线
100
AcDbVertex
100
AcDb2dVertex
 10
290.3968053613152
 20
648.6218581257824
 30
0.0
  0
VERTEX
  5
460
330
3DB
100
AcDbEntity
  8
Make2D$可见线$普通线
100
AcDbVertex
100
AcDb2dVertex
 10
290.3952374149194
 20
648.6265923182748
 30
0.0
  0
VERTEX
  5
461
330
3DB
100
AcDbEntity
  8
Make2D$可见线$普通线
100
AcDbVertex
100
AcDb2dVertex
 10
290.3935792814108
 20
648.6312720629619
 30
0.0
  0
VERTEX
  5
462
330
3DB
100
AcDbEntity
  8
Make2D$可见线$普通线
100
AcDbVertex
100
AcDb2dVertex
 10
290.3918287945587
 20
648.6358937053268
 30
0.0
  0
VERTEX
  5
463
330
3DB
100
AcDbEntity
  8
Make2D$可见线$普通线
100
AcDbVertex
100
AcDb2dVertex
 10
290.3899837881322
 20
648.6404535908529
 30
0.0
  0
VERTEX
  5
464
330
3DB
100
AcDbEntity
  8
Make2D$可见线$普通线
100
AcDbVertex
100
AcDb2dVertex
 10
290.3880420959003
 20
648.6449480650234
 30
0.0
  0
VERTEX
  5
465
330
3DB
100
AcDbEntity
  8
Make2D$可见线$普通线
100
AcDbVertex
100
AcDb2dVertex
 10
290.3860015516325
 20
648.6493734733216
 30
0.0
  0
VERTEX
  5
466
330
3DB
100
AcDbEntity
  8
Make2D$可见线$普通线
100
AcDbVertex
100
AcDb2dVertex
 10
290.3838599890979
 20
648.653726161231
 30
0.0
  0
VERTEX
  5
467
330
3DB
100
AcDbEntity
  8
Make2D$可见线$普通线
100
AcDbVertex
100
AcDb2dVertex
 10
290.3816152420655
 20
648.6580024742346
 30
0.0
  0
VERTEX
  5
468
330
3DB
100
AcDbEntity
  8
Make2D$可见线$普通线
100
AcDbVertex
100
AcDb2dVertex
 10
290.3792651443046
 20
648.6621987578158
 30
0.0
  0
VERTEX
  5
469
330
3DB
100
AcDbEntity
  8
Make2D$可见线$普通线
100
AcDbVertex
100
AcDb2dVertex
 10
290.3768075295843
 20
648.6663113574577
 30
0.0
  0
VERTEX
  5
46A
330
3DB
100
AcDbEntity
  8
Make2D$可见线$普通线
100
AcDbVertex
100
AcDb2dVertex
 10
290.3742402316738
 20
648.6703366186439
 30
0.0
  0
VERTEX
  5
46B
330
3DB
100
AcDbEntity
  8
Make2D$可见线$普通线
100
AcDbVertex
100
AcDb2dVertex
 10
290.3715610843423
 20
648.6742708868576
 30
0.0
  0
VERTEX
  5
46C
330
3DB
100
AcDbEntity
  8
Make2D$可见线$普通线
100
AcDbVertex
100
AcDb2dVertex
 10
290.3687679213589
 20
648.6781105075818
 30
0.0
  0
VERTEX
  5
46D
330
3DB
100
AcDbEntity
  8
Make2D$可见线$普通线
100
AcDbVertex
100
AcDb2dVertex
 10
290.365858576493
 20
648.6818518263001
 30
0.0
  0
VERTEX
  5
46E
330
3DB
100
AcDbEntity
  8
Make2D$可见线$普通线
100
AcDbVertex
100
AcDb2dVertex
 10
290.3628308835135
 20
648.6854911884956
 30
0.0
  0
VERTEX
  5
46F
330
3DB
100
AcDbEntity
  8
Make2D$可见线$普通线
100
AcDbVertex
100
AcDb2dVertex
 10
290.3596826761898
 20
648.6890249396516
 30
0.0
  0
VERTEX
  5
470
330
3DB
100
AcDbEntity
  8
Make2D$可见线$普通线
100
AcDbVertex
100
AcDb2dVertex
 10
290.3580627027017
 20
648.6907510690535
 30
0.0
  0
VERTEX
  5
471
330
3DB
100
AcDbEntity
  8
Make2D$可见线$普通线
100
AcDbVertex
100
AcDb2dVertex
 10
290.356411788291
 20
648.6924494252517
 30
0.0
  0
VERTEX
  5
472
330
3DB
100
AcDbEntity
  8
Make2D$可见线$普通线
100
AcDbVertex
100
AcDb2dVertex
 10
290.3547296621788
 20
648.6941195514314
 30
0.0
  0
VERTEX
  5
473
330
3DB
100
AcDbEntity
  8
Make2D$可见线$普通线
100
AcDbVertex
100
AcDb2dVertex
 10
290.3530160535863
 20
648.6957609907786
 30
0.0
  0
VERTEX
  5
474
330
3DB
100
AcDbEntity
  8
Make2D$可见线$普通线
100
AcDbVertex
100
AcDb2dVertex
 10
290.3512706917345
 20
648.6973732864783
 30
0.0
  0
VERTEX
  5
475
330
3DB
100
AcDbEntity
  8
Make2D$可见线$普通线
100
AcDbVertex
100
AcDb2dVertex
 10
290.3494933058447
 20
648.6989559817159
 30
0.0
  0
VERTEX
  5
476
330
3DB
100
AcDbEntity
  8
Make2D$可见线$普通线
100
AcDbVertex
100
AcDb2dVertex
 10
290.3476836251381
 20
648.700508619677
 30
0.0
  0
VERTEX
  5
477
330
3DB
100
AcDbEntity
  8
Make2D$可见线$普通线
100
AcDbVertex
100
AcDb2dVertex
 10
290.3458413788356
 20
648.7020307435469
 30
0.0
  0
VERTEX
  5
478
330
3DB
100
AcDbEntity
  8
Make2D$可见线$普通线
100
AcDbVertex
100
AcDb2dVertex
 10
290.3439662961586
 20
648.7035218965111
 30
0.0
  0
VERTEX
  5
479
330
3DB
100
AcDbEntity
  8
Make2D$可见线$普通线
100
AcDbVertex
100
AcDb2dVertex
 10
290.3420581063281
 20
648.704981621755
 30
0.0
  0
VERTEX
  5
47A
330
3DB
100
AcDbEntity
  8
Make2D$可见线$普通线
100
AcDbVertex
100
AcDb2dVertex
 10
290.3401165385653
 20
648.7064094624639
 30
0.0
  0
VERTEX
  5
47B
330
3DB
100
AcDbEntity
  8
Make2D$可见线$普通线
100
AcDbVertex
100
AcDb2dVertex
 10
290.3381413220913
 20
648.7078049618233
 30
0.0
  0
VERTEX
  5
47C
330
3DB
100
AcDbEntity
  8
Make2D$可见线$普通线
100
AcDbVertex
100
AcDb2dVertex
 10
290.3361321861274
 20
648.7091676630184
 30
0.0
  0
VERTEX
  5
47D
330
3DB
100
AcDbEntity
  8
Make2D$可见线$普通线
100
AcDbVertex
100
AcDb2dVertex
 10
290.3340888598945
 20
648.7104971092349
 30
0.0
  0
VERTEX
  5
47E
330
3DB
100
AcDbEntity
  8
Make2D$可见线$普通线
100
AcDbVertex
100
AcDb2dVertex
 10
290.332011072614
 20
648.711792843658
 30
0.0
  0
VERTEX
  5
47F
330
3DB
100
AcDbEntity
  8
Make2D$可见线$普通线
100
AcDbVertex
100
AcDb2dVertex
 10
290.3298985535068
 20
648.7130544094734
 30
0.0
  0
VERTEX
  5
480
330
3DB
100
AcDbEntity
  8
Make2D$可见线$普通线
100
AcDbVertex
100
AcDb2dVertex
 10
290.3277510317943
 20
648.7142813498663
 30
0.0
  0
VERTEX
  5
481
330
3DB
100
AcDbEntity
  8
Make2D$可见线$普通线
100
AcDbVertex
100
AcDb2dVertex
 10
290.3255682366974
 20
648.7154732080221
 30
0.0
  0
VERTEX
  5
482
330
3DB
100
AcDbEntity
  8
Make2D$可见线$普通线
100
AcDbVertex
100
AcDb2dVertex
 10
290.3233498974375
 20
648.7166295271262
 30
0.0
  0
VERTEX
  5
483
330
3DB
100
AcDbEntity
  8
Make2D$可见线$普通线
100
AcDbVertex
100
AcDb2dVertex
 10
290.3210957432355
 20
648.717749850364
 30
0.0
  0
VERTEX
  5
484
330
3DB
100
AcDbEntity
  8
Make2D$可见线$普通线
100
AcDbVertex
100
AcDb2dVertex
 10
290.3188055033128
 20
648.718833720921
 30
0.0
  0
VERTEX
  5
485
330
3DB
100
AcDbEntity
  8
Make2D$可见线$普通线
100
AcDbVertex
100
AcDb2dVertex
 10
290.3164789068903
 20
648.7198806819827
 30
0.0
  0
VERTEX
  5
486
330
3DB
100
AcDbEntity
  8
Make2D$可见线$普通线
100
AcDbVertex
100
AcDb2dVertex
 10
290.3141156831892
 20
648.7208902767343
 30
0.0
  0
VERTEX
  5
487
330
3DB
100
AcDbEntity
  8
Make2D$可见线$普通线
100
AcDbVertex
100
AcDb2dVertex
 10
290.3117155614308
 20
648.7218620483611
 30
0.0
  0
VERTEX
  5
488
330
3DB
100
AcDbEntity
  8
Make2D$可见线$普通线
100
AcDbVertex
100
AcDb2dVertex
 10
290.3092782708362
 20
648.7227955400488
 30
0.0
  0
VERTEX
  5
489
330
3DB
100
AcDbEntity
  8
Make2D$可见线$普通线
100
AcDbVertex
100
AcDb2dVertex
 10
290.3068035406264
 20
648.7236902949828
 30
0.0
  0
VERTEX
  5
48A
330
3DB
100
AcDbEntity
  8
Make2D$可见线$普通线
100
AcDbVertex
100
AcDb2dVertex
 10
290.3042911000228
 20
648.7245458563484
 30
0.0
  0
VERTEX
  5
48B
330
3DB
100
AcDbEntity
  8
Make2D$可见线$普通线
100
AcDbVertex
100
AcDb2dVertex
 10
290.3017406782462
 20
648.725361767331
 30
0.0
  0
VERTEX
  5
48C
330
3DB
100
AcDbEntity
  8
Make2D$可见线$普通线
100
AcDbVertex
100
AcDb2dVertex
 10
290.2991520045181
 20
648.7261375711162
 30
0.0
  0
VERTEX
  5
48D
330
3DB
100
AcDbEntity
  8
Make2D$可见线$普通线
100
AcDbVertex
100
AcDb2dVertex
 10
290.2965248080594
 20
648.7268728108891
 30
0.0
  0
VERTEX
  5
48E
330
3DB
100
AcDbEntity
  8
Make2D$可见线$普通线
100
AcDbVertex
100
AcDb2dVertex
 10
290.2938588180913
 20
648.7275670298352
 30
0.0
  0
VERTEX
  5
48F
330
3DB
100
AcDbEntity
  8
Make2D$可见线$普通线
100
AcDbVertex
100
AcDb2dVertex
 10
290.291153763835
 20
648.7282197711401
 30
0.0
  0
VERTEX
  5
490
330
3DB
100
AcDbEntity
  8
Make2D$可见线$普通线
100
AcDbVertex
100
AcDb2dVertex
 10
290.2884093745117
 20
648.7288305779889
 30
0.0
  0
VERTEX
  5
491
330
3DB
100
AcDbEntity
  8
Make2D$可见线$普通线
100
AcDbVertex
100
AcDb2dVertex
 10
290.2856253793424
 20
648.7293989935674
 30
0.0
  0
VERTEX
  5
492
330
3DB
100
AcDbEntity
  8
Make2D$可见线$普通线
100
AcDbVertex
100
AcDb2dVertex
 10
290.2799374883507
 20
648.7304068236544
 30
0.0
  0
VERTEX
  5
493
330
3DB
100
AcDbEntity
  8
Make2D$可见线$普通线
100
AcDbVertex
100
AcDb2dVertex
 10
290.274087924629
 20
648.7312396068843
 30
0.0
  0
VERTEX
  5
494
330
3DB
100
AcDbEntity
  8
Make2D$可见线$普通线
100
AcDbVertex
100
AcDb2dVertex
 10
290.2680745219466
 20
648.7318936887403
 30
0.0
  0
VERTEX
  5
495
330
3DB
100
AcDbEntity
  8
Make2D$可见线$普通线
100
AcDbVertex
100
AcDb2dVertex
 10
290.2618951140726
 20
648.7323654147058
 30
0.0
  0
VERTEX
  5
496
330
3DB
100
AcDbEntity
  8
Make2D$可见线$普通线
100
AcDbVertex
100
AcDb2dVertex
 10
290.2555475347762
 20
648.732651130264
 30
0.0
  0
VERTEX
  5
497
330
3DB
100
AcDbEntity
  8
Make2D$可见线$普通线
100
AcDbVertex
100
AcDb2dVertex
 10
290.2490296178265
 20
648.7327471808983
 30
0.0
  0
VERTEX
  5
498
330
3DB
100
AcDbEntity
  8
Make2D$可见线$普通线
100
AcDbVertex
100
AcDb2dVertex
 10
290.2426591139012
 20
648.7326269466188
 30
0.0
  0
VERTEX
  5
499
330
3DB
100
AcDbEntity
  8
Make2D$可见线$普通线
100
AcDbVertex
100
AcDb2dVertex
 10
290.2362731439342
 20
648.7323801844901
 30
0.0
  0
VERTEX
  5
49A
330
3DB
100
AcDbEntity
  8
Make2D$可见线$普通线
100
AcDbVertex
100
AcDb2dVertex
 10
290.2298754171098
 20
648.7320059386448
 30
0.0
  0
VERTEX
  5
49B
330
3DB
100
AcDbEntity
  8
Make2D$可见线$普通线
100
AcDbVertex
100
AcDb2dVertex
 10
290.2234696985869
 20
648.7315033963159
 30
0.0
  0
VERTEX
  5
49C
330
3DB
100
AcDbEntity
  8
Make2D$可见线$普通线
100
AcDbVertex
100
AcDb2dVertex
 10
290.2170598026693
 20
648.7308718914253
 30
0.0
  0
VERTEX
  5
49D
330
3DB
100
AcDbEntity
  8
Make2D$可见线$普通线
100
AcDbVertex
100
AcDb2dVertex
 10
290.2106495857186
 20
648.7301109077803
 30
0.0
  0
VERTEX
  5
49E
330
3DB
100
AcDbEntity
  8
Make2D$可见线$普通线
100
AcDbVertex
100
AcDb2dVertex
 10
290.2042429388378
 20
648.7292200818649
 30
0.0
  0
VERTEX
  5
49F
330
3DB
100
AcDbEntity
  8
Make2D$可见线$普通线
100
AcDbVertex
100
AcDb2dVertex
 10
290.197843780349
 20
648.7281992052013
 30
0.0
  0
VERTEX
  5
4A0
330
3DB
100
AcDbEntity
  8
Make2D$可见线$普通线
100
AcDbVertex
100
AcDb2dVertex
 10
290.191456048099
 20
648.7270482262696
 30
0.0
  0
VERTEX
  5
4A1
330
3DB
100
AcDbEntity
  8
Make2D$可见线$普通线
100
AcDbVertex
100
AcDb2dVertex
 10
290.1850836916187
 20
648.7257672519687
 30
0.0
  0
VERTEX
  5
4A2
330
3DB
100
AcDbEntity
  8
Make2D$可见线$普通线
100
AcDbVertex
100
AcDb2dVertex
 10
290.1787306641716
 20
648.7243565486096
 30
0.0
  0
VERTEX
  5
4A3
330
3DB
100
AcDbEntity
  8
Make2D$可见线$普通线
100
AcDbVertex
100
AcDb2dVertex
 10
290.1724009147221
 20
648.7228165424265
 30
0.0
  0
VERTEX
  5
4A4
330
3DB
100
AcDbEntity
  8
Make2D$可见线$普通线
100
AcDbVertex
100
AcDb2dVertex
 10
290.1660983798581
 20
648.7211478196054
 30
0.0
  0
VERTEX
  5
4A5
330
3DB
100
AcDbEntity
  8
Make2D$可见线$普通线
100
AcDbVertex
100
AcDb2dVertex
 10
290.1598269757026
 20
648.7193511258232
 30
0.0
  0
VERTEX
  5
4A6
330
3DB
100
AcDbEntity
  8
Make2D$可见线$普通线
100
AcDbVertex
100
AcDb2dVertex
 10
290.1535905898475
 20
648.7174273652942
 30
0.0
  0
VERTEX
  5
4A7
330
3DB
100
AcDbEntity
  8
Make2D$可见线$普通线
100
AcDbVertex
100
AcDb2dVertex
 10
290.1473930733457
 20
648.715377599329
 30
0.0
  0
VERTEX
  5
4A8
330
3DB
100
AcDbEntity
  8
Make2D$可见线$普通线
100
AcDbVertex
100
AcDb2dVertex
 10
290.1412382327947
 20
648.7132030444095
 30
0.0
  0
VERTEX
  5
4A9
330
3DB
100
AcDbEntity
  8
Make2D$可见线$普通线
100
AcDbVertex
100
AcDb2dVertex
 10
290.1351298225485
 20
648.7109050697859
 30
0.0
  0
VERTEX
  5
4AA
330
3DB
100
AcDbEntity
  8
Make2D$可见线$普通线
100
AcDbVertex
100
AcDb2dVertex
 10
290.1290715370862
 20
648.7084851946062
 30
0.0
  0
VERTEX
  5
4AB
330
3DB
100
AcDbEntity
  8
Make2D$可见线$普通线
100
AcDbVertex
100
AcDb2dVertex
 10
290.1230670035758
 20
648.705945084591
 30
0.0
  0
VERTEX
  5
4AC
330
3DB
100
AcDbEntity
  8
Make2D$可见线$普通线
100
AcDbVertex
100
AcDb2dVertex
 10
290.1171197746604
 20
648.7032865482703
 30
0.0
  0
VERTEX
  5
4AD
330
3DB
100
AcDbEntity
  8
Make2D$可见线$普通线
100
AcDbVertex
100
AcDb2dVertex
 10
290.1112333214985
 20
648.7005115327958
 30
0.0
  0
VERTEX
  5
4AE
330
3DB
100
AcDbEntity
  8
Make2D$可见线$普通线
100
AcDbVertex
100
AcDb2dVertex
 10
290.1054110270857
 20
648.6976221193537
 30
0.0
  0
VERTEX
  5
4AF
330
3DB
100
AcDbEntity
  8
Make2D$可见线$普通线
100
AcDbVertex
100
AcDb2dVertex
 10
290.0996561798866
 20
648.6946205181955
 30
0.0
  0
VERTEX
  5
4B0
330
3DB
100
AcDbEntity
  8
Make2D$可见线$普通线
100
AcDbVertex
100
AcDb2dVertex
 10
290.0939719677988
 20
648.6915090633158
 30
0.0
  0
VERTEX
  5
4B1
330
3DB
100
AcDbEntity
  8
Make2D$可见线$普通线
100
AcDbVertex
100
AcDb2dVertex
 10
290.0883614724746
 20
648.6882902067978
 30
0.0
  0
VERTEX
  5
4B2
330
3DB
100
AcDbEntity
  8
Make2D$可见线$普通线
100
AcDbVertex
100
AcDb2dVertex
 10
290.0828276640165
 20
648.6849665128573
 30
0.0
  0
VERTEX
  5
4B3
330
3DB
100
AcDbEntity
  8
Make2D$可见线$普通线
100
AcDbVertex
100
AcDb2dVertex
 10
290.0773733960696
 20
648.681540651613
 30
0.0
  0
VERTEX
  5
4B4
330
3DB
100
AcDbEntity
  8
Make2D$可见线$普通线
100
AcDbVertex
100
AcDb2dVertex
 10
290.0720014013215
 20
648.6780153926134
 30
0.0
  0
VERTEX
  5
4B5
330
3DB
100
AcDbEntity
  8
Make2D$可见线$普通线
100
AcDbVertex
100
AcDb2dVertex
 10
290.0667142874261
 20
648.6743935981503
 30
0.0
  0
VERTEX
  5
4B6
330
3DB
100
AcDbEntity
  8
Make2D$可见线$普通线
100
AcDbVertex
100
AcDb2dVertex
 10
290.0615145333599
 20
648.6706782163909
 30
0.0
  0
VERTEX
  5
4B7
330
3DB
100
AcDbEntity
  8
Make2D$可见线$普通线
100
AcDbVertex
100
AcDb2dVertex
 10
290.0564044862175
 20
648.6668722743598
 30
0.0
 42
0.0640353376451646
  0
VERTEX
  5
4B8
330
3DB
100
AcDbEntity
  8
Make2D$可见线$普通线
100
AcDbVertex
100
AcDb2dVertex
 10
289.8370294347183
 20
648.4339972610081
 30
0.0
  0
VERTEX
  5
4B9
330
3DB
100
AcDbEntity
  8
Make2D$可见线$普通线
100
AcDbVertex
100
AcDb2dVertex
 10
289.8370294347183
 20
648.7779973830803
 30
0.0
  0
VERTEX
  5
4BA
330
3DB
100
AcDbEntity
  8
Make2D$可见线$普通线
100
AcDbVertex
100
AcDb2dVertex
 10
289.897071258926
 20
648.8755250372939
 30
0.0
  0
VERTEX
  5
4BB
330
3DB
100
AcDbEntity
  8
Make2D$可见线$普通线
100
AcDbVertex
100
AcDb2dVertex
 10
289.9654786457991
 20
648.9912539645236
 30
0.0
  0
VERTEX
  5
4BC
330
3DB
100
AcDbEntity
  8
Make2D$可见线$普通线
100
AcDbVertex
100
AcDb2dVertex
 10
290.0372056962608
 20
649.1201599349383
 30
0.0
  0
VERTEX
  5
4BD
330
3DB
100
AcDbEntity
  8
Make2D$可见线$普通线
100
AcDbVertex
100
AcDb2dVertex
 10
290.072737251876
 20
649.1879842395181
 30
0.0
  0
VERTEX
  5
4BE
330
3DB
100
AcDbEntity
  8
Make2D$可见线$普通线
100
AcDbVertex
100
AcDb2dVertex
 10
290.1072065112346
 20
649.2572187187075
 30
0.0
  0
VERTEX
  5
4BF
330
3DB
100
AcDbEntity
  8
Make2D$可见线$普通线
100
AcDbVertex
100
AcDb2dVertex
 10
290.139982736952
 20
649.3272353437777
 30
0.0
  0
VERTEX
  5
4C0
330
3DB
100
AcDbEntity
  8
Make2D$可见线$普通线
100
AcDbVertex
100
AcDb2dVertex
 10
290.1704351916438
 20
649.397406086
 30
0.0
  0
VERTEX
  5
4C1
330
3DB
100
AcDbEntity
  8
Make2D$可见线$普通线
100
AcDbVertex
100
AcDb2dVertex
 10
290.1845928994223
 20
649.4323529920654
 30
0.0
  0
VERTEX
  5
4C2
330
3DB
100
AcDbEntity
  8
Make2D$可见线$普通线
100
AcDbVertex
100
AcDb2dVertex
 10
290.1979331379252
 20
649.4671029166454
 30
0.0
  0
VERTEX
  5
4C3
330
3DB
100
AcDbEntity
  8
Make2D$可见线$普通线
100
AcDbVertex
100
AcDb2dVertex
 10
290.2103770649795
 20
649.501577356149
 30
0.0
  0
VERTEX
  5
4C4
330
3DB
100
AcDbEntity
  8
Make2D$可见线$普通线
100
AcDbVertex
100
AcDb2dVertex
 10
290.2218458384119
 20
649.5356978069851
 30
0.0
  0
VERTEX
  5
4C5
330
3DB
100
AcDbEntity
  8
Make2D$可见线$普通线
100
AcDbVertex
100
AcDb2dVertex
 10
290.2322606160495
 20
649.5693857655626
 30
0.0
  0
VERTEX
  5
4C6
330
3DB
100
AcDbEntity
  8
Make2D$可见线$普通线
100
AcDbVertex
100
AcDb2dVertex
 10
290.2415425557191
 20
649.6025627282903
 30
0.0
  0
VERTEX
  5
4C7
330
3DB
100
AcDbEntity
  8
Make2D$可见线$普通线
100
AcDbVertex
100
AcDb2dVertex
 10
290.2496128152477
 20
649.6351501915772
 30
0.0
  0
VERTEX
  5
4C8
330
3DB
100
AcDbEntity
  8
Make2D$可见线$普通线
100
AcDbVertex
100
AcDb2dVertex
 10
290.2531689267801
 20
649.6511983285582
 30
0.0
  0
VERTEX
  5
4C9
330
3DB
100
AcDbEntity
  8
Make2D$可见线$普通线
100
AcDbVertex
100
AcDb2dVertex
 10
290.2563925524622
 20
649.6670696518321
 30
0.0
  0
VERTEX
  5
4CA
330
3DB
100
AcDbEntity
  8
Make2D$可见线$普通线
100
AcDbVertex
100
AcDb2dVertex
 10
290.2592738370226
 20
649.6827543484503
 30
0.0
  0
VERTEX
  5
4CB
330
3DB
100
AcDbEntity
  8
Make2D$可见线$普通线
100
AcDbVertex
100
AcDb2dVertex
 10
290.2618029251896
 20
649.698242605464
 30
0.0
  0
VERTEX
  5
4CC
330
3DB
100
AcDbEntity
  8
Make2D$可见线$普通线
100
AcDbVertex
100
AcDb2dVertex
 10
290.2639699616916
 20
649.713524609924
 30
0.0
  0
VERTEX
  5
4CD
330
3DB
100
AcDbEntity
  8
Make2D$可见线$普通线
100
AcDbVertex
100
AcDb2dVertex
 10
290.2657650912569
 20
649.7285905488816
 30
0.0
  0
VERTEX
  5
4CE
330
3DB
100
AcDbEntity
  8
Make2D$可见线$普通线
100
AcDbVertex
100
AcDb2dVertex
 10
290.2671784586138
 20
649.7434306093879
 30
0.0
  0
VERTEX
  5
4CF
330
3DB
100
AcDbEntity
  8
Make2D$可见线$普通线
100
AcDbVertex
100
AcDb2dVertex
 10
290.2682002084907
 20
649.7580349784939
 30
0.0
  0
VERTEX
  5
4D0
330
3DB
100
AcDbEntity
  8
Make2D$可见线$普通线
100
AcDbVertex
100
AcDb2dVertex
 10
290.2688204856162
 20
649.7723938432508
 30
0.0
  0
VERTEX
  5
4D1
330
3DB
100
AcDbEntity
  8
Make2D$可见线$普通线
100
AcDbVertex
100
AcDb2dVertex
 10
290.2690294347183
 20
649.7864973907099
 30
0.0
  0
VERTEX
  5
4D2
330
3DB
100
AcDbEntity
  8
Make2D$可见线$普通线
100
AcDbVertex
100
AcDb2dVertex
 10
290.2688974903597
 20
649.7988931582586
 30
0.0
  0
VERTEX
  5
4D3
330
3DB
100
AcDbEntity
  8
Make2D$可见线$普通线
100
AcDbVertex
100
AcDb2dVertex
 10
290.2684938902975
 20
649.8111342095922
 30
0.0
  0
VERTEX
  5
4D4
330
3DB
100
AcDbEntity
  8
Make2D$可见线$普通线
100
AcDbVertex
100
AcDb2dVertex
 10
290.2678069840518
 20
649.8232048843216
 30
0.0
  0
VERTEX
  5
4D5
330
3DB
100
AcDbEntity
  8
Make2D$可见线$普通线
100
AcDbVertex
100
AcDb2dVertex
 10
290.2668251211428
 20
649.8350895220581
 30
0.0
  0
VERTEX
  5
4D6
330
3DB
100
AcDbEntity
  8
Make2D$可见线$普通线
100
AcDbVertex
100
AcDb2dVertex
 10
290.2655366510908
 20
649.8467724624127
 30
0.0
  0
VERTEX
  5
4D7
330
3DB
100
AcDbEntity
  8
Make2D$可见线$普通线
100
AcDbVertex
100
AcDb2dVertex
 10
290.2639299234157
 20
649.8582380449967
 30
0.0
  0
VERTEX
  5
4D8
330
3DB
100
AcDbEntity
  8
Make2D$可见线$普通线
100
AcDbVertex
100
AcDb2dVertex
 10
290.261993287638
 20
649.8694706094213
 30
0.0
  0
VERTEX
  5
4D9
330
3DB
100
AcDbEntity
  8
Make2D$可见线$普通线
100
AcDbVertex
100
AcDb2dVertex
 10
290.2608976134358
 20
649.8749946159523
 30
0.0
  0
VERTEX
  5
4DA
330
3DB
100
AcDbEntity
  8
Make2D$可见线$普通线
100
AcDbVertex
100
AcDb2dVertex
 10
290.2597150932778
 20
649.8804544952977
 30
0.0
  0
VERTEX
  5
4DB
330
3DB
100
AcDbEntity
  8
Make2D$可见线$普通线
100
AcDbVertex
100
AcDb2dVertex
 10
290.2584442708544
 20
649.8858482899088
 30
0.0
  0
VERTEX
  5
4DC
330
3DB
100
AcDbEntity
  8
Make2D$可见线$普通线
100
AcDbVertex
100
AcDb2dVertex
 10
290.2570836898553
 20
649.8911740422369
 30
0.0
  0
VERTEX
  5
4DD
330
3DB
100
AcDbEntity
  8
Make2D$可见线$普通线
100
AcDbVertex
100
AcDb2dVertex
 10
290.2556318939708
 20
649.8964297947336
 30
0.0
  0
VERTEX
  5
4DE
330
3DB
100
AcDbEntity
  8
Make2D$可见线$普通线
100
AcDbVertex
100
AcDb2dVertex
 10
290.2540874268907
 20
649.9016135898503
 30
0.0
  0
VERTEX
  5
4DF
330
3DB
100
AcDbEntity
  8
Make2D$可见线$普通线
100
AcDbVertex
100
AcDb2dVertex
 10
290.2524488323052
 20
649.9067234700383
 30
0.0
  0
VERTEX
  5
4E0
330
3DB
100
AcDbEntity
  8
Make2D$可见线$普通线
100
AcDbVertex
100
AcDb2dVertex
 10
290.2507146539041
 20
649.9117574777489
 30
0.0
  0
VERTEX
  5
4E1
330
3DB
100
AcDbEntity
  8
Make2D$可见线$普通线
100
AcDbVertex
100
AcDb2dVertex
 10
290.2488834353777
 20
649.9167136554337
 30
0.0
  0
VERTEX
  5
4E2
330
3DB
100
AcDbEntity
  8
Make2D$可见线$普通线
100
AcDbVertex
100
AcDb2dVertex
 10
290.2469537204158
 20
649.921590045544
 30
0.0
  0
VERTEX
  5
4E3
330
3DB
100
AcDbEntity
  8
Make2D$可见线$普通线
100
AcDbVertex
100
AcDb2dVertex
 10
290.2449240527086
 20
649.9263846905312
 30
0.0
  0
VERTEX
  5
4E4
330
3DB
100
AcDbEntity
  8
Make2D$可见线$普通线
100
AcDbVertex
100
AcDb2dVertex
 10
290.242792975946
 20
649.9310956328466
 30
0.0
  0
VERTEX
  5
4E5
330
3DB
100
AcDbEntity
  8
Make2D$可见线$普通线
100
AcDbVertex
100
AcDb2dVertex
 10
290.240559033818
 20
649.9357209149418
 30
0.0
  0
VERTEX
  5
4E6
330
3DB
100
AcDbEntity
  8
Make2D$可见线$普通线
100
AcDbVertex
100
AcDb2dVertex
 10
290.2382207700148
 20
649.940258579268
 30
0.0
  0
VERTEX
  5
4E7
330
3DB
100
AcDbEntity
  8
Make2D$可见线$普通线
100
AcDbVertex
100
AcDb2dVertex
 10
290.2357767282263
 20
649.9447066682766
 30
0.0
  0
VERTEX
  5
4E8
330
3DB
100
AcDbEntity
  8
Make2D$可见线$普通线
100
AcDbVertex
100
AcDb2dVertex
 10
290.2332254521424
 20
649.9490632244192
 30
0.0
  0
VERTEX
  5
4E9
330
3DB
100
AcDbEntity
  8
Make2D$可见线$普通线
100
AcDbVertex
100
AcDb2dVertex
 10
290.2305654854534
 20
649.9533262901471
 30
0.0
  0
VERTEX
  5
4EA
330
3DB
100
AcDbEntity
  8
Make2D$可见线$普通线
100
AcDbVertex
100
AcDb2dVertex
 10
290.2277953718491
 20
649.9574939079116
 30
0.0
  0
VERTEX
  5
4EB
330
3DB
100
AcDbEntity
  8
Make2D$可见线$普通线
100
AcDbVertex
100
AcDb2dVertex
 10
290.2249136550196
 20
649.9615641201643
 30
0.0
  0
VERTEX
  5
4EC
330
3DB
100
AcDbEntity
  8
Make2D$可见线$普通线
100
AcDbVertex
100
AcDb2dVertex
 10
290.2219188786549
 20
649.9655349693563
 30
0.0
  0
VERTEX
  5
4ED
330
3DB
100
AcDbEntity
  8
Make2D$可见线$普通线
100
AcDbVertex
100
AcDb2dVertex
 10
290.2188095864452
 20
649.9694044979394
 30
0.0
  0
VERTEX
  5
4EE
330
3DB
100
AcDbEntity
  8
Make2D$可见线$普通线
100
AcDbVertex
100
AcDb2dVertex
 10
290.2155843220803
 20
649.9731707483645
 30
0.0
  0
VERTEX
  5
4EF
330
3DB
100
AcDbEntity
  8
Make2D$可见线$普通线
100
AcDbVertex
100
AcDb2dVertex
 10
290.2122416292503
 20
649.9768317630833
 30
0.0
  0
VERTEX
  5
4F0
330
3DB
100
AcDbEntity
  8
Make2D$可见线$普通线
100
AcDbVertex
100
AcDb2dVertex
 10
290.2087800516452
 20
649.9803855845473
 30
0.0
  0
VERTEX
  5
4F1
330
3DB
100
AcDbEntity
  8
Make2D$可见线$普通线
100
AcDbVertex
100
AcDb2dVertex
 10
290.2051981329552
 20
649.9838302552077
 30
0.0
  0
VERTEX
  5
4F2
330
3DB
100
AcDbEntity
  8
Make2D$可见线$普通线
100
AcDbVertex
100
AcDb2dVertex
 10
290.20149441687
 20
649.9871638175159
 30
0.0
  0
VERTEX
  5
4F3
330
3DB
100
AcDbEntity
  8
Make2D$可见线$普通线
100
AcDbVertex
100
AcDb2dVertex
 10
290.1976674470799
 20
649.9903843139233
 30
0.0
  0
VERTEX
  5
4F4
330
3DB
100
AcDbEntity
  8
Make2D$可见线$普通线
100
AcDbVertex
100
AcDb2dVertex
 10
290.1937157672747
 20
649.9934897868814
 30
0.0
  0
VERTEX
  5
4F5
330
3DB
100
AcDbEntity
  8
Make2D$可见线$普通线
100
AcDbVertex
100
AcDb2dVertex
 10
290.1896379211447
 20
649.9964782788416
 30
0.0
  0
VERTEX
  5
4F6
330
3DB
100
AcDbEntity
  8
Make2D$可见线$普通线
100
AcDbVertex
100
AcDb2dVertex
 10
290.1854324523797
 20
649.9993478322551
 30
0.0
  0
VERTEX
  5
4F7
330
3DB
100
AcDbEntity
  8
Make2D$可见线$普通线
100
AcDbVertex
100
AcDb2dVertex
 10
290.1810979046699
 20
650.0020964895734
 30
0.0
  0
VERTEX
  5
4F8
330
3DB
100
AcDbEntity
  8
Make2D$可见线$普通线
100
AcDbVertex
100
AcDb2dVertex
 10
290.1766328217051
 20
650.004722293248
 30
0.0
  0
VERTEX
  5
4F9
330
3DB
100
AcDbEntity
  8
Make2D$可见线$普通线
100
AcDbVertex
100
AcDb2dVertex
 10
290.1720357471755
 20
650.0072232857303
 30
0.0
  0
VERTEX
  5
4FA
330
3DB
100
AcDbEntity
  8
Make2D$可见线$普通线
100
AcDbVertex
100
AcDb2dVertex
 10
290.167305224771
 20
650.0095975094716
 30
0.0
  0
VERTEX
  5
4FB
330
3DB
100
AcDbEntity
  8
Make2D$可见线$普通线
100
AcDbVertex
100
AcDb2dVertex
 10
290.1624397981817
 20
650.0118430069233
 30
0.0
  0
VERTEX
  5
4FC
330
3DB
100
AcDbEntity
  8
Make2D$可见线$普通线
100
AcDbVertex
100
AcDb2dVertex
 10
290.1574380110976
 20
650.0139578205369
 30
0.0
  0
VERTEX
  5
4FD
330
3DB
100
AcDbEntity
  8
Make2D$可见线$普通线
100
AcDbVertex
100
AcDb2dVertex
 10
290.1522984072088
 20
650.0159399927636
 30
0.0
  0
VERTEX
  5
4FE
330
3DB
100
AcDbEntity
  8
Make2D$可见线$普通线
100
AcDbVertex
100
AcDb2dVertex
 10
290.1470195302053
 20
650.0177875660548
 30
0.0
  0
VERTEX
  5
4FF
330
3DB
100
AcDbEntity
  8
Make2D$可见线$普通线
100
AcDbVertex
100
AcDb2dVertex
 10
290.1415999237771
 20
650.0194985828621
 30
0.0
  0
VERTEX
  5
500
330
3DB
100
AcDbEntity
  8
Make2D$可见线$普通线
100
AcDbVertex
100
AcDb2dVertex
 10
290.1360381316141
 20
650.0210710856368
 30
0.0
  0
VERTEX
  5
501
330
3DB
100
AcDbEntity
  8
Make2D$可见线$普通线
100
AcDbVertex
100
AcDb2dVertex
 10
290.1303326974065
 20
650.0225031168304
 30
0.0
  0
VERTEX
  5
502
330
3DB
100
AcDbEntity
  8
Make2D$可见线$普通线
100
AcDbVertex
100
AcDb2dVertex
 10
290.1244821648443
 20
650.0237927188941
 30
0.0
  0
VERTEX
  5
503
330
3DB
100
AcDbEntity
  8
Make2D$可见线$普通线
100
AcDbVertex
100
AcDb2dVertex
 10
290.1184850776174
 20
650.0249379342795
 30
0.0
  0
VERTEX
  5
504
330
3DB
100
AcDbEntity
  8
Make2D$可见线$普通线
100
AcDbVertex
100
AcDb2dVertex
 10
290.112339979416
 20
650.0259368054378
 30
0.0
  0
VERTEX
  5
505
330
3DB
100
AcDbEntity
  8
Make2D$可见线$普通线
100
AcDbVertex
100
AcDb2dVertex
 10
290.10604541393
 20
650.0267873748205
 30
0.0
  0
VERTEX
  5
506
330
3DB
100
AcDbEntity
  8
Make2D$可见线$普通线
100
AcDbVertex
100
AcDb2dVertex
 10
290.0995999248494
 20
650.0274876848789
 30
0.0
  0
VERTEX
  5
507
330
3DB
100
AcDbEntity
  8
Make2D$可见线$普通线
100
AcDbVertex
100
AcDb2dVertex
 10
290.0930020558644
 20
650.0280357780646
 30
0.0
  0
VERTEX
  5
508
330
3DB
100
AcDbEntity
  8
Make2D$可见线$普通线
100
AcDbVertex
100
AcDb2dVertex
 10
290.0862503506648
 20
650.0284296968287
 30
0.0
  0
VERTEX
  5
509
330
3DB
100
AcDbEntity
  8
Make2D$可见线$普通线
100
AcDbVertex
100
AcDb2dVertex
 10
290.0793433529408
 20
650.0286674836228
 30
0.0
  0
VERTEX
  5
50A
330
3DB
100
AcDbEntity
  8
Make2D$可见线$普通线
100
AcDbVertex
100
AcDb2dVertex
 10
290.0722796063823
 20
650.0287471808984
 30
0.0
 42
0.243376210483269
  0
VERTEX
  5
50B
330
3DB
100
AcDbEntity
  8
Make2D$可见线$普通线
100
AcDbVertex
100
AcDb2dVertex
 10
289.7840294804953
 20
649.8677472877116
 30
0.0
 42
0.1664396334696614
  0
VERTEX
  5
50C
330
3DB
100
AcDbEntity
  8
Make2D$可见线$普通线
100
AcDbVertex
100
AcDb2dVertex
 10
289.6610294347184
 20
649.4554972228607
 30
0.0
  0
VERTEX
  5
50D
330
3DB
100
AcDbEntity
  8
Make2D$可见线$普通线
100
AcDbVertex
100
AcDb2dVertex
 10
289.6610294347183
 20
648.7425924469171
 30
0.0
  0
VERTEX
  5
50E
330
3DB
100
AcDbEntity
  8
Make2D$可见线$普通线
100
AcDbVertex
100
AcDb2dVertex
 10
289.6610294347183
 20
648.691247280082
 30
0.0
 42
-0.053440684452934
  0
VERTEX
  5
50F
330
3DB
100
AcDbEntity
  8
Make2D$可见线$普通线
100
AcDbVertex
100
AcDb2dVertex
 10
289.5980294499773
 20
648.5356223468402
 30
0.0
  0
VERTEX
  5
510
330
3DB
100
AcDbEntity
  8
Make2D$可见线$普通线
100
AcDbVertex
100
AcDb2dVertex
 10
289.4215462000093
 20
648.2203161361587
 30
0.0
  0
VERTEX
  5
511
330
3DB
100
AcDbEntity
  8
Make2D$可见线$普通线
100
AcDbVertex
100
AcDb2dVertex
 10
289.4737819331855
 20
648.1767504540826
 30
0.0
 42
0.0472899754220267
  0
VERTEX
  5
512
330
3DB
100
AcDbEntity
  8
Make2D$可见线$普通线
100
AcDbVertex
100
AcDb2dVertex
 10
289.6610294347183
 20
648.4879973525624
 30
0.0
  0
VERTEX
  5
513
330
3DB
100
AcDbEntity
  8
Make2D$可见线$普通线
100
AcDbVertex
100
AcDb2dVertex
 10
289.6610294347183
 20
647.8527471808984
 30
0.0
  0
VERTEX
  5
514
330
3DB
100
AcDbEntity
  8
Make2D$可见线$普通线
100
AcDbVertex
100
AcDb2dVertex
 10
289.8370294347183
 20
647.9667472114163
 30
0.0
  0
SEQEND
  5
515
330
3DB
100
AcDbEntity
  8
Make2D$可见线$普通线
  0
POLYLINE
  5
516
330
1F
100
AcDbEntity
  8
Make2D$可见线$普通线
100
AcDb2dPolyline
 66
     1
 10
0.0
 20
0.0
 30
0.0
  0
VERTEX
  5
517
330
516
100
AcDbEntity
  8
Make2D$可见线$普通线
100
AcDbVertex
100
AcDb2dVertex
 10
288.8377795682347
 20
649.7087471808983
 30
0.0
 42
0.2360225173005774
  0
VERTEX
  5
518
330
516
100
AcDbEntity
  8
Make2D$可见线$普通线
100
AcDbVertex
100
AcDb2dVertex
 10
288.5890294347184
 20
649.3149972762671
 30
0.0
 42
0.2100001261832591
  0
VERTEX
  5
519
330
516
100
AcDbEntity
  8
Make2D$可见线$普通线
100
AcDbVertex
100
AcDb2dVertex
 10
288.6727794919396
 20
649.102372205694
 30
0.0
 42
0.2021687024681267
  0
VERTEX
  5
51A
330
516
100
AcDbEntity
  8
Make2D$可见线$普通线
100
AcDbVertex
100
AcDb2dVertex
 10
288.888529610197
 20
649.0207471808984
 30
0.0
 42
0.2155064334708336
  0
VERTEX
  5
51B
330
516
100
AcDbEntity
  8
Make2D$可见线$普通线
100
AcDbVertex
100
AcDb2dVertex
 10
289.373279438533
 20
649.2648722438418
 30
0.0
 42
0.1939903211128704
  0
VERTEX
  5
51C
330
516
100
AcDbEntity
  8
Make2D$可见线$普通线
100
AcDbVertex
100
AcDb2dVertex
 10
289.5970294347183
 20
649.8172473716361
 30
0.0
 42
0.2126553999474302
  0
VERTEX
  5
51D
330
516
100
AcDbEntity
  8
Make2D$可见线$普通线
100
AcDbVertex
100
AcDb2dVertex
 10
289.4695294423478
 20
650.1479972915263
 30
0.0
 42
0.1957064698473764
  0
VERTEX
  5
51E
330
516
100
AcDbEntity
  8
Make2D$可见线$普通线
100
AcDbVertex
100
AcDb2dVertex
 10
289.1242795453462
 20
650.2687471808982
 30
0.0
 42
0.1495497568752006
  0
VERTEX
  5
51F
330
516
100
AcDbEntity
  8
Make2D$可见线$普通线
100
AcDbVertex
100
AcDb2dVertex
 10
288.5527393511626
 20
650.0796309811282
 30
0.0
 42
0.1248577886580549
  0
VERTEX
  5
520
330
516
100
AcDbEntity
  8
Make2D$可见线$普通线
100
AcDbVertex
100
AcDb2dVertex
 10
288.0510295262725
 20
649.520247234305
 30
0.0
 42
0.1412849231581782
  0
VERTEX
  5
521
330
516
100
AcDbEntity
  8
Make2D$可见线$普通线
100
AcDbVertex
100
AcDb2dVertex
 10
287.8716170110462
 20
648.7425924469171
 30
0.0
 42
0.322277286342914
  0
VERTEX
  5
522
330
516
100
AcDbEntity
  8
Make2D$可见线$普通线
100
AcDbVertex
100
AcDb2dVertex
 10
288.4825394744264
 20
647.9288172612179
 30
0.0
 42
0.0734450712118659
  0
VERTEX
  5
523
330
516
100
AcDbEntity
  8
Make2D$可见线$普通线
100
AcDbVertex
100
AcDb2dVertex
 10
288.8027795224576
 20
647.8847471808983
 30
0.0
 42
0.1121989264264614
  0
VERTEX
  5
524
330
516
100
AcDbEntity
  8
Make2D$可见线$普通线
100
AcDbVertex
100
AcDb2dVertex
 10
289.2336546273634
 20
647.9679972304901
 30
0.0
 42
0.1305989756232418
  0
VERTEX
  5
525
330
516
100
AcDbEntity
  8
Make2D$可见线$普通线
100
AcDbVertex
100
AcDb2dVertex
 10
289.5330294347183
 20
648.2427472724524
 30
0.0
  0
VERTEX
  5
526
330
516
100
AcDbEntity
  8
Make2D$可见线$普通线
100
AcDbVertex
100
AcDb2dVertex
 10
289.4750295262725
 20
648.2847471808983
 30
0.0
 42
-0.1253768135453102
  0
VERTEX
  5
527
330
516
100
AcDbEntity
  8
Make2D$可见线$普通线
100
AcDbVertex
100
AcDb2dVertex
 10
289.2496545052912
 20
648.0626222095091
 30
0.0
 42
-0.1215611017527427
  0
VERTEX
  5
528
330
516
100
AcDbEntity
  8
Make2D$可见线$普通线
100
AcDbVertex
100
AcDb2dVertex
 10
288.9400296636036
 20
647.9967471808983
 30
0.0
 42
-0.1676244003868563
  0
VERTEX
  5
529
330
516
100
AcDbEntity
  8
Make2D$可见线$普通线
100
AcDbVertex
100
AcDb2dVertex
 10
288.4631548557645
 20
648.1512211950774
 30
0.0
 42
-0.0554519237678335
  0
VERTEX
  5
52A
330
516
100
AcDbEntity
  8
Make2D$可见线$普通线
100
AcDbVertex
100
AcDb2dVertex
 10
288.3217795071988
 20
648.2863722056943
 30
0.0
 42
-0.1272113715185404
  0
VERTEX
  5
52B
330
516
100
AcDbEntity
  8
Make2D$可见线$普通线
100
AcDbVertex
100
AcDb2dVertex
 10
288.1030654401647
 20
648.7425924469171
 30
0.0
 42
-0.0508350023161816
  0
VERTEX
  5
52C
330
516
100
AcDbEntity
  8
Make2D$可见线$普通线
100
AcDbVertex
100
AcDb2dVertex
 10
288.0770294347183
 20
649.0107472724525
 30
0.0
 42
-0.1757209423417208
  0
VERTEX
  5
52D
330
516
100
AcDbEntity
  8
Make2D$可见线$普通线
100
AcDbVertex
100
AcDb2dVertex
 10
288.3480295415314
 20
649.8198722896188
 30
0.0
 42
-0.0629690698651171
  0
VERTEX
  5
52E
330
516
100
AcDbEntity
  8
Make2D$可见线$普通线
100
AcDbVertex
100
AcDb2dVertex
 10
288.5413675389117
 20
650.0098842539091
 30
0.0
 42
-0.1658297418362797
  0
VERTEX
  5
52F
330
516
100
AcDbEntity
  8
Make2D$可见线$普通线
100
AcDbVertex
100
AcDb2dVertex
 10
288.9697796292709
 20
650.1567471808983
 30
0.0
 42
-0.2098636572138438
  0
VERTEX
  5
530
330
516
100
AcDbEntity
  8
Make2D$可见线$普通线
100
AcDbVertex
100
AcDb2dVertex
 10
289.3085295491609
 20
650.0244972381198
 30
0.0
 42
-0.2009662060929773
  0
VERTEX
  5
531
330
516
100
AcDbEntity
  8
Make2D$可见线$普通线
100
AcDbVertex
100
AcDb2dVertex
 10
289.4370294347183
 20
649.6747473945246
 30
0.0
 42
-0.1807464254291956
  0
VERTEX
  5
532
330
516
100
AcDbEntity
  8
Make2D$可见线$普通线
100
AcDbVertex
100
AcDb2dVertex
 10
289.3046544900322
 20
649.2913722819894
 30
0.0
  0
VERTEX
  5
533
330
516
100
AcDbEntity
  8
Make2D$可见线$普通线
100
AcDbVertex
100
AcDb2dVertex
 10
289.2981888788801
 20
649.2828337896993
 30
0.0
  0
VERTEX
  5
534
330
516
100
AcDbEntity
  8
Make2D$可见线$普通线
100
AcDbVertex
100
AcDb2dVertex
 10
289.2914504085778
 20
649.274426718294
 30
0.0
  0
VERTEX
  5
535
330
516
100
AcDbEntity
  8
Make2D$可见线$普通线
100
AcDbVertex
100
AcDb2dVertex
 10
289.2844424340323
 20
649.2661635041162
 30
0.0
  0
VERTEX
  5
536
330
516
100
AcDbEntity
  8
Make2D$可见线$普通线
100
AcDbVertex
100
AcDb2dVertex
 10
289.2771690393413
 20
649.2580565161579
 30
0.0
  0
VERTEX
  5
537
330
516
100
AcDbEntity
  8
Make2D$可见线$普通线
100
AcDbVertex
100
AcDb2dVertex
 10
289.2696350411941
 20
649.25011800401
 30
0.0
  0
VERTEX
  5
538
330
516
100
AcDbEntity
  8
Make2D$可见线$普通线
100
AcDbVertex
100
AcDb2dVertex
 10
289.2618459879016
 20
649.2423600448869
 30
0.0
  0
VERTEX
  5
539
330
516
100
AcDbEntity
  8
Make2D$可见线$普通线
100
AcDbVertex
100
AcDb2dVertex
 10
289.2538081539065
 20
649.2347944901504
 30
0.0
  0
VERTEX
  5
53A
330
516
100
AcDbEntity
  8
Make2D$可见线$普通线
100
AcDbVertex
100
AcDb2dVertex
 10
289.2455285296726
 20
649.227432911772
 30
0.0
  0
VERTEX
  5
53B
330
516
100
AcDbEntity
  8
Make2D$可见线$普通线
100
AcDbVertex
100
AcDb2dVertex
 10
289.2370148068999
 20
649.2202865492019
 30
0.0
  0
VERTEX
  5
53C
330
516
100
AcDbEntity
  8
Make2D$可见线$普通线
100
AcDbVertex
100
AcDb2dVertex
 10
289.2282753590652
 20
649.2133662571101
 30
0.0
  0
VERTEX
  5
53D
330
516
100
AcDbEntity
  8
Make2D$可见线$普通线
100
AcDbVertex
100
AcDb2dVertex
 10
289.2193192173431
 20
649.2066824544812
 30
0.0
  0
VERTEX
  5
53E
330
516
100
AcDbEntity
  8
Make2D$可见线$普通线
100
AcDbVertex
100
AcDb2dVertex
 10
289.2101560420162
 20
649.2002450755294
 30
0.0
  0
VERTEX
  5
53F
330
516
100
AcDbEntity
  8
Make2D$可见线$普通线
100
AcDbVertex
100
AcDb2dVertex
 10
289.200796089538
 20
649.1940635229032
 30
0.0
  0
VERTEX
  5
540
330
516
100
AcDbEntity
  8
Make2D$可见线$普通线
100
AcDbVertex
100
AcDb2dVertex
 10
289.1912501754674
 20
649.188146623619
 30
0.0
  0
VERTEX
  5
541
330
516
100
AcDbEntity
  8
Make2D$可见线$普通线
100
AcDbVertex
100
AcDb2dVertex
 10
289.181529633544
 20
649.1825025881486
 30
0.0
  0
VERTEX
  5
542
330
516
100
AcDbEntity
  8
Make2D$可见线$普通线
100
AcDbVertex
100
AcDb2dVertex
 10
289.1716462712221
 20
649.1771389730472
 30
0.0
  0
VERTEX
  5
543
330
516
100
AcDbEntity
  8
Make2D$可见线$普通线
100
AcDbVertex
100
AcDb2dVertex
 10
289.1616123220278
 20
649.1720626474756
 30
0.0
  0
VERTEX
  5
544
330
516
100
AcDbEntity
  8
Make2D$可见线$普通线
100
AcDbVertex
100
AcDb2dVertex
 10
289.1514403951385
 20
649.1672797639274
 30
0.0
  0
VERTEX
  5
545
330
516
100
AcDbEntity
  8
Make2D$可见线$普通线
100
AcDbVertex
100
AcDb2dVertex
 10
289.1411434226232
 20
649.1627957334189
 30
0.0
  0
VERTEX
  5
546
330
516
100
AcDbEntity
  8
Make2D$可见线$普通线
100
AcDbVertex
100
AcDb2dVertex
 10
289.1307346048052
 20
649.1586152053545
 30
0.0
  0
VERTEX
  5
547
330
516
100
AcDbEntity
  8
Make2D$可见线$普通线
100
AcDbVertex
100
AcDb2dVertex
 10
289.1202273542301
 20
649.1547420522215
 30
0.0
  0
VERTEX
  5
548
330
516
100
AcDbEntity
  8
Make2D$可见线$普通线
100
AcDbVertex
100
AcDb2dVertex
 10
289.1096352387359
 20
649.151179359211
 30
0.0
  0
VERTEX
  5
549
330
516
100
AcDbEntity
  8
Make2D$可见线$普通线
100
AcDbVertex
100
AcDb2dVertex
 10
289.0989719241266
 20
649.147929418807
 30
0.0
  0
VERTEX
  5
54A
330
516
100
AcDbEntity
  8
Make2D$可见线$普通线
100
AcDbVertex
100
AcDb2dVertex
 10
289.0882511169479
 20
649.1449937303231
 30
0.0
  0
VERTEX
  5
54B
330
516
100
AcDbEntity
  8
Make2D$可见线$普通线
100
AcDbVertex
100
AcDb2dVertex
 10
289.0774865078572
 20
649.1423730043172
 30
0.0
  0
VERTEX
  5
54C
330
516
100
AcDbEntity
  8
Make2D$可见线$普通线
100
AcDbVertex
100
AcDb2dVertex
 10
289.0666917160582
 20
649.1400671717508
 30
0.0
  0
VERTEX
  5
54D
330
516
100
AcDbEntity
  8
Make2D$可见线$普通线
100
AcDbVertex
100
AcDb2dVertex
 10
289.0558802352552
 20
649.138075397719
 30
0.0
  0
VERTEX
  5
54E
330
516
100
AcDbEntity
  8
Make2D$可见线$普通线
100
AcDbVertex
100
AcDb2dVertex
 10
289.0450653815456
 20
649.136396099519
 30
0.0
  0
VERTEX
  5
54F
330
516
100
AcDbEntity
  8
Make2D$可见线$普通线
100
AcDbVertex
100
AcDb2dVertex
 10
289.0342602436406
 20
649.135026968795
 30
0.0
  0
VERTEX
  5
550
330
516
100
AcDbEntity
  8
Make2D$可见线$普通线
100
AcDbVertex
100
AcDb2dVertex
 10
289.0234776357634
 20
649.1339649974485
 30
0.0
  0
VERTEX
  5
551
330
516
100
AcDbEntity
  8
Make2D$可见线$普通线
100
AcDbVertex
100
AcDb2dVertex
 10
289.0127300535311
 20
649.1332065069798
 30
0.0
  0
VERTEX
  5
552
330
516
100
AcDbEntity
  8
Make2D$可见线$普通线
100
AcDbVertex
100
AcDb2dVertex
 10
289.0020296330856
 20
649.1327471808984
 30
0.0
  0
VERTEX
  5
553
330
516
100
AcDbEntity
  8
Make2D$可见线$普通线
100
AcDbVertex
100
AcDb2dVertex
 10
288.9959111871621
 20
649.1326360963927
 30
0.0
  0
VERTEX
  5
554
330
516
100
AcDbEntity
  8
Make2D$可见线$普通线
100
AcDbVertex
100
AcDb2dVertex
 10
288.989761809266
 20
649.132678764278
 30
0.0
  0
VERTEX
  5
555
330
516
100
AcDbEntity
  8
Make2D$可见线$普通线
100
AcDbVertex
100
AcDb2dVertex
 10
288.9835871411124
 20
649.1328773486074
 30
0.0
  0
VERTEX
  5
556
330
516
100
AcDbEntity
  8
Make2D$可见线$普通线
100
AcDbVertex
100
AcDb2dVertex
 10
288.9773929793301
 20
649.1332337437012
 30
0.0
  0
VERTEX
  5
557
330
516
100
AcDbEntity
  8
Make2D$可见线$普通线
100
AcDbVertex
100
AcDb2dVertex
 10
288.9711852596644
 20
649.1337495617934
 30
0.0
  0
VERTEX
  5
558
330
516
100
AcDbEntity
  8
Make2D$可见线$普通线
100
AcDbVertex
100
AcDb2dVertex
 10
288.9649700400726
 20
649.13442612177
 30
0.0
  0
VERTEX
  5
559
330
516
100
AcDbEntity
  8
Make2D$可见线$普通线
100
AcDbVertex
100
AcDb2dVertex
 10
288.9587534827978
 20
649.1352644391083
 30
0.0
  0
VERTEX
  5
55A
330
516
100
AcDbEntity
  8
Make2D$可见线$普通线
100
AcDbVertex
100
AcDb2dVertex
 10
288.9525418355211
 20
649.1362652171196
 30
0.0
  0
VERTEX
  5
55B
330
516
100
AcDbEntity
  8
Make2D$可见线$普通线
100
AcDbVertex
100
AcDb2dVertex
 10
288.9463414117022
 20
649.1374288395939
 30
0.0
  0
VERTEX
  5
55C
330
516
100
AcDbEntity
  8
Make2D$可见线$普通线
100
AcDbVertex
100
AcDb2dVertex
 10
288.9401585702274
 20
649.1387553649244
 30
0.0
  0
VERTEX
  5
55D
330
516
100
AcDbEntity
  8
Make2D$可见线$普通线
100
AcDbVertex
100
AcDb2dVertex
 10
288.9339996945
 20
649.140244521787
 30
0.0
  0
VERTEX
  5
55E
330
516
100
AcDbEntity
  8
Make2D$可见线$普通线
100
AcDbVertex
100
AcDb2dVertex
 10
288.9278711711063
 20
649.1418957064329
 30
0.0
  0
VERTEX
  5
55F
330
516
100
AcDbEntity
  8
Make2D$可见线$普通线
100
AcDbVertex
100
AcDb2dVertex
 10
288.9217793682075
 20
649.1437079816357
 30
0.0
  0
VERTEX
  5
560
330
516
100
AcDbEntity
  8
Make2D$可见线$普通线
100
AcDbVertex
100
AcDb2dVertex
 10
288.9157306138034
 20
649.145680077326
 30
0.0
  0
VERTEX
  5
561
330
516
100
AcDbEntity
  8
Make2D$可见线$普通线
100
AcDbVertex
100
AcDb2dVertex
 10
288.9097311740255
 20
649.147810392924
 30
0.0
  0
VERTEX
  5
562
330
516
100
AcDbEntity
  8
Make2D$可见线$普通线
100
AcDbVertex
100
AcDb2dVertex
 10
288.903787231611
 20
649.1500970013691
 30
0.0
  0
VERTEX
  5
563
330
516
100
AcDbEntity
  8
Make2D$可见线$普通线
100
AcDbVertex
100
AcDb2dVertex
 10
288.8979048647142
 20
649.1525376548266
 30
0.0
  0
VERTEX
  5
564
330
516
100
AcDbEntity
  8
Make2D$可见线$普通线
100
AcDbVertex
100
AcDb2dVertex
 10
288.8920900262067
 20
649.1551297920392
 30
0.0
  0
VERTEX
  5
565
330
516
100
AcDbEntity
  8
Make2D$可见线$普通线
100
AcDbVertex
100
AcDb2dVertex
 10
288.8863485236141
 20
649.1578705472693
 30
0.0
  0
VERTEX
  5
566
330
516
100
AcDbEntity
  8
Make2D$可见线$普通线
100
AcDbVertex
100
AcDb2dVertex
 10
288.880685999831
 20
649.1607567607708
 30
0.0
  0
VERTEX
  5
567
330
516
100
AcDbEntity
  8
Make2D$可见线$普通线
100
AcDbVertex
100
AcDb2dVertex
 10
288.87510791475
 20
649.1637849907077
 30
0.0
  0
VERTEX
  5
568
330
516
100
AcDbEntity
  8
Make2D$可见线$普通线
100
AcDbVertex
100
AcDb2dVertex
 10
288.8696195279262
 20
649.1669515264265
 30
0.0
  0
VERTEX
  5
569
330
516
100
AcDbEntity
  8
Make2D$可见线$普通线
100
AcDbVertex
100
AcDb2dVertex
 10
288.8642258823938
 20
649.1702524029806
 30
0.0
  0
VERTEX
  5
56A
330
516
100
AcDbEntity
  8
Make2D$可见线$普通线
100
AcDbVertex
100
AcDb2dVertex
 10
288.8589317897369
 20
649.1736834167866
 30
0.0
  0
VERTEX
  5
56B
330
516
100
AcDbEntity
  8
Make2D$可见线$普通线
100
AcDbVertex
100
AcDb2dVertex
 10
288.8537418165005
 20
649.1772401422924
 30
0.0
  0
VERTEX
  5
56C
330
516
100
AcDbEntity
  8
Make2D$可见线$普通线
100
AcDbVertex
100
AcDb2dVertex
 10
288.8486602720199
 20
649.1809179495195
 30
0.0
  0
VERTEX
  5
56D
330
516
100
AcDbEntity
  8
Make2D$可见线$普通线
100
AcDbVertex
100
AcDb2dVertex
 10
288.8436911977262
 20
649.1847120223497
 30
0.0
  0
VERTEX
  5
56E
330
516
100
AcDbEntity
  8
Make2D$可见线$普通线
100
AcDbVertex
100
AcDb2dVertex
 10
288.8388383579751
 20
649.1886173774044
 30
0.0
  0
VERTEX
  5
56F
330
516
100
AcDbEntity
  8
Make2D$可见线$普通线
100
AcDbVertex
100
AcDb2dVertex
 10
288.8341052324273
 20
649.1926288833806
 30
0.0
  0
VERTEX
  5
570
330
516
100
AcDbEntity
  8
Make2D$可见线$普通线
100
AcDbVertex
100
AcDb2dVertex
 10
288.8294950099973
 20
649.1967412806971
 30
0.0
  0
VERTEX
  5
571
330
516
100
AcDbEntity
  8
Make2D$可见线$普通线
100
AcDbVertex
100
AcDb2dVertex
 10
288.8250105843694
 20
649.2009492013052
 30
0.0
  0
VERTEX
  5
572
330
516
100
AcDbEntity
  8
Make2D$可见线$普通线
100
AcDbVertex
100
AcDb2dVertex
 10
288.8206545510682
 20
649.2052471885279
 30
0.0
  0
VERTEX
  5
573
330
516
100
AcDbEntity
  8
Make2D$可见线$普通线
100
AcDbVertex
100
AcDb2dVertex
 10
288.8163556525301
 20
649.2097854081394
 30
0.0
  0
VERTEX
  5
574
330
516
100
AcDbEntity
  8
Make2D$可见线$普通线
100
AcDbVertex
100
AcDb2dVertex
 10
288.8121501194648
 20
649.2144502432235
 30
0.0
  0
VERTEX
  5
575
330
516
100
AcDbEntity
  8
Make2D$可见线$普通线
100
AcDbVertex
100
AcDb2dVertex
 10
288.8080432560158
 20
649.2192389947245
 30
0.0
  0
VERTEX
  5
576
330
516
100
AcDbEntity
  8
Make2D$可见线$普通线
100
AcDbVertex
100
AcDb2dVertex
 10
288.8040402721371
 20
649.2241486779251
 30
0.0
  0
VERTEX
  5
577
330
516
100
AcDbEntity
  8
Make2D$可见线$普通线
100
AcDbVertex
100
AcDb2dVertex
 10
288.8001462648591
 20
649.2291760258312
 30
0.0
  0
VERTEX
  5
578
330
516
100
AcDbEntity
  8
Make2D$可见线$普通线
100
AcDbVertex
100
AcDb2dVertex
 10
288.7963661996283
 20
649.2343174940052
 30
0.0
  0
VERTEX
  5
579
330
516
100
AcDbEntity
  8
Make2D$可见线$普通线
100
AcDbVertex
100
AcDb2dVertex
 10
288.7927048918525
 20
649.2395692668528
 30
0.0
  0
VERTEX
  5
57A
330
516
100
AcDbEntity
  8
Make2D$可见线$普通线
100
AcDbVertex
100
AcDb2dVertex
 10
288.789166988777
 20
649.2449272653596
 30
0.0
  0
VERTEX
  5
57B
330
516
100
AcDbEntity
  8
Make2D$可见线$普通线
100
AcDbVertex
100
AcDb2dVertex
 10
288.7857569518286
 20
649.2503871562585
 30
0.0
  0
VERTEX
  5
57C
330
516
100
AcDbEntity
  8
Make2D$可见线$普通线
100
AcDbVertex
100
AcDb2dVertex
 10
288.7824790395539
 20
649.255944362599
 30
0.0
  0
VERTEX
  5
57D
330
516
100
AcDbEntity
  8
Make2D$可见线$普通线
100
AcDbVertex
100
AcDb2dVertex
 10
288.7793372912822
 20
649.2615940756689
 30
0.0
  0
VERTEX
  5
57E
330
516
100
AcDbEntity
  8
Make2D$可见线$普通线
100
AcDbVertex
100
AcDb2dVertex
 10
288.7763355116366
 20
649.2673312682148
 30
0.0
  0
VERTEX
  5
57F
330
516
100
AcDbEntity
  8
Make2D$可见线$普通线
100
AcDbVertex
100
AcDb2dVertex
 10
288.7734772560115
 20
649.2731507088861
 30
0.0
  0
VERTEX
  5
580
330
516
100
AcDbEntity
  8
Make2D$可见线$普通线
100
AcDbVertex
100
AcDb2dVertex
 10
288.7707658171294
 20
649.2790469778204
 30
0.0
  0
VERTEX
  5
581
330
516
100
AcDbEntity
  8
Make2D$可见线$普通线
100
AcDbVertex
100
AcDb2dVertex
 10
288.7682042127796
 20
649.2850144832768
 30
0.0
  0
VERTEX
  5
582
330
516
100
AcDbEntity
  8
Make2D$可见线$普通线
100
AcDbVertex
100
AcDb2dVertex
 10
288.765795174832
 20
649.2910474792069
 30
0.0
  0
VERTEX
  5
583
330
516
100
AcDbEntity
  8
Make2D$可见线$普通线
100
AcDbVertex
100
AcDb2dVertex
 10
288.7635411396106
 20
649.2971400836537
 30
0.0
  0
VERTEX
  5
584
330
516
100
AcDbEntity
  8
Make2D$可见线$普通线
100
AcDbVertex
100
AcDb2dVertex
 10
288.7614442396937
 20
649.3032862978507
 30
0.0
  0
VERTEX
  5
585
330
516
100
AcDbEntity
  8
Make2D$可见线$普通线
100
AcDbVertex
100
AcDb2dVertex
 10
288.7595062972038
 20
649.3094800258934
 30
0.0
  0
VERTEX
  5
586
330
516
100
AcDbEntity
  8
Make2D$可见线$普通线
100
AcDbVertex
100
AcDb2dVertex
 10
288.7577288186264
 20
649.3157150948466
 30
0.0
  0
VERTEX
  5
587
330
516
100
AcDbEntity
  8
Make2D$可见线$普通线
100
AcDbVertex
100
AcDb2dVertex
 10
288.7561129911907
 20
649.3219852751507
 30
0.0
  0
VERTEX
  5
588
330
516
100
AcDbEntity
  8
Make2D$可见线$普通线
100
AcDbVertex
100
AcDb2dVertex
 10
288.7546596808276
 20
649.3282843011838
 30
0.0
  0
VERTEX
  5
589
330
516
100
AcDbEntity
  8
Make2D$可见线$普通线
100
AcDbVertex
100
AcDb2dVertex
 10
288.7533694317064
 20
649.3346058918378
 30
0.0
  0
VERTEX
  5
58A
330
516
100
AcDbEntity
  8
Make2D$可见线$普通线
100
AcDbVertex
100
AcDb2dVertex
 10
288.7522424673363
 20
649.3409437709726
 30
0.0
  0
VERTEX
  5
58B
330
516
100
AcDbEntity
  8
Make2D$可见线$普通线
100
AcDbVertex
100
AcDb2dVertex
 10
288.7512786932069
 20
649.347291687607
 30
0.0
  0
VERTEX
  5
58C
330
516
100
AcDbEntity
  8
Make2D$可见线$普通线
100
AcDbVertex
100
AcDb2dVertex
 10
288.750477700927
 20
649.3536434357161
 30
0.0
  0
VERTEX
  5
58D
330
516
100
AcDbEntity
  8
Make2D$可见线$普通线
100
AcDbVertex
100
AcDb2dVertex
 10
288.7498387738084
 20
649.3599928735077
 30
0.0
  0
VERTEX
  5
58E
330
516
100
AcDbEntity
  8
Make2D$可见线$普通线
100
AcDbVertex
100
AcDb2dVertex
 10
288.7493608938307
 20
649.3663339420593
 30
0.0
  0
VERTEX
  5
58F
330
516
100
AcDbEntity
  8
Make2D$可见线$普通线
100
AcDbVertex
100
AcDb2dVertex
 10
288.7490427499097
 20
649.3726606832037
 30
0.0
  0
VERTEX
  5
590
330
516
100
AcDbEntity
  8
Make2D$可见线$普通线
100
AcDbVertex
100
AcDb2dVertex
 10
288.7488827473856
 20
649.3789672565616
 30
0.0
  0
VERTEX
  5
591
330
516
100
AcDbEntity
  8
Make2D$可见线$普通线
100
AcDbVertex
100
AcDb2dVertex
 10
288.7488790186368
 20
649.3852479556327
 30
0.0
  0
VERTEX
  5
592
330
516
100
AcDbEntity
  8
Make2D$可见线$普通线
100
AcDbVertex
100
AcDb2dVertex
 10
288.7490294347182
 20
649.3914972228607
 30
0.0
 42
-0.2626149661883786
  0
VERTEX
  5
593
330
516
100
AcDbEntity
  8
Make2D$可见线$普通线
100
AcDbVertex
100
AcDb2dVertex
 10
288.8770294347184
 20
649.6629972152311
 30
0.0
  0
VERTEX
  5
594
330
516
100
AcDbEntity
  8
Make2D$可见线$普通线
100
AcDbVertex
100
AcDb2dVertex
 10
288.8377795682347
 20
649.7087471808983
 30
0.0
  0
SEQEND
  5
595
330
516
100
AcDbEntity
  8
Make2D$可见线$普通线
  0
POLYLINE
  5
596
330
1F
100
AcDbEntity
  8
Make2D$可见线$普通线
100
AcDb2dPolyline
 66
     1
 10
0.0
 20
0.0
 30
0.0
  0
VERTEX
  5
597
330
596
100
AcDbEntity
  8
Make2D$可见线$普通线
100
AcDbVertex
100
AcDb2dVertex
 10
304.8735032942293
 20
647.8527471808983
 30
0.0
 42
0.2379118279036476
  0
VERTEX
  5
598
330
596
100
AcDbEntity
  8
Make2D$可见线$普通线
100
AcDbVertex
100
AcDb2dVertex
 10
305.3870030729735
 20
648.1947472724524
 30
0.0
  0
VERTEX
  5
599
330
596
100
AcDbEntity
  8
Make2D$可见线$普通线
100
AcDbVertex
100
AcDb2dVertex
 10
305.3307531912309
 20
648.2367471808983
 30
0.0
 42
-0.1980384043404398
  0
VERTEX
  5
59A
330
596
100
AcDbEntity
  8
Make2D$可见线$普通线
100
AcDbVertex
100
AcDb2dVertex
 10
304.857753298044
 20
647.8929973067852
 30
0.0
  0
VERTEX
  5
59B
330
596
100
AcDbEntity
  8
Make2D$可见线$普通线
100
AcDbVertex
100
AcDb2dVertex
 10
304.8735032942293
 20
647.8527471808983
 30
0.0
  0
SEQEND
  5
59C
330
596
100
AcDbEntity
  8
Make2D$可见线$普通线
  0
POLYLINE
  5
59D
330
1F
100
AcDbEntity
  8
Make2D$可见线$普通线
100
AcDb2dPolyline
 66
     1
 10
0.0
 20
0.0
 30
0.0
  0
VERTEX
  5
59E
330
59D
100
AcDbEntity
  8
Make2D$可见线$普通线
100
AcDbVertex
100
AcDb2dVertex
 10
303.7550030729735
 20
648.4447471808983
 30
0.0
  0
VERTEX
  5
59F
330
59D
100
AcDbEntity
  8
Make2D$可见线$普通线
100
AcDbVertex
100
AcDb2dVertex
 10
303.7550030729734
 20
648.119247341118
 30
0.0
 42
0.0918171095105162
  0
VERTEX
  5
5A0
330
59D
100
AcDbEntity
  8
Make2D$可见线$普通线
100
AcDbVertex
100
AcDb2dVertex
 10
303.7797530844178
 20
647.936622240027
 30
0.0
 42
0.2800244047754537
  0
VERTEX
  5
5A1
330
59D
100
AcDbEntity
  8
Make2D$可见线$普通线
100
AcDbVertex
100
AcDb2dVertex
 10
303.9002530920473
 20
647.8847471808983
 30
0.0
 42
0.1598460747184816
  0
VERTEX
  5
5A2
330
59D
100
AcDbEntity
  8
Make2D$可见线$普通线
100
AcDbVertex
100
AcDb2dVertex
 10
304.0916282045826
 20
647.9677472266753
 30
0.0
 42
0.080845072279983
  0
VERTEX
  5
5A3
330
59D
100
AcDbEntity
  8
Make2D$可见线$普通线
100
AcDbVertex
100
AcDb2dVertex
 10
304.2990030729735
 20
648.2057471961573
 30
0.0
  0
VERTEX
  5
5A4
330
59D
100
AcDbEntity
  8
Make2D$可见线$普通线
100
AcDbVertex
100
AcDb2dVertex
 10
304.2475032637113
 20
648.2527471808983
 30
0.0
 42
-0.1402907279958223
  0
VERTEX
  5
5A5
330
59D
100
AcDbEntity
  8
Make2D$可见线$普通线
100
AcDbVertex
100
AcDb2dVertex
 10
303.9897532370079
 20
647.9967471808983
 30
0.0
 42
-0.3761612635744226
  0
VERTEX
  5
5A6
330
59D
100
AcDbEntity
  8
Make2D$可见线$普通线
100
AcDbVertex
100
AcDb2dVertex
 10
303.9407530996768
 20
648.0312472190458
 30
0.0
 42
-0.0489973200858178
  0
VERTEX
  5
5A7
330
59D
100
AcDbEntity
  8
Make2D$可见线$普通线
100
AcDbVertex
100
AcDb2dVertex
 10
303.9310030729734
 20
648.172997184713
 30
0.0
  0
VERTEX
  5
5A8
330
59D
100
AcDbEntity
  8
Make2D$可见线$普通线
100
AcDbVertex
100
AcDb2dVertex
 10
303.9310030729735
 20
648.7487471808984
 30
0.0
  0
VERTEX
  5
5A9
330
59D
100
AcDbEntity
  8
Make2D$可见线$普通线
100
AcDbVertex
100
AcDb2dVertex
 10
303.7550030729734
 20
648.6554972228606
 30
0.0
 42
-0.0977652175676796
  0
VERTEX
  5
5AA
330
59D
100
AcDbEntity
  8
Make2D$可见线$普通线
100
AcDbVertex
100
AcDb2dVertex
 10
303.5470030729734
 20
648.2207471808983
 30
0.0
  0
VERTEX
  5
5AB
330
59D
100
AcDbEntity
  8
Make2D$可见线$普通线
100
AcDbVertex
100
AcDb2dVertex
 10
303.6002531530834
 20
648.1767472419345
 30
0.0
 42
0.073094147816039
  0
VERTEX
  5
5AC
330
59D
100
AcDbEntity
  8
Make2D$可见线$普通线
100
AcDbVertex
100
AcDb2dVertex
 10
303.7550030729735
 20
648.4447471808983
 30
0.0
  0
SEQEND
  5
5AD
330
59D
100
AcDbEntity
  8
Make2D$可见线$普通线
  0
POLYLINE
  5
5AE
330
1F
100
AcDbEntity
  8
Make2D$可见线$普通线
100
AcDb2dPolyline
 66
     1
 10
0.0
 20
0.0
 30
0.0
  0
VERTEX
  5
5AF
330
5AE
100
AcDbEntity
  8
Make2D$可见线$普通线
100
AcDbVertex
100
AcDb2dVertex
 10
303.8757532064899
 20
648.9407471808984
 30
0.0
  0
VERTEX
  5
5B0
330
5AE
100
AcDbEntity
  8
Make2D$可见线$普通线
100
AcDbVertex
100
AcDb2dVertex
 10
303.9950030729734
 20
649.095247341118
 30
0.0
  0
VERTEX
  5
5B1
330
5AE
100
AcDbEntity
  8
Make2D$可见线$普通线
100
AcDbVertex
100
AcDb2dVertex
 10
303.8757532064899
 20
649.2447471808982
 30
0.0
  0
VERTEX
  5
5B2
330
5AE
100
AcDbEntity
  8
Make2D$可见线$普通线
100
AcDbVertex
100
AcDb2dVertex
 10
303.7550030729734
 20
649.095247341118
 30
0.0
  0
VERTEX
  5
5B3
330
5AE
100
AcDbEntity
  8
Make2D$可见线$普通线
100
AcDbVertex
100
AcDb2dVertex
 10
303.8757532064899
 20
648.9407471808984
 30
0.0
  0
SEQEND
  5
5B4
330
5AE
100
AcDbEntity
  8
Make2D$可见线$普通线
  0
POLYLINE
  5
5B5
330
1F
100
AcDbEntity
  8
Make2D$可见线$普通线
100
AcDb2dPolyline
 66
     1
 10
0.0
 20
0.0
 30
0.0
  0
VERTEX
  5
5B6
330
5B5
100
AcDbEntity
  8
Make2D$可见线$普通线
100
AcDbVertex
100
AcDb2dVertex
 10
302.5657532370079
 20
648.3299973830804
 30
0.0
  0
VERTEX
  5
5B7
330
5B5
100
AcDbEntity
  8
Make2D$可见线$普通线
100
AcDbVertex
100
AcDb2dVertex
 10
302.5550030729735
 20
648.2034974059688
 30
0.0
 42
0.1985394549958054
  0
VERTEX
  5
5B8
330
5B5
100
AcDbEntity
  8
Make2D$可见线$普通线
100
AcDbVertex
100
AcDb2dVertex
 10
302.6403781549907
 20
647.9747472114163
 30
0.0
 42
0.2132236358829227
  0
VERTEX
  5
5B9
330
5B5
100
AcDbEntity
  8
Make2D$可见线$普通线
100
AcDbVertex
100
AcDb2dVertex
 10
302.8682532141194
 20
647.8847471808983
 30
0.0
 42
0.2100469645547358
  0
VERTEX
  5
5BA
330
5B5
100
AcDbEntity
  8
Make2D$可见线$普通线
100
AcDbVertex
100
AcDb2dVertex
 10
303.2536281130284
 20
648.0538721980647
 30
0.0
 42
0.202222373031615
  0
VERTEX
  5
5BB
330
5B5
100
AcDbEntity
  8
Make2D$可见线$普通线
100
AcDbVertex
100
AcDb2dVertex
 10
303.4190030729735
 20
648.4279974135984
 30
0.0
 42
0.2157082426170598
  0
VERTEX
  5
5BC
330
5B5
100
AcDbEntity
  8
Make2D$可见线$普通线
100
AcDbVertex
100
AcDb2dVertex
 10
303.3318780863251
 20
648.6521222934336
 30
0.0
 42
0.1911666414717021
  0
VERTEX
  5
5BD
330
5B5
100
AcDbEntity
  8
Make2D$可见线$普通线
100
AcDbVertex
100
AcDb2dVertex
 10
303.0917532064899
 20
648.7327471808983
 30
0.0
 42
0.1433108084104388
  0
VERTEX
  5
5BE
330
5B5
100
AcDbEntity
  8
Make2D$可见线$普通线
100
AcDbVertex
100
AcDb2dVertex
 10
302.7857531759719
 20
648.6413722514714
 30
0.0
 42
0.0789937331438923
  0
VERTEX
  5
5BF
330
5B5
100
AcDbEntity
  8
Make2D$可见线$普通线
100
AcDbVertex
100
AcDb2dVertex
 10
302.4110030729735
 20
648.2367471808983
 30
0.0
  0
VERTEX
  5
5C0
330
5B5
100
AcDbEntity
  8
Make2D$可见线$普通线
100
AcDbVertex
100
AcDb2dVertex
 10
302.4690032255637
 20
648.1927472419344
 30
0.0
  0
VERTEX
  5
5C1
330
5B5
100
AcDbEntity
  8
Make2D$可见线$普通线
100
AcDbVertex
100
AcDb2dVertex
 10
302.5657532370079
 20
648.3299973830804
 30
0.0
  0
SEQEND
  5
5C2
330
5B5
100
AcDbEntity
  8
Make2D$可见线$普通线
  0
POLYLINE
  5
5C3
330
1F
100
AcDbEntity
  8
Make2D$可见线$普通线
100
AcDb2dPolyline
 66
     1
 10
0.0
 20
0.0
 30
0.0
  0
VERTEX
  5
5C4
330
5C3
100
AcDbEntity
  8
Make2D$可见线$普通线
100
AcDbVertex
100
AcDb2dVertex
 10
301.1470030729735
 20
650.0057473182296
 30
0.0
 42
0.2403900169032784
  0
VERTEX
  5
5C5
330
5C3
100
AcDbEntity
  8
Make2D$可见线$普通线
100
AcDbVertex
100
AcDb2dVertex
 10
301.6270030729734
 20
650.1342473258591
 30
0.0
  0
VERTEX
  5
5C6
330
5C3
100
AcDbEntity
  8
Make2D$可见线$普通线
100
AcDbVertex
100
AcDb2dVertex
 10
301.6022531836014
 20
650.1887471808983
 30
0.0
 42
-0.1927497743896247
  0
VERTEX
  5
5C7
330
5C3
100
AcDbEntity
  8
Make2D$可见线$普通线
100
AcDbVertex
100
AcDb2dVertex
 10
301.478753252267
 20
650.1407471808984
 30
0.0
 42
-0.0278356523455144
  0
VERTEX
  5
5C8
330
5C3
100
AcDbEntity
  8
Make2D$可见线$普通线
100
AcDbVertex
100
AcDb2dVertex
 10
301.2190031950456
 20
650.1887471808983
 30
0.0
 42
0.0543108890207779
  0
VERTEX
  5
5C9
330
5C3
100
AcDbEntity
  8
Make2D$可见线$普通线
100
AcDbVertex
100
AcDb2dVertex
 10
300.8357532064899
 20
650.2367471808982
 30
0.0
 42
0.1690065740876628
  0
VERTEX
  5
5CA
330
5C3
100
AcDbEntity
  8
Make2D$可见线$普通线
100
AcDbVertex
100
AcDb2dVertex
 10
300.2441280901399
 20
650.0557472266752
 30
0.0
 42
0.2430070909373526
  0
VERTEX
  5
5CB
330
5C3
100
AcDbEntity
  8
Make2D$可见线$普通线
100
AcDbVertex
100
AcDb2dVertex
 10
300.0110030729735
 20
649.6159972304902
 30
0.0
 42
0.1916556348353731
  0
VERTEX
  5
5CC
330
5C3
100
AcDbEntity
  8
Make2D$可见线$普通线
100
AcDbVertex
100
AcDb2dVertex
 10
300.0975031721571
 20
649.3719972915262
 30
0.0
 42
0.2212129891452684
  0
VERTEX
  5
5CD
330
5C3
100
AcDbEntity
  8
Make2D$可见线$普通线
100
AcDbVertex
100
AcDb2dVertex
 10
300.3077532064899
 20
649.2767471808984
 30
0.0
 42
0.2248997654901297
  0
VERTEX
  5
5CE
330
5C3
100
AcDbEntity
  8
Make2D$可见线$普通线
100
AcDbVertex
100
AcDb2dVertex
 10
300.4950031340096
 20
649.3624972686378
 30
0.0
 42
0.1896920105176872
  0
VERTEX
  5
5CF
330
5C3
100
AcDbEntity
  8
Make2D$可见线$普通线
100
AcDbVertex
100
AcDb2dVertex
 10
300.5710030729734
 20
649.5637474097837
 30
0.0
  0
VERTEX
  5
5D0
330
5C3
100
AcDbEntity
  8
Make2D$可见线$普通线
100
AcDbVertex
100
AcDb2dVertex
 10
300.5675032637113
 20
649.6127471808983
 30
0.0
  0
VERTEX
  5
5D1
330
5C3
100
AcDbEntity
  8
Make2D$可见线$普通线
100
AcDbVertex
100
AcDb2dVertex
 10
300.5312531988603
 20
649.6127471808983
 30
0.0
 42
-0.1827913787821791
  0
VERTEX
  5
5D2
330
5C3
100
AcDbEntity
  8
Make2D$可见线$普通线
100
AcDbVertex
100
AcDb2dVertex
 10
300.4563781549907
 20
649.5078722896188
 30
0.0
 42
-0.1546528398523018
  0
VERTEX
  5
5D3
330
5C3
100
AcDbEntity
  8
Make2D$可见线$普通线
100
AcDbVertex
100
AcDb2dVertex
 10
300.3380031797866
 20
649.4687471808983
 30
0.0
 42
-0.204848534891323
  0
VERTEX
  5
5D4
330
5C3
100
AcDbEntity
  8
Make2D$可见线$普通线
100
AcDbVertex
100
AcDb2dVertex
 10
300.1898781168431
 20
649.5353722209533
 30
0.0
 42
-0.2068403881359058
  0
VERTEX
  5
5D5
330
5C3
100
AcDbEntity
  8
Make2D$可见线$普通线
100
AcDbVertex
100
AcDb2dVertex
 10
300.1230030729734
 20
649.7064973907098
 30
0.0
 42
-0.4195703350711828
  0
VERTEX
  5
5D6
330
5C3
100
AcDbEntity
  8
Make2D$可见线$普通线
100
AcDbVertex
100
AcDb2dVertex
 10
300.6057531149357
 20
650.0927471808982
 30
0.0
 42
-0.0673342793914054
  0
VERTEX
  5
5D7
330
5C3
100
AcDbEntity
  8
Make2D$可见线$普通线
100
AcDbVertex
100
AcDb2dVertex
 10
301.0830030729735
 20
650.0189972762673
 30
0.0
 42
0.2389885915431632
  0
VERTEX
  5
5D8
330
5C3
100
AcDbEntity
  8
Make2D$可见线$普通线
100
AcDbVertex
100
AcDb2dVertex
 10
300.8430030729734
 20
649.526247325859
 30
0.0
 42
0.0516133502578265
  0
VERTEX
  5
5D9
330
5C3
100
AcDbEntity
  8
Make2D$可见线$普通线
100
AcDbVertex
100
AcDb2dVertex
 10
300.9012532293784
 20
649.1804974212281
 30
0.0
 42
0.0392335480077807
  0
VERTEX
  5
5DA
330
5C3
100
AcDbEntity
  8
Make2D$可见线$普通线
100
AcDbVertex
100
AcDb2dVertex
 10
300.7470030729735
 20
648.9679973525623
 30
0.0
  0
VERTEX
  5
5DB
330
5C3
100
AcDbEntity
  8
Make2D$可见线$普通线
100
AcDbVertex
100
AcDb2dVertex
 10
300.8040032103046
 20
648.9247471808983
 30
0.0
 42
-0.1415158369089346
  0
VERTEX
  5
5DC
330
5C3
100
AcDbEntity
  8
Make2D$可见线$普通线
100
AcDbVertex
100
AcDb2dVertex
 10
300.9247530996768
 20
649.0934973144148
 30
0.0
  0
VERTEX
  5
5DD
330
5C3
100
AcDbEntity
  8
Make2D$可见线$普通线
100
AcDbVertex
100
AcDb2dVertex
 10
301.0012532904145
 20
648.8754974059689
 30
0.0
 42
-0.0791838976370989
  0
VERTEX
  5
5DE
330
5C3
100
AcDbEntity
  8
Make2D$可见线$普通线
100
AcDbVertex
100
AcDb2dVertex
 10
301.0670030729734
 20
648.5644972991557
 30
0.0
 42
-0.2237280482959617
  0
VERTEX
  5
5DF
330
5C3
100
AcDbEntity
  8
Make2D$可见线$普通线
100
AcDbVertex
100
AcDb2dVertex
 10
300.878128120658
 20
648.1494971923426
 30
0.0
 42
-0.1908352365361526
  0
VERTEX
  5
5E0
330
5C3
100
AcDbEntity
  8
Make2D$可见线$普通线
100
AcDbVertex
100
AcDb2dVertex
 10
300.4375032331932
 20
647.9807471808984
 30
0.0
 42
-0.4307291773750621
  0
VERTEX
  5
5E1
330
5C3
100
AcDbEntity
  8
Make2D$可见线$普通线
100
AcDbVertex
100
AcDb2dVertex
 10
299.9150030729734
 20
648.4727473640065
 30
0.0
 42
-0.1674669767416914
  0
VERTEX
  5
5E2
330
5C3
100
AcDbEntity
  8
Make2D$可见线$普通线
100
AcDbVertex
100
AcDb2dVertex
 10
299.998860411731
 20
648.7425924469171
 30
0.0
  0
VERTEX
  5
5E3
330
5C3
100
AcDbEntity
  8
Make2D$可见线$普通线
100
AcDbVertex
100
AcDb2dVertex
 10
300.0260031797866
 20
648.774622209509
 30
0.0
 42
-0.2162622388467015
  0
VERTEX
  5
5E4
330
5C3
100
AcDbEntity
  8
Make2D$可见线$普通线
100
AcDbVertex
100
AcDb2dVertex
 10
300.2985033094883
 20
648.8927471808984
 30
0.0
  0
VERTEX
  5
5E5
330
5C3
100
AcDbEntity
  8
Make2D$可见线$普通线
100
AcDbVertex
100
AcDb2dVertex
 10
300.3042975807946
 20
648.8929272682886
 30
0.0
  0
VERTEX
  5
5E6
330
5C3
100
AcDbEntity
  8
Make2D$可见线$普通线
100
AcDbVertex
100
AcDb2dVertex
 10
300.3101200192283
 20
648.8929695953433
 30
0.0
  0
VERTEX
  5
5E7
330
5C3
100
AcDbEntity
  8
Make2D$可见线$普通线
100
AcDbVertex
100
AcDb2dVertex
 10
300.3159658279299
 20
648.8928723547377
 30
0.0
  0
VERTEX
  5
5E8
330
5C3
100
AcDbEntity
  8
Make2D$可见线$普通线
100
AcDbVertex
100
AcDb2dVertex
 10
300.3218300888453
 20
648.892633957378
 30
0.0
  0
VERTEX
  5
5E9
330
5C3
100
AcDbEntity
  8
Make2D$可见线$普通线
100
AcDbVertex
100
AcDb2dVertex
 10
300.3277077749216
 20
648.8922530415091
 30
0.0
  0
VERTEX
  5
5EA
330
5C3
100
AcDbEntity
  8
Make2D$可见线$普通线
100
AcDbVertex
100
AcDb2dVertex
 10
300.3335937630736
 20
648.8917284810171
 30
0.0
  0
VERTEX
  5
5EB
330
5C3
100
AcDbEntity
  8
Make2D$可见线$普通线
100
AcDbVertex
100
AcDb2dVertex
 10
300.339482847861
 20
648.8910593928543
 30
0.0
  0
VERTEX
  5
5EC
330
5C3
100
AcDbEntity
  8
Make2D$可见线$普通线
100
AcDbVertex
100
AcDb2dVertex
 10
300.3453697558073
 20
648.8902451435151
 30
0.0
  0
VERTEX
  5
5ED
330
5C3
100
AcDbEntity
  8
Make2D$可见线$普通线
100
AcDbVertex
100
AcDb2dVertex
 10
300.3512491602834
 20
648.8892853545054
 30
0.0
  0
VERTEX
  5
5EE
330
5C3
100
AcDbEntity
  8
Make2D$可见线$普通线
100
AcDbVertex
100
AcDb2dVertex
 10
300.3571156968737
 20
648.8881799067476
 30
0.0
  0
VERTEX
  5
5EF
330
5C3
100
AcDbEntity
  8
Make2D$可见线$普通线
100
AcDbVertex
100
AcDb2dVertex
 10
300.3629639791358
 20
648.8869289438749
 30
0.0
  0
VERTEX
  5
5F0
330
5C3
100
AcDbEntity
  8
Make2D$可见线$普通线
100
AcDbVertex
100
AcDb2dVertex
 10
300.3687886146599
 20
648.8855328743782
 30
0.0
  0
VERTEX
  5
5F1
330
5C3
100
AcDbEntity
  8
Make2D$可见线$普通线
100
AcDbVertex
100
AcDb2dVertex
 10
300.3745842213306
 20
648.8839923725725
 30
0.0
  0
VERTEX
  5
5F2
330
5C3
100
AcDbEntity
  8
Make2D$可见线$普通线
100
AcDbVertex
100
AcDb2dVertex
 10
300.3803454436885
 20
648.882308378367
 30
0.0
  0
VERTEX
  5
5F3
330
5C3
100
AcDbEntity
  8
Make2D$可见线$普通线
100
AcDbVertex
100
AcDb2dVertex
 10
300.3860669692917
 20
648.880482095826
 30
0.0
  0
VERTEX
  5
5F4
330
5C3
100
AcDbEntity
  8
Make2D$可见线$普通线
100
AcDbVertex
100
AcDb2dVertex
 10
300.3917435449687
 20
648.878514990522
 30
0.0
  0
VERTEX
  5
5F5
330
5C3
100
AcDbEntity
  8
Make2D$可见线$普通线
100
AcDbVertex
100
AcDb2dVertex
 10
300.3973699928628
 20
648.8764087856911
 30
0.0
  0
VERTEX
  5
5F6
330
5C3
100
AcDbEntity
  8
Make2D$可见线$普通线
100
AcDbVertex
100
AcDb2dVertex
 10
300.4029412261625
 20
648.8741654572112
 30
0.0
  0
VERTEX
  5
5F7
330
5C3
100
AcDbEntity
  8
Make2D$可见线$普通线
100
AcDbVertex
100
AcDb2dVertex
 10
300.4084522644201
 20
648.8717872274354
 30
0.0
  0
VERTEX
  5
5F8
330
5C3
100
AcDbEntity
  8
Make2D$可见线$普通线
100
AcDbVertex
100
AcDb2dVertex
 10
300.4138982483591
 20
648.8692765579174
 30
0.0
  0
VERTEX
  5
5F9
330
5C3
100
AcDbEntity
  8
Make2D$可见线$普通线
100
AcDbVertex
100
AcDb2dVertex
 10
300.4192744540805
 20
648.8666361410809
 30
0.0
  0
VERTEX
  5
5FA
330
5C3
100
AcDbEntity
  8
Make2D$可见线$普通线
100
AcDbVertex
100
AcDb2dVertex
 10
300.42457630658
 20
648.8638688908936
 30
0.0
  0
VERTEX
  5
5FB
330
5C3
100
AcDbEntity
  8
Make2D$可见线$普通线
100
AcDbVertex
100
AcDb2dVertex
 10
300.4297993924956
 20
648.8609779326047
 30
0.0
  0
VERTEX
  5
5FC
330
5C3
100
AcDbEntity
  8
Make2D$可见线$普通线
100
AcDbVertex
100
AcDb2dVertex
 10
300.4349394720142
 20
648.8579665916278
 30
0.0
  0
VERTEX
  5
5FD
330
5C3
100
AcDbEntity
  8
Make2D$可见线$普通线
100
AcDbVertex
100
AcDb2dVertex
 10
300.4399924898705
 20
648.8548383816446
 30
0.0
  0
VERTEX
  5
5FE
330
5C3
100
AcDbEntity
  8
Make2D$可见线$普通线
100
AcDbVertex
100
AcDb2dVertex
 10
300.4449545853813
 20
648.8515969920129
 30
0.0
  0
VERTEX
  5
5FF
330
5C3
100
AcDbEntity
  8
Make2D$可见线$普通线
100
AcDbVertex
100
AcDb2dVertex
 10
300.4498221014698
 20
648.8482462745728
 30
0.0
  0
VERTEX
  5
600
330
5C3
100
AcDbEntity
  8
Make2D$可见线$普通线
100
AcDbVertex
100
AcDb2dVertex
 10
300.454591592639
 20
648.8447902299407
 30
0.0
  0
VERTEX
  5
601
330
5C3
100
AcDbEntity
  8
Make2D$可见线$普通线
100
AcDbVertex
100
AcDb2dVertex
 10
300.4592598318672
 20
648.8412329933878
 30
0.0
  0
VERTEX
  5
602
330
5C3
100
AcDbEntity
  8
Make2D$可见线$普通线
100
AcDbVertex
100
AcDb2dVertex
 10
300.4638238164051
 20
648.8375788203967
 30
0.0
  0
VERTEX
  5
603
330
5C3
100
AcDbEntity
  8
Make2D$可见线$普通线
100
AcDbVertex
100
AcDb2dVertex
 10
300.4682807724656
 20
648.8338320719972
 30
0.0
  0
VERTEX
  5
604
330
5C3
100
AcDbEntity
  8
Make2D$可见线$普通线
100
AcDbVertex
100
AcDb2dVertex
 10
300.4726281588055
 20
648.829997199972
 30
0.0
  0
VERTEX
  5
605
330
5C3
100
AcDbEntity
  8
Make2D$可见线$普通线
100
AcDbVertex
100
AcDb2dVertex
 10
300.4772839969931
 20
648.8255046821702
 30
0.0
  0
VERTEX
  5
606
330
5C3
100
AcDbEntity
  8
Make2D$可见线$普通线
100
AcDbVertex
100
AcDb2dVertex
 10
300.4818106225744
 20
648.8208494183234
 30
0.0
  0
VERTEX
  5
607
330
5C3
100
AcDbEntity
  8
Make2D$可见线$普通线
100
AcDbVertex
100
AcDb2dVertex
 10
300.4861997078168
 20
648.8160369908902
 30
0.0
  0
VERTEX
  5
608
330
5C3
100
AcDbEntity
  8
Make2D$可见线$普通线
100
AcDbVertex
100
AcDb2dVertex
 10
300.490443249228
 20
648.8110735407042
 30
0.0
  0
VERTEX
  5
609
330
5C3
100
AcDbEntity
  8
Make2D$可见线$普通线
100
AcDbVertex
100
AcDb2dVertex
 10
300.4945336137592
 20
648.8059657430528
 30
0.0
  0
VERTEX
  5
60A
330
5C3
100
AcDbEntity
  8
Make2D$可见线$普通线
100
AcDbVertex
100
AcDb2dVertex
 10
300.4984635828386
 20
648.8007207792136
 30
0.0
  0
VERTEX
  5
60B
330
5C3
100
AcDbEntity
  8
Make2D$可见线$普通线
100
AcDbVertex
100
AcDb2dVertex
 10
300.5022263937195
 20
648.7953463036862
 30
0.0
  0
VERTEX
  5
60C
330
5C3
100
AcDbEntity
  8
Make2D$可见线$普通线
100
AcDbVertex
100
AcDb2dVertex
 10
300.5058157776553
 20
648.7898504074186
 30
0.0
  0
VERTEX
  5
60D
330
5C3
100
AcDbEntity
  8
Make2D$可见线$普通线
100
AcDbVertex
100
AcDb2dVertex
 10
300.5092259944569
 20
648.7842415773993
 30
0.0
  0
VERTEX
  5
60E
330
5C3
100
AcDbEntity
  8
Make2D$可见线$普通线
100
AcDbVertex
100
AcDb2dVertex
 10
300.512451863034
 20
648.7785286530304
 30
0.0
  0
VERTEX
  5
60F
330
5C3
100
AcDbEntity
  8
Make2D$可见线$普通线
100
AcDbVertex
100
AcDb2dVertex
 10
300.5154887875806
 20
648.7727207797589
 30
0.0
  0
VERTEX
  5
610
330
5C3
100
AcDbEntity
  8
Make2D$可见线$普通线
100
AcDbVertex
100
AcDb2dVertex
 10
300.518332779127
 20
648.7668273604687
 30
0.0
  0
VERTEX
  5
611
330
5C3
100
AcDbEntity
  8
Make2D$可见线$普通线
100
AcDbVertex
100
AcDb2dVertex
 10
300.5209804722496
 20
648.7608580051781
 30
0.0
  0
VERTEX
  5
612
330
5C3
100
AcDbEntity
  8
Make2D$可见线$普通线
100
AcDbVertex
100
AcDb2dVertex
 10
300.5234291368012
 20
648.7548224796022
 30
0.0
  0
VERTEX
  5
613
330
5C3
100
AcDbEntity
  8
Make2D$可见线$普通线
100
AcDbVertex
100
AcDb2dVertex
 10
300.5256766845985
 20
648.7487306531488
 30
0.0
  0
VERTEX
  5
614
330
5C3
100
AcDbEntity
  8
Make2D$可见线$普通线
100
AcDbVertex
100
AcDb2dVertex
 10
300.5277216710742
 20
648.7425924469171
 30
0.0
  0
VERTEX
  5
615
330
5C3
100
AcDbEntity
  8
Make2D$可见线$普通线
100
AcDbVertex
100
AcDb2dVertex
 10
300.529165150573
 20
648.7378731687851
 30
0.0
  0
VERTEX
  5
616
330
5C3
100
AcDbEntity
  8
Make2D$可见线$普通线
100
AcDbVertex
100
AcDb2dVertex
 10
300.5305005492761
 20
648.7331296155076
 30
0.0
  0
VERTEX
  5
617
330
5C3
100
AcDbEntity
  8
Make2D$可见线$普通线
100
AcDbVertex
100
AcDb2dVertex
 10
300.531729930443
 20
648.7283632627782
 30
0.0
  0
VERTEX
  5
618
330
5C3
100
AcDbEntity
  8
Make2D$可见线$普通线
100
AcDbVertex
100
AcDb2dVertex
 10
300.5328553573335
 20
648.7235755862907
 30
0.0
  0
VERTEX
  5
619
330
5C3
100
AcDbEntity
  8
Make2D$可见线$普通线
100
AcDbVertex
100
AcDb2dVertex
 10
300.5338788932071
 20
648.718768061739
 30
0.0
  0
VERTEX
  5
61A
330
5C3
100
AcDbEntity
  8
Make2D$可见线$普通线
100
AcDbVertex
100
AcDb2dVertex
 10
300.5348026013236
 20
648.7139421648164
 30
0.0
  0
VERTEX
  5
61B
330
5C3
100
AcDbEntity
  8
Make2D$可见线$普通线
100
AcDbVertex
100
AcDb2dVertex
 10
300.5356285449426
 20
648.709099371217
 30
0.0
  0
VERTEX
  5
61C
330
5C3
100
AcDbEntity
  8
Make2D$可见线$普通线
100
AcDbVertex
100
AcDb2dVertex
 10
300.5363587873238
 20
648.7042411566342
 30
0.0
  0
VERTEX
  5
61D
330
5C3
100
AcDbEntity
  8
Make2D$可见线$普通线
100
AcDbVertex
100
AcDb2dVertex
 10
300.5369953917269
 20
648.6993689967619
 30
0.0
  0
VERTEX
  5
61E
330
5C3
100
AcDbEntity
  8
Make2D$可见线$普通线
100
AcDbVertex
100
AcDb2dVertex
 10
300.5375404214116
 20
648.6944843672939
 30
0.0
  0
VERTEX
  5
61F
330
5C3
100
AcDbEntity
  8
Make2D$可见线$普通线
100
AcDbVertex
100
AcDb2dVertex
 10
300.5379959396375
 20
648.6895887439238
 30
0.0
  0
VERTEX
  5
620
330
5C3
100
AcDbEntity
  8
Make2D$可见线$普通线
100
AcDbVertex
100
AcDb2dVertex
 10
300.5383640096643
 20
648.6846836023452
 30
0.0
  0
VERTEX
  5
621
330
5C3
100
AcDbEntity
  8
Make2D$可见线$普通线
100
AcDbVertex
100
AcDb2dVertex
 10
300.5388460581591
 20
648.6748506673378
 30
0.0
  0
VERTEX
  5
622
330
5C3
100
AcDbEntity
  8
Make2D$可见线$普通线
100
AcDbVertex
100
AcDb2dVertex
 10
300.5390030729735
 20
648.6649973678213
 30
0.0
  0
VERTEX
  5
623
330
5C3
100
AcDbEntity
  8
Make2D$可见线$普通线
100
AcDbVertex
100
AcDb2dVertex
 10
300.5388851177333
 20
648.656391761863
 30
0.0
  0
VERTEX
  5
624
330
5C3
100
AcDbEntity
  8
Make2D$可见线$普通线
100
AcDbVertex
100
AcDb2dVertex
 10
300.538534028933
 20
648.647961347089
 30
0.0
  0
VERTEX
  5
625
330
5C3
100
AcDbEntity
  8
Make2D$可见线$普通线
100
AcDbVertex
100
AcDb2dVertex
 10
300.5379539719524
 20
648.6397042471381
 30
0.0
  0
VERTEX
  5
626
330
5C3
100
AcDbEntity
  8
Make2D$可见线$普通线
100
AcDbVertex
100
AcDb2dVertex
 10
300.5371491121715
 20
648.6316185856494
 30
0.0
  0
VERTEX
  5
627
330
5C3
100
AcDbEntity
  8
Make2D$可见线$普通线
100
AcDbVertex
100
AcDb2dVertex
 10
300.5361236149704
 20
648.6237024862621
 30
0.0
  0
VERTEX
  5
628
330
5C3
100
AcDbEntity
  8
Make2D$可见线$普通线
100
AcDbVertex
100
AcDb2dVertex
 10
300.5348816457291
 20
648.6159540726151
 30
0.0
  0
VERTEX
  5
629
330
5C3
100
AcDbEntity
  8
Make2D$可见线$普通线
100
AcDbVertex
100
AcDb2dVertex
 10
300.5334273698276
 20
648.6083714683475
 30
0.0
  0
VERTEX
  5
62A
330
5C3
100
AcDbEntity
  8
Make2D$可见线$普通线
100
AcDbVertex
100
AcDb2dVertex
 10
300.5317649526459
 20
648.6009527970982
 30
0.0
  0
VERTEX
  5
62B
330
5C3
100
AcDbEntity
  8
Make2D$可见线$普通线
100
AcDbVertex
100
AcDb2dVertex
 10
300.5298985595641
 20
648.5936961825064
 30
0.0
  0
VERTEX
  5
62C
330
5C3
100
AcDbEntity
  8
Make2D$可见线$普通线
100
AcDbVertex
100
AcDb2dVertex
 10
300.5278323559621
 20
648.586599748211
 30
0.0
  0
VERTEX
  5
62D
330
5C3
100
AcDbEntity
  8
Make2D$可见线$普通线
100
AcDbVertex
100
AcDb2dVertex
 10
300.5255705072199
 20
648.5796616178511
 30
0.0
  0
VERTEX
  5
62E
330
5C3
100
AcDbEntity
  8
Make2D$可见线$普通线
100
AcDbVertex
100
AcDb2dVertex
 10
300.5231171787176
 20
648.5728799150659
 30
0.0
  0
VERTEX
  5
62F
330
5C3
100
AcDbEntity
  8
Make2D$可见线$普通线
100
AcDbVertex
100
AcDb2dVertex
 10
300.5204765358352
 20
648.5662527634942
 30
0.0
  0
VERTEX
  5
630
330
5C3
100
AcDbEntity
  8
Make2D$可见线$普通线
100
AcDbVertex
100
AcDb2dVertex
 10
300.5176527439527
 20
648.5597782867751
 30
0.0
  0
VERTEX
  5
631
330
5C3
100
AcDbEntity
  8
Make2D$可见线$普通线
100
AcDbVertex
100
AcDb2dVertex
 10
300.5146499684501
 20
648.5534546085476
 30
0.0
  0
VERTEX
  5
632
330
5C3
100
AcDbEntity
  8
Make2D$可见线$普通线
100
AcDbVertex
100
AcDb2dVertex
 10
300.5114723747075
 20
648.5472798524509
 30
0.0
  0
VERTEX
  5
633
330
5C3
100
AcDbEntity
  8
Make2D$可见线$普通线
100
AcDbVertex
100
AcDb2dVertex
 10
300.5081241281048
 20
648.5412521421238
 30
0.0
  0
VERTEX
  5
634
330
5C3
100
AcDbEntity
  8
Make2D$可见线$普通线
100
AcDbVertex
100
AcDb2dVertex
 10
300.5046093940219
 20
648.5353696012054
 30
0.0
  0
VERTEX
  5
635
330
5C3
100
AcDbEntity
  8
Make2D$可见线$普通线
100
AcDbVertex
100
AcDb2dVertex
 10
300.5009323378391
 20
648.5296303533348
 30
0.0
  0
VERTEX
  5
636
330
5C3
100
AcDbEntity
  8
Make2D$可见线$普通线
100
AcDbVertex
100
AcDb2dVertex
 10
300.4970971249362
 20
648.5240325221512
 30
0.0
  0
VERTEX
  5
637
330
5C3
100
AcDbEntity
  8
Make2D$可见线$普通线
100
AcDbVertex
100
AcDb2dVertex
 10
300.4931079206933
 20
648.5185742312934
 30
0.0
  0
VERTEX
  5
638
330
5C3
100
AcDbEntity
  8
Make2D$可见线$普通线
100
AcDbVertex
100
AcDb2dVertex
 10
300.4889688904905
 20
648.5132536044005
 30
0.0
  0
VERTEX
  5
639
330
5C3
100
AcDbEntity
  8
Make2D$可见线$普通线
100
AcDbVertex
100
AcDb2dVertex
 10
300.4846841997075
 20
648.5080687651114
 30
0.0
  0
VERTEX
  5
63A
330
5C3
100
AcDbEntity
  8
Make2D$可见线$普通线
100
AcDbVertex
100
AcDb2dVertex
 10
300.4802580137247
 20
648.5030178370655
 30
0.0
  0
VERTEX
  5
63B
330
5C3
100
AcDbEntity
  8
Make2D$可见线$普通线
100
AcDbVertex
100
AcDb2dVertex
 10
300.4756944979218
 20
648.4980989439016
 30
0.0
  0
VERTEX
  5
63C
330
5C3
100
AcDbEntity
  8
Make2D$可见线$普通线
100
AcDbVertex
100
AcDb2dVertex
 10
300.470997817679
 20
648.4933102092587
 30
0.0
  0
VERTEX
  5
63D
330
5C3
100
AcDbEntity
  8
Make2D$可见线$普通线
100
AcDbVertex
100
AcDb2dVertex
 10
300.4661721383762
 20
648.4886497567759
 30
0.0
  0
VERTEX
  5
63E
330
5C3
100
AcDbEntity
  8
Make2D$可见线$普通线
100
AcDbVertex
100
AcDb2dVertex
 10
300.4612216253936
 20
648.484115710092
 30
0.0
  0
VERTEX
  5
63F
330
5C3
100
AcDbEntity
  8
Make2D$可见线$普通线
100
AcDbVertex
100
AcDb2dVertex
 10
300.456150444111
 20
648.4797061928464
 30
0.0
  0
VERTEX
  5
640
330
5C3
100
AcDbEntity
  8
Make2D$可见线$普通线
100
AcDbVertex
100
AcDb2dVertex
 10
300.4509627599086
 20
648.4754193286781
 30
0.0
  0
VERTEX
  5
641
330
5C3
100
AcDbEntity
  8
Make2D$可见线$普通线
100
AcDbVertex
100
AcDb2dVertex
 10
300.4456627381662
 20
648.4712532412259
 30
0.0
  0
VERTEX
  5
642
330
5C3
100
AcDbEntity
  8
Make2D$可见线$普通线
100
AcDbVertex
100
AcDb2dVertex
 10
300.440254544264
 20
648.4672060541291
 30
0.0
  0
VERTEX
  5
643
330
5C3
100
AcDbEntity
  8
Make2D$可见线$普通线
100
AcDbVertex
100
AcDb2dVertex
 10
300.4347423435818
 20
648.4632758910266
 30
0.0
  0
VERTEX
  5
644
330
5C3
100
AcDbEntity
  8
Make2D$可见线$普通线
100
AcDbVertex
100
AcDb2dVertex
 10
300.4291303014999
 20
648.4594608755572
 30
0.0
  0
VERTEX
  5
645
330
5C3
100
AcDbEntity
  8
Make2D$可见线$普通线
100
AcDbVertex
100
AcDb2dVertex
 10
300.4234225833981
 20
648.4557591313603
 30
0.0
  0
VERTEX
  5
646
330
5C3
100
AcDbEntity
  8
Make2D$可见线$普通线
100
AcDbVertex
100
AcDb2dVertex
 10
300.4176233546565
 20
648.4521687820749
 30
0.0
  0
VERTEX
  5
647
330
5C3
100
AcDbEntity
  8
Make2D$可见线$普通线
100
AcDbVertex
100
AcDb2dVertex
 10
300.411736780655
 20
648.4486879513398
 30
0.0
  0
VERTEX
  5
648
330
5C3
100
AcDbEntity
  8
Make2D$可见线$普通线
100
AcDbVertex
100
AcDb2dVertex
 10
300.4057670267738
 20
648.4453147627944
 30
0.0
  0
VERTEX
  5
649
330
5C3
100
AcDbEntity
  8
Make2D$可见线$普通线
100
AcDbVertex
100
AcDb2dVertex
 10
300.3997182583928
 20
648.4420473400774
 30
0.0
  0
VERTEX
  5
64A
330
5C3
100
AcDbEntity
  8
Make2D$可见线$普通线
100
AcDbVertex
100
AcDb2dVertex
 10
300.393594640892
 20
648.4388838068278
 30
0.0
  0
VERTEX
  5
64B
330
5C3
100
AcDbEntity
  8
Make2D$可见线$普通线
100
AcDbVertex
100
AcDb2dVertex
 10
300.3811395200511
 20
648.4328609032876
 30
0.0
  0
VERTEX
  5
64C
330
5C3
100
AcDbEntity
  8
Make2D$可见线$普通线
100
AcDbVertex
100
AcDb2dVertex
 10
300.3684349872913
 20
648.4272310412861
 30
0.0
  0
VERTEX
  5
64D
330
5C3
100
AcDbEntity
  8
Make2D$可见线$普通线
100
AcDbVertex
100
AcDb2dVertex
 10
300.3555143656527
 20
648.4219792099354
 30
0.0
  0
VERTEX
  5
64E
330
5C3
100
AcDbEntity
  8
Make2D$可见线$普通线
100
AcDbVertex
100
AcDb2dVertex
 10
300.3424109781752
 20
648.4170903983481
 30
0.0
  0
VERTEX
  5
64F
330
5C3
100
AcDbEntity
  8
Make2D$可见线$普通线
100
AcDbVertex
100
AcDb2dVertex
 10
300.3291581478992
 20
648.4125495956363
 30
0.0
  0
VERTEX
  5
650
330
5C3
100
AcDbEntity
  8
Make2D$可见线$普通线
100
AcDbVertex
100
AcDb2dVertex
 10
300.3157891978646
 20
648.4083417909122
 30
0.0
  0
VERTEX
  5
651
330
5C3
100
AcDbEntity
  8
Make2D$可见线$普通线
100
AcDbVertex
100
AcDb2dVertex
 10
300.3023374511116
 20
648.4044519732881
 30
0.0
  0
VERTEX
  5
652
330
5C3
100
AcDbEntity
  8
Make2D$可见线$普通线
100
AcDbVertex
100
AcDb2dVertex
 10
300.2888362306802
 20
648.4008651318766
 30
0.0
  0
VERTEX
  5
653
330
5C3
100
AcDbEntity
  8
Make2D$可见线$普通线
100
AcDbVertex
100
AcDb2dVertex
 10
300.2753188596106
 20
648.3975662557896
 30
0.0
  0
VERTEX
  5
654
330
5C3
100
AcDbEntity
  8
Make2D$可见线$普通线
100
AcDbVertex
100
AcDb2dVertex
 10
300.2618186609429
 20
648.3945403341397
 30
0.0
  0
VERTEX
  5
655
330
5C3
100
AcDbEntity
  8
Make2D$可见线$普通线
100
AcDbVertex
100
AcDb2dVertex
 10
300.2350030729734
 20
648.3892473106
 30
0.0
  0
VERTEX
  5
656
330
5C3
100
AcDbEntity
  8
Make2D$可见线$普通线
100
AcDbVertex
100
AcDb2dVertex
 10
300.2350030729734
 20
648.3487471808983
 30
0.0
  0
VERTEX
  5
657
330
5C3
100
AcDbEntity
  8
Make2D$可见线$普通线
100
AcDbVertex
100
AcDb2dVertex
 10
300.2740031797866
 20
648.3487471808983
 30
0.0
 42
0.1853556575319555
  0
VERTEX
  5
658
330
5C3
100
AcDbEntity
  8
Make2D$可见线$普通线
100
AcDbVertex
100
AcDb2dVertex
 10
300.5981281206578
 20
648.4633722209533
 30
0.0
 42
0.2251731774537503
  0
VERTEX
  5
659
330
5C3
100
AcDbEntity
  8
Make2D$可见线$普通线
100
AcDbVertex
100
AcDb2dVertex
 10
300.7310030729736
 20
648.7207472419344
 30
0.0
 42
0.230861055203286
  0
VERTEX
  5
65A
330
5C3
100
AcDbEntity
  8
Make2D$可见线$普通线
100
AcDbVertex
100
AcDb2dVertex
 10
300.6390031340095
 20
648.9111222171384
 30
0.0
 42
0.1818748687506174
  0
VERTEX
  5
65B
330
5C3
100
AcDbEntity
  8
Make2D$可见线$普通线
100
AcDbVertex
100
AcDb2dVertex
 10
300.4120030882325
 20
648.9887471808984
 30
0.0
 42
0.4037502078753211
  0
VERTEX
  5
65C
330
5C3
100
AcDbEntity
  8
Make2D$可见线$普通线
100
AcDbVertex
100
AcDb2dVertex
 10
299.7550030729734
 20
648.3834972228607
 30
0.0
 42
0.2229137201348473
  0
VERTEX
  5
65D
330
5C3
100
AcDbEntity
  8
Make2D$可见线$普通线
100
AcDbVertex
100
AcDb2dVertex
 10
299.9101281206578
 20
648.0238722285827
 30
0.0
 42
0.1878199106381067
  0
VERTEX
  5
65E
330
5C3
100
AcDbEntity
  8
Make2D$可见线$普通线
100
AcDbVertex
100
AcDb2dVertex
 10
300.3262532446374
 20
647.8847471808983
 30
0.0
 42
0.4144248210917774
  0
VERTEX
  5
65F
330
5C3
100
AcDbEntity
  8
Make2D$可见线$普通线
100
AcDbVertex
100
AcDb2dVertex
 10
301.2265365298908
 20
648.7425924469171
 30
0.0
  0
VERTEX
  5
660
330
5C3
100
AcDbEntity
  8
Make2D$可见线$普通线
100
AcDbVertex
100
AcDb2dVertex
 10
301.2121280901398
 20
648.9413723125074
 30
0.0
  0
VERTEX
  5
661
330
5C3
100
AcDbEntity
  8
Make2D$可见线$普通线
100
AcDbVertex
100
AcDb2dVertex
 10
301.1145033094883
 20
649.2747473945246
 30
0.0
 42
-0.6067211618389913
  0
VERTEX
  5
662
330
5C3
100
AcDbEntity
  8
Make2D$可见线$普通线
100
AcDbVertex
100
AcDb2dVertex
 10
301.435503080603
 20
649.2127471808983
 30
0.0
  0
VERTEX
  5
663
330
5C3
100
AcDbEntity
  8
Make2D$可见线$普通线
100
AcDbVertex
100
AcDb2dVertex
 10
301.4642532751556
 20
649.2177472571934
 30
0.0
  0
VERTEX
  5
664
330
5C3
100
AcDbEntity
  8
Make2D$可见线$普通线
100
AcDbVertex
100
AcDb2dVertex
 10
301.4887531607128
 20
649.2227473334885
 30
0.0
  0
VERTEX
  5
665
330
5C3
100
AcDbEntity
  8
Make2D$可见线$普通线
100
AcDbVertex
100
AcDb2dVertex
 10
301.5150030729734
 20
649.3907472114163
 30
0.0
  0
VERTEX
  5
666
330
5C3
100
AcDbEntity
  8
Make2D$可见线$普通线
100
AcDbVertex
100
AcDb2dVertex
 10
301.5115032637112
 20
649.4324973601917
 30
0.0
 42
0.2117166831399476
  0
VERTEX
  5
667
330
5C3
100
AcDbEntity
  8
Make2D$可见线$普通线
100
AcDbVertex
100
AcDb2dVertex
 10
301.0862531225653
 20
649.3419971999721
 30
0.0
 42
-0.1181802960644287
  0
VERTEX
  5
668
330
5C3
100
AcDbEntity
  8
Make2D$可见线$普通线
100
AcDbVertex
100
AcDb2dVertex
 10
301.0030030729735
 20
649.682247264823
 30
0.0
 42
-0.2476192485072638
  0
VERTEX
  5
669
330
5C3
100
AcDbEntity
  8
Make2D$可见线$普通线
100
AcDbVertex
100
AcDb2dVertex
 10
301.1470030729734
 20
650.0057473182297
 30
0.0
  0
SEQEND
  5
66A
330
5C3
100
AcDbEntity
  8
Make2D$可见线$普通线
  0
POLYLINE
  5
66B
330
1F
100
AcDbEntity
  8
Make2D$可见线$普通线
100
AcDb2dPolyline
 66
     1
 10
0.0
 20
0.0
 30
0.0
  0
VERTEX
  5
66C
330
66B
100
AcDbEntity
  8
Make2D$可见线$普通线
100
AcDbVertex
100
AcDb2dVertex
 10
296.5336220713824
 20
642.2889990752143
 30
0.0
 42
-0.3044020933006269
  0
VERTEX
  5
66D
330
66B
100
AcDbEntity
  8
Make2D$可见线$普通线
100
AcDbVertex
100
AcDb2dVertex
 10
290.5617790447553
 20
646.2959706386658
 30
0.0
  0
VERTEX
  5
66E
330
66B
100
AcDbEntity
  8
Make2D$可见线$普通线
100
AcDbVertex
100
AcDb2dVertex
 10
290.6538947660272
 20
646.6229878005466
 30
0.0
  0
VERTEX
  5
66F
330
66B
100
AcDbEntity
  8
Make2D$可见线$普通线
100
AcDbVertex
100
AcDb2dVertex
 10
290.3036360523985
 20
646.8751164056812
 30
0.0
  0
VERTEX
  5
670
330
66B
100
AcDbEntity
  8
Make2D$可见线$普通线
100
AcDbVertex
100
AcDb2dVertex
 10
290.1866239025745
 20
646.4597152058832
 30
0.0
  0
VERTEX
  5
671
330
66B
100
AcDbEntity
  8
Make2D$可见线$普通线
100
AcDbVertex
100
AcDb2dVertex
 10
290.4702815214144
 20
646.2555284233962
 30
0.0
 42
0.6706747402176334
  0
VERTEX
  5
672
330
66B
100
AcDbEntity
  8
Make2D$可见线$普通线
100
AcDbVertex
100
AcDb2dVertex
 10
302.596962621332
 20
646.2555284234219
 30
0.0
  0
VERTEX
  5
673
330
66B
100
AcDbEntity
  8
Make2D$可见线$普通线
100
AcDbVertex
100
AcDb2dVertex
 10
302.8806202401904
 20
646.4597152058832
 30
0.0
  0
VERTEX
  5
674
330
66B
100
AcDbEntity
  8
Make2D$可见线$普通线
100
AcDbVertex
100
AcDb2dVertex
 10
302.7636080903663
 20
646.8751164056812
 30
0.0
  0
VERTEX
  5
675
330
66B
100
AcDbEntity
  8
Make2D$可见线$普通线
100
AcDbVertex
100
AcDb2dVertex
 10
302.4133493767376
 20
646.6229878005466
 30
0.0
  0
VERTEX
  5
676
330
66B
100
AcDbEntity
  8
Make2D$可见线$普通线
100
AcDbVertex
100
AcDb2dVertex
 10
302.5054650980096
 20
646.2959706386658
 30
0.0
 42
-0.3044020594195898
  0
VERTEX
  5
677
330
66B
100
AcDbEntity
  8
Make2D$可见线$普通线
100
AcDbVertex
100
AcDb2dVertex
 10
296.5336220713824
 20
642.2889990752143
 30
0.0
  0
SEQEND
  5
678
330
66B
100
AcDbEntity
  8
Make2D$可见线$普通线
  0
POLYLINE
  5
679
330
1F
100
AcDbEntity
  8
Make2D$可见线$普通线
100
AcDb2dPolyline
 66
     1
 10
0.0
 20
0.0
 30
0.0
  0
VERTEX
  5
67A
330
679
100
AcDbEntity
  8
Make2D$可见线$普通线
100
AcDbVertex
100
AcDb2dVertex
 10
293.6790294652363
 20
647.9967471808984
 30
0.0
 42
-0.2449047009558876
  0
VERTEX
  5
67B
330
679
100
AcDbEntity
  8
Make2D$可见线$普通线
100
AcDbVertex
100
AcDb2dVertex
 10
293.5270294652364
 20
648.0714972228606
 30
0.0
 42
-0.1678952691649102
  0
VERTEX
  5
67C
330
679
100
AcDbEntity
  8
Make2D$可见线$普通线
100
AcDbVertex
100
AcDb2dVertex
 10
293.4690294347183
 20
648.2659973830804
 30
0.0
 42
-0.1698696505814053
  0
VERTEX
  5
67D
330
679
100
AcDbEntity
  8
Make2D$可见线$普通线
100
AcDbVertex
100
AcDb2dVertex
 10
293.5697795071987
 20
648.5537472571934
 30
0.0
 42
-0.2411224336032266
  0
VERTEX
  5
67E
330
679
100
AcDbEntity
  8
Make2D$可见线$普通线
100
AcDbVertex
100
AcDb2dVertex
 10
293.8020296330856
 20
648.6847471808983
 30
0.0
 42
-0.2170517071099981
  0
VERTEX
  5
67F
330
679
100
AcDbEntity
  8
Make2D$可见线$普通线
100
AcDbVertex
100
AcDb2dVertex
 10
293.959904478588
 20
648.6211221866204
 30
0.0
 42
-0.1915665817503983
  0
VERTEX
  5
680
330
679
100
AcDbEntity
  8
Make2D$可见线$普通线
100
AcDbVertex
100
AcDb2dVertex
 10
294.0187795224577
 20
648.4467472114163
 30
0.0
 42
-0.1654568475265961
  0
VERTEX
  5
681
330
679
100
AcDbEntity
  8
Make2D$可见线$普通线
100
AcDbVertex
100
AcDb2dVertex
 10
293.9137795071987
 20
648.1378722591007
 30
0.0
 42
-0.2419930270510222
  0
VERTEX
  5
682
330
679
100
AcDbEntity
  8
Make2D$可见线$普通线
100
AcDbVertex
100
AcDb2dVertex
 10
293.6790294652363
 20
647.9967471808984
 30
0.0
  0
SEQEND
  5
683
330
679
100
AcDbEntity
  8
Make2D$可见线$普通线
  0
POLYLINE
  5
684
330
1F
100
AcDbEntity
  8
Make2D$可见线$普通线
100
AcDb2dPolyline
 66
     1
 10
0.0
 20
0.0
 30
0.0
  0
VERTEX
  5
685
330
684
100
AcDbEntity
  8
Make2D$可见线$普通线
100
AcDbVertex
100
AcDb2dVertex
 10
291.4690294347182
 20
648.5767472419344
 30
0.0
  0
VERTEX
  5
686
330
684
100
AcDbEntity
  8
Make2D$可见线$普通线
100
AcDbVertex
100
AcDb2dVertex
 10
291.4690294347183
 20
648.2037474097837
 30
0.0
 42
-0.1038800685397902
  0
VERTEX
  5
687
330
684
100
AcDbEntity
  8
Make2D$可见线$普通线
100
AcDbVertex
100
AcDb2dVertex
 10
291.3987794614214
 20
648.1041222323977
 30
0.0
 42
-0.4632995101680335
  0
VERTEX
  5
688
330
684
100
AcDbEntity
  8
Make2D$可见线$普通线
100
AcDbVertex
100
AcDb2dVertex
 10
291.0815295033839
 20
648.0999972915263
 30
0.0
 42
-0.1767269398261707
  0
VERTEX
  5
689
330
684
100
AcDbEntity
  8
Make2D$可见线$普通线
100
AcDbVertex
100
AcDb2dVertex
 10
291.0210294347183
 20
648.3009971847131
 30
0.0
 42
-0.1820413154728391
  0
VERTEX
  5
68A
330
684
100
AcDbEntity
  8
Make2D$可见线$普通线
100
AcDbVertex
100
AcDb2dVertex
 10
291.1064045167354
 20
648.5517472266754
 30
0.0
 42
-0.2279223017321154
  0
VERTEX
  5
68B
330
684
100
AcDbEntity
  8
Make2D$可见线$普通线
100
AcDbVertex
100
AcDb2dVertex
 10
291.2982795148282
 20
648.6527471808984
 30
0.0
 42
-0.2170032818999826
  0
VERTEX
  5
68C
330
684
100
AcDbEntity
  8
Make2D$可见线$普通线
100
AcDbVertex
100
AcDb2dVertex
 10
291.4690294347182
 20
648.5767472419343
 30
0.0
  0
SEQEND
  5
68D
330
684
100
AcDbEntity
  8
Make2D$可见线$普通线
  0
POLYLINE
  5
68E
330
1F
100
AcDbEntity
  8
Make2D$可见线$普通线
100
AcDb2dPolyline
 66
     1
 10
0.0
 20
0.0
 30
0.0
  0
VERTEX
  5
68F
330
68E
100
AcDbEntity
  8
Make2D$可见线$普通线
100
AcDbVertex
100
AcDb2dVertex
 10
289.8370294347183
 20
648.9302472648229
 30
0.0
  0
VERTEX
  5
690
330
68E
100
AcDbEntity
  8
Make2D$可见线$普通线
100
AcDbVertex
100
AcDb2dVertex
 10
289.8370294347183
 20
649.5547472724525
 30
0.0
 42
-0.0984147910623966
  0
VERTEX
  5
691
330
68E
100
AcDbEntity
  8
Make2D$可见线$普通线
100
AcDbVertex
100
AcDb2dVertex
 10
289.8854044404404
 20
649.8556222247681
 30
0.0
 42
-0.306575627746856
  0
VERTEX
  5
692
330
68E
100
AcDbEntity
  8
Make2D$可见线$普通线
100
AcDbVertex
100
AcDb2dVertex
 10
290.0167794919397
 20
649.9647471808983
 30
0.0
 42
-0.2780273593276126
  0
VERTEX
  5
693
330
68E
100
AcDbEntity
  8
Make2D$可见线$普通线
100
AcDbVertex
100
AcDb2dVertex
 10
290.106529518643
 20
649.9076222858042
 30
0.0
 42
-0.1357765653184207
  0
VERTEX
  5
694
330
68E
100
AcDbEntity
  8
Make2D$可见线$普通线
100
AcDbVertex
100
AcDb2dVertex
 10
290.1410294347183
 20
649.7624972686377
 30
0.0
 42
-0.084848396603911
  0
VERTEX
  5
695
330
68E
100
AcDbEntity
  8
Make2D$可见线$普通线
100
AcDbVertex
100
AcDb2dVertex
 10
290.0754045319945
 20
649.4272474021541
 30
0.0
 42
-0.0362415767757243
  0
VERTEX
  5
696
330
68E
100
AcDbEntity
  8
Make2D$可见线$普通线
100
AcDbVertex
100
AcDb2dVertex
 10
289.8370294347183
 20
648.9302472648229
 30
0.0
  0
SEQEND
  5
697
330
68E
100
AcDbEntity
  8
Make2D$可见线$普通线
  0
POLYLINE
  5
698
330
1F
100
AcDbEntity
  8
Make2D$可见线$普通线
100
AcDb2dPolyline
 66
     1
 10
0.0
 20
0.0
 30
0.0
  0
VERTEX
  5
699
330
698
100
AcDbEntity
  8
Make2D$可见线$普通线
100
AcDbVertex
100
AcDb2dVertex
 10
304.7330031034916
 20
647.9967471808983
 30
0.0
 42
-0.2443769270274156
  0
VERTEX
  5
69A
330
698
100
AcDbEntity
  8
Make2D$可见线$普通线
100
AcDbVertex
100
AcDb2dVertex
 10
304.5810031034914
 20
648.0714972228608
 30
0.0
 42
-0.1680251430991836
  0
VERTEX
  5
69B
330
698
100
AcDbEntity
  8
Make2D$可见线$普通线
100
AcDbVertex
100
AcDb2dVertex
 10
304.5230030729734
 20
648.2659973830803
 30
0.0
 42
-0.1698059501850859
  0
VERTEX
  5
69C
330
698
100
AcDbEntity
  8
Make2D$可见线$普通线
100
AcDbVertex
100
AcDb2dVertex
 10
304.6237531454538
 20
648.5537472571934
 30
0.0
 42
-0.2414809695510843
  0
VERTEX
  5
69D
330
698
100
AcDbEntity
  8
Make2D$可见线$普通线
100
AcDbVertex
100
AcDb2dVertex
 10
304.8560032713407
 20
648.6847471808983
 30
0.0
 42
-0.2169448551983465
  0
VERTEX
  5
69E
330
698
100
AcDbEntity
  8
Make2D$可见线$普通线
100
AcDbVertex
100
AcDb2dVertex
 10
305.013878116843
 20
648.6211221866204
 30
0.0
 42
-0.1917783985088951
  0
VERTEX
  5
69F
330
698
100
AcDbEntity
  8
Make2D$可见线$普通线
100
AcDbVertex
100
AcDb2dVertex
 10
305.0727531607128
 20
648.4467472114163
 30
0.0
 42
-0.1654571122390545
  0
VERTEX
  5
6A0
330
698
100
AcDbEntity
  8
Make2D$可见线$普通线
100
AcDbVertex
100
AcDb2dVertex
 10
304.9677531454539
 20
648.1378722591005
 30
0.0
 42
-0.2425083582991765
  0
VERTEX
  5
6A1
330
698
100
AcDbEntity
  8
Make2D$可见线$普通线
100
AcDbVertex
100
AcDb2dVertex
 10
304.7330031034916
 20
647.9967471808983
 30
0.0
  0
SEQEND
  5
6A2
330
698
100
AcDbEntity
  8
Make2D$可见线$普通线
  0
POLYLINE
  5
6A3
330
1F
100
AcDbEntity
  8
Make2D$可见线$普通线
100
AcDb2dPolyline
 66
     1
 10
0.0
 20
0.0
 30
0.0
  0
VERTEX
  5
6A4
330
6A3
100
AcDbEntity
  8
Make2D$可见线$普通线
100
AcDbVertex
100
AcDb2dVertex
 10
302.9865033094883
 20
647.9967471808983
 30
0.0
 42
-0.4944711583145998
  0
VERTEX
  5
6A5
330
6A3
100
AcDbEntity
  8
Make2D$可见线$普通线
100
AcDbVertex
100
AcDb2dVertex
 10
302.7310030729736
 20
648.2882472343049
 30
0.0
 42
-0.1727495767037577
  0
VERTEX
  5
6A6
330
6A3
100
AcDbEntity
  8
Make2D$可见线$普通线
100
AcDbVertex
100
AcDb2dVertex
 10
302.8066281282876
 20
648.5448722438418
 30
0.0
 42
-0.2355852892474941
  0
VERTEX
  5
6A7
330
6A3
100
AcDbEntity
  8
Make2D$可见线$普通线
100
AcDbVertex
100
AcDb2dVertex
 10
303.0090031645276
 20
648.6367471808984
 30
0.0
 42
-0.2139093365277508
  0
VERTEX
  5
6A8
330
6A3
100
AcDbEntity
  8
Make2D$可见线$普通线
100
AcDbVertex
100
AcDb2dVertex
 10
303.2020031797866
 20
648.5596222247678
 30
0.0
 42
-0.1944596144871861
  0
VERTEX
  5
6A9
330
6A3
100
AcDbEntity
  8
Make2D$可见线$普通线
100
AcDbVertex
100
AcDb2dVertex
 10
303.2750030729734
 20
648.3452473716361
 30
0.0
 42
-0.1751002038669383
  0
VERTEX
  5
6AA
330
6A3
100
AcDbEntity
  8
Make2D$可见线$普通线
100
AcDbVertex
100
AcDb2dVertex
 10
303.1967530996768
 20
648.0921222934336
 30
0.0
 42
-0.2360418704021699
  0
VERTEX
  5
6AB
330
6A3
100
AcDbEntity
  8
Make2D$可见线$普通线
100
AcDbVertex
100
AcDb2dVertex
 10
302.9865033094883
 20
647.9967471808984
 30
0.0
  0
SEQEND
  5
6AC
330
6A3
100
AcDbEntity
  8
Make2D$可见线$普通线
  0
ENDSEC
  0
SECTION
  2
OBJECTS
  0
DICTIONARY
  5
C
330
0
100
AcDbDictionary
281
     1
  3
ACAD_GROUP
350
D
  3
ACAD_LAYOUT
350
1A
  3
ACAD_MATERIAL
350
3B
  3
ACAD_MLEADERSTYLE
350
6D7
  3
ACAD_MLINESTYLE
350
17
  3
ACAD_PLOTSETTINGS
350
19
  3
ACAD_PLOTSTYLENAME
350
E
  3
ACAD_SCALELIST
350
3F
  3
ACAD_TABLESTYLE
350
6D6
  3
ACAD_VISUALSTYLE
350
2A
  3
AcDbVariableDictionary
350
6AD
  0
DICTIONARY
  5
D
102
{ACAD_REACTORS
330
C
102
}
330
C
100
AcDbDictionary
281
     1
  0
DICTIONARY
  5
1A
102
{ACAD_REACTORS
330
C
102
}
330
C
100
AcDbDictionary
281
     1
  3
Layout1
350
1E
  3
Layout2
350
26
  3
Model
350
22
  0
DICTIONARY
  5
3B
102
{ACAD_REACTORS
330
C
102
}
330
C
100
AcDbDictionary
281
     1
  3
ByBlock
350
3D
  3
ByLayer
350
3C
  3
Global
350
3E
  0
DICTIONARY
  5
6D7
102
{ACAD_REACTORS
330
C
102
}
330
C
100
AcDbDictionary
281
     1
  0
DICTIONARY
  5
17
102
{ACAD_REACTORS
330
C
102
}
330
C
100
AcDbDictionary
281
     1
  3
Standard
350
18
  0
DICTIONARY
  5
19
102
{ACAD_REACTORS
330
C
102
}
330
C
100
AcDbDictionary
281
     1
  0
ACDBDICTIONARYWDFLT
  5
E
102
{ACAD_REACTORS
330
C
102
}
330
C
100
AcDbDictionary
281
     1
  3
Normal
350
F
100
AcDbDictionaryWithDefault
340
F
  0
DICTIONARY
  5
3F
102
{ACAD_REACTORS
330
C
102
}
330
C
100
AcDbDictionary
281
     1
  3
A0
350
40
  3
A1
350
41
  3
A2
350
42
  3
A3
350
43
  3
A4
350
44
  3
A5
350
45
  3
A6
350
46
  3
A7
350
47
  3
A8
350
48
  3
A9
350
49
  3
B0
350
4A
  3
B1
350
4B
  3
B2
350
4C
  3
B3
350
4D
  3
B4
350
4E
  3
B5
350
4F
  3
B6
350
50
  3
B7
350
51
  3
B8
350
52
  3
B9
350
53
  3
C0
350
54
  3
C1
350
55
  3
C2
350
56
  3
C3
350
57
  3
C4
350
58
  3
C5
350
59
  3
C6
350
5A
  3
C7
350
5B
  3
C8
350
5C
  3
C9
350
5D
  3
D0
350
5E
  3
D1
350
5F
  3
D2
350
60
  0
DICTIONARY
  5
6D6
102
{ACAD_REACTORS
330
C
102
}
330
C
100
AcDbDictionary
281
     1
  0
DICTIONARY
  5
2A
102
{ACAD_REACTORS
330
C
102
}
330
C
100
AcDbDictionary
281
     1
  3
2dWireframe
350
2F
  3
3D Hidden
350
31
  3
3dWireframe
350
30
  3
Basic
350
32
  3
Brighten
350
36
  3
ColorChange
350
3A
  3
Conceptual
350
34
  3
Dim
350
35
  3
Facepattern
350
39
  3
Flat
350
2B
  3
FlatWithEdges
350
2C
  3
Gouraud
350
2D
  3
GouraudWithEdges
350
2E
  3
Linepattern
350
38
  3
Realistic
350
33
  3
Thicken
350
37
  0
DICTIONARY
  5
6AD
102
{ACAD_REACTORS
330
C
102
}
330
C
100
AcDbDictionary
281
     1
  3
CANNOSCALE
350
6AE
  3
MSLTSCALE
350
6AF
  0
LAYOUT
  5
1E
102
{ACAD_REACTORS
330
1A
102
}
330
1A
100
AcDbPlotSettings
  1

  2
none_device
  4

  6

 40
0.0
 41
0.0
 42
0.0
 43
0.0
 44
0.0
 45
0.0
 46
0.0
 47
0.0
 48
0.0
 49
0.0
140
0.0
141
0.0
142
1.0
143
1.0
 70
   688
 72
     0
 73
     0
 74
     5
  7

 75
    16
 76
     0
 77
     2
 78
   300
147
1.0
148
0.0
149
0.0
100
AcDbLayout
  1
Layout1
 70
     1
 71
     1
 10
0.0
 20
0.0
 11
12.0
 21
9.0
 12
0.0
 22
0.0
 32
0.0
 14
1.000000000000000E+20
 24
1.000000000000000E+20
 34
1.000000000000000E+20
 15
-1.000000000000000E+20
 25
-1.000000000000000E+20
 35
-1.000000000000000E+20
146
0.0
 13
0.0
 23
0.0
 33
0.0
 16
1.0
 26
0.0
 36
0.0
 17
0.0
 27
1.0
 37
0.0
 76
     0
330
1B
  0
LAYOUT
  5
26
102
{ACAD_REACTORS
330
1A
102
}
330
1A
100
AcDbPlotSettings
  1

  2
none_device
  4

  6

 40
0.0
 41
0.0
 42
0.0
 43
0.0
 44
0.0
 45
0.0
 46
0.0
 47
0.0
 48
0.0
 49
0.0
140
0.0
141
0.0
142
1.0
143
1.0
 70
   688
 72
     0
 73
     0
 74
     5
  7

 75
    16
 76
     0
 77
     2
 78
   300
147
1.0
148
0.0
149
0.0
100
AcDbLayout
  1
Layout2
 70
     1
 71
     2
 10
0.0
 20
0.0
 11
0.0
 21
0.0
 12
0.0
 22
0.0
 32
0.0
 14
0.0
 24
0.0
 34
0.0
 15
0.0
 25
0.0
 35
0.0
146
0.0
 13
0.0
 23
0.0
 33
0.0
 16
1.0
 26
0.0
 36
0.0
 17
0.0
 27
1.0
 37
0.0
 76
     0
330
23
  0
LAYOUT
  5
22
102
{ACAD_REACTORS
330
1A
102
}
330
1A
100
AcDbPlotSettings
  1

  2
none_device
  4
Letter_(8.50_x_11.00_Inches)
  6

 40
6.35
 41
6.35
 42
6.35000508
 43
6.35000508
 44
215.9
 45
279.4
 46
0.0
 47
0.0
 48
0.0
 49
0.0
140
0.0
141
0.0
142
1.0
143
1.0
 70
  1712
 72
     0
 73
     0
 74
     0
  7

 75
     0
 76
     0
 77
     2
 78
   300
147
1.0
148
0.0
149
0.0
100
AcDbLayout
  1
Model
 70
     1
 71
     0
 10
0.0
 20
0.0
 11
12.0
 21
9.0
 12
0.0
 22
0.0
 32
0.0
 14
226.5247669089224
 24
508.3101841083326
 34
0.0
 15
366.5424772338423
 25
715.3102619216057
 35
0.0
146
0.0
 13
0.0
 23
0.0
 33
0.0
 16
1.0
 26
0.0
 36
0.0
 17
0.0
 27
1.0
 37
0.0
 76
     0
330
1F
331
29
  0
MATERIAL
  5
3D
102
{ACAD_REACTORS
330
3B
102
}
102
{ACAD_XDICTIONARY
360
6D2
102
}
330
3B
100
AcDbMaterial
  1
ByBlock
  0
MATERIAL
  5
3C
102
{ACAD_REACTORS
330
3B
102
}
102
{ACAD_XDICTIONARY
360
6D0
102
}
330
3B
100
AcDbMaterial
  1
ByLayer
  0
MATERIAL
  5
3E
102
{ACAD_REACTORS
330
3B
102
}
102
{ACAD_XDICTIONARY
360
6D4
102
}
330
3B
100
AcDbMaterial
  1
Global
  0
MLINESTYLE
  5
18
102
{ACAD_REACTORS
330
17
102
}
330
17
100
AcDbMlineStyle
  2
Standard
 70
     0
  3

 62
   256
 51
90.0
 52
90.0
 71
     2
 49
0.5
 62
   256
  6
BYLAYER
 49
-0.5
 62
   256
  6
BYLAYER
  0
ACDBPLACEHOLDER
  5
F
102
{ACAD_REACTORS
330
E
102
}
330
E
  0
SCALE
  5
40
102
{ACAD_REACTORS
330
3F
102
}
330
3F
100
AcDbScale
 70
     0
300
1:1
140
1.0
141
1.0
290
     1
  0
SCALE
  5
41
102
{ACAD_REACTORS
330
3F
102
}
330
3F
100
AcDbScale
 70
     0
300
1:2
140
1.0
141
2.0
290
     0
  0
SCALE
  5
42
102
{ACAD_REACTORS
330
3F
102
}
330
3F
100
AcDbScale
 70
     0
300
1:4
140
1.0
141
4.0
290
     0
  0
SCALE
  5
43
102
{ACAD_REACTORS
330
3F
102
}
330
3F
100
AcDbScale
 70
     0
300
1:5
140
1.0
141
5.0
290
     0
  0
SCALE
  5
44
102
{ACAD_REACTORS
330
3F
102
}
330
3F
100
AcDbScale
 70
     0
300
1:8
140
1.0
141
8.0
290
     0
  0
SCALE
  5
45
102
{ACAD_REACTORS
330
3F
102
}
330
3F
100
AcDbScale
 70
     0
300
1:10
140
1.0
141
10.0
290
     0
  0
SCALE
  5
46
102
{ACAD_REACTORS
330
3F
102
}
330
3F
100
AcDbScale
 70
     0
300
1:16
140
1.0
141
16.0
290
     0
  0
SCALE
  5
47
102
{ACAD_REACTORS
330
3F
102
}
330
3F
100
AcDbScale
 70
     0
300
1:20
140
1.0
141
20.0
290
     0
  0
SCALE
  5
48
102
{ACAD_REACTORS
330
3F
102
}
330
3F
100
AcDbScale
 70
     0
300
1:30
140
1.0
141
30.0
290
     0
  0
SCALE
  5
49
102
{ACAD_REACTORS
330
3F
102
}
330
3F
100
AcDbScale
 70
     0
300
1:40
140
1.0
141
40.0
290
     0
  0
SCALE
  5
4A
102
{ACAD_REACTORS
330
3F
102
}
330
3F
100
AcDbScale
 70
     0
300
1:50
140
1.0
141
50.0
290
     0
  0
SCALE
  5
4B
102
{ACAD_REACTORS
330
3F
102
}
330
3F
100
AcDbScale
 70
     0
300
1:100
140
1.0
141
100.0
290
     0
  0
SCALE
  5
4C
102
{ACAD_REACTORS
330
3F
102
}
330
3F
100
AcDbScale
 70
     0
300
2:1
140
2.0
141
1.0
290
     0
  0
SCALE
  5
4D
102
{ACAD_REACTORS
330
3F
102
}
330
3F
100
AcDbScale
 70
     0
300
4:1
140
4.0
141
1.0
290
     0
  0
SCALE
  5
4E
102
{ACAD_REACTORS
330
3F
102
}
330
3F
100
AcDbScale
 70
     0
300
8:1
140
8.0
141
1.0
290
     0
  0
SCALE
  5
4F
102
{ACAD_REACTORS
330
3F
102
}
330
3F
100
AcDbScale
 70
     0
300
10:1
140
10.0
141
1.0
290
     0
  0
SCALE
  5
50
102
{ACAD_REACTORS
330
3F
102
}
330
3F
100
AcDbScale
 70
     0
300
100:1
140
100.0
141
1.0
290
     0
  0
SCALE
  5
51
102
{ACAD_REACTORS
330
3F
102
}
330
3F
100
AcDbScale
 70
     0
300
1/128" = 1'-0"
140
0.0078125
141
12.0
290
     0
  0
SCALE
  5
52
102
{ACAD_REACTORS
330
3F
102
}
330
3F
100
AcDbScale
 70
     0
300
1/64" = 1'-0"
140
0.015625
141
12.0
290
     0
  0
SCALE
  5
53
102
{ACAD_REACTORS
330
3F
102
}
330
3F
100
AcDbScale
 70
     0
300
1/32" = 1'-0"
140
0.03125
141
12.0
290
     0
  0
SCALE
  5
54
102
{ACAD_REACTORS
330
3F
102
}
330
3F
100
AcDbScale
 70
     0
300
1/16" = 1'-0"
140
0.0625
141
12.0
290
     0
  0
SCALE
  5
55
102
{ACAD_REACTORS
330
3F
102
}
330
3F
100
AcDbScale
 70
     0
300
3/32" = 1'-0"
140
0.09375
141
12.0
290
     0
  0
SCALE
  5
56
102
{ACAD_REACTORS
330
3F
102
}
330
3F
100
AcDbScale
 70
     0
300
1/8" = 1'-0"
140
0.125
141
12.0
290
     0
  0
SCALE
  5
57
102
{ACAD_REACTORS
330
3F
102
}
330
3F
100
AcDbScale
 70
     0
300
3/16" = 1'-0"
140
0.1875
141
12.0
290
     0
  0
SCALE
  5
58
102
{ACAD_REACTORS
330
3F
102
}
330
3F
100
AcDbScale
 70
     0
300
1/4" = 1'-0"
140
0.25
141
12.0
290
     0
  0
SCALE
  5
59
102
{ACAD_REACTORS
330
3F
102
}
330
3F
100
AcDbScale
 70
     0
300
3/8" = 1'-0"
140
0.375
141
12.0
290
     0
  0
SCALE
  5
5A
102
{ACAD_REACTORS
330
3F
102
}
330
3F
100
AcDbScale
 70
     0
300
1/2" = 1'-0"
140
0.5
141
12.0
290
     0
  0
SCALE
  5
5B
102
{ACAD_REACTORS
330
3F
102
}
330
3F
100
AcDbScale
 70
     0
300
3/4" = 1'-0"
140
0.75
141
12.0
290
     0
  0
SCALE
  5
5C
102
{ACAD_REACTORS
330
3F
102
}
330
3F
100
AcDbScale
 70
     0
300
1" = 1'-0"
140
1.0
141
12.0
290
     0
  0
SCALE
  5
5D
102
{ACAD_REACTORS
330
3F
102
}
330
3F
100
AcDbScale
 70
     0
300
1-1/2" = 1'-0"
140
1.5
141
12.0
290
     0
  0
SCALE
  5
5E
102
{ACAD_REACTORS
330
3F
102
}
330
3F
100
AcDbScale
 70
     0
300
3" = 1'-0"
140
3.0
141
12.0
290
     0
  0
SCALE
  5
5F
102
{ACAD_REACTORS
330
3F
102
}
330
3F
100
AcDbScale
 70
     0
300
6" = 1'-0"
140
6.0
141
12.0
290
     0
  0
SCALE
  5
60
102
{ACAD_REACTORS
330
3F
102
}
330
3F
100
AcDbScale
 70
     0
300
1'-0" = 1'-0"
140
12.0
141
12.0
290
     0
  0
VISUALSTYLE
  5
2F
102
{ACAD_REACTORS
330
2A
102
}
102
{ACAD_XDICTIONARY
360
6B8
102
}
330
2A
100
AcDbVisualStyle
  2
2dWireframe
 70
     4
 71
     0
 72
     2
 73
     0
 90
        0
 40
0.6
 41
30.0
 62
     5
 63
     7
421
 16777215
 74
     1
 91
        4
 64
     7
 65
   257
 75
     1
175
     1
 42
1.0
 92
        0
 66
   257
 43
1.0
 76
     1
 77
     6
 78
     2
 67
     7
 79
     5
170
     0
171
     0
290
     0
174
     0
 93
        1
 44
0.0
173
     0
291
     0
 45
0.0
1001
ACAD
1000
AcDbSavedByObjectVersion
1070
     0
  0
VISUALSTYLE
  5
31
102
{ACAD_REACTORS
330
2A
102
}
102
{ACAD_XDICTIONARY
360
6BC
102
}
330
2A
100
AcDbVisualStyle
  2
3D Hidden
 70
     6
 71
     1
 72
     2
 73
     2
 90
        0
 40
0.6
 41
30.0
 62
     5
 63
     7
421
 16777215
 74
     2
 91
        2
 64
     7
 65
   257
 75
     2
175
     1
 42
40.0
 92
        0
 66
   257
 43
1.0
 76
     1
 77
     6
 78
     2
 67
     7
 79
     3
170
     0
171
     0
290
     0
174
     0
 93
        1
 44
0.0
173
     0
291
     0
 45
0.0
1001
ACAD
1000
AcDbSavedByObjectVersion
1070
     0
  0
VISUALSTYLE
  5
30
102
{ACAD_REACTORS
330
2A
102
}
102
{ACAD_XDICTIONARY
360
6BA
102
}
330
2A
100
AcDbVisualStyle
  2
3dWireframe
 70
     5
 71
     0
 72
     2
 73
     0
 90
        0
 40
0.6
 41
30.0
 62
     5
 63
     7
421
 16777215
 74
     1
 91
        4
 64
     7
 65
   257
 75
     1
175
     1
 42
1.0
 92
        0
 66
   257
 43
1.0
 76
     1
 77
     6
 78
     2
 67
     7
 79
     5
170
     0
171
     0
290
     0
174
     0
 93
        1
 44
0.0
173
     0
291
     0
 45
0.0
1001
ACAD
1000
AcDbSavedByObjectVersion
1070
     0
  0
VISUALSTYLE
  5
32
102
{ACAD_REACTORS
330
2A
102
}
102
{ACAD_XDICTIONARY
360
6BE
102
}
330
2A
100
AcDbVisualStyle
  2
Basic
 70
     7
 71
     1
 72
     0
 73
     1
 90
        0
 40
0.6
 41
30.0
 62
     5
 63
     7
421
 16777215
 74
     0
 91
        4
 64
     7
 65
   257
 75
     1
175
     1
 42
1.0
 92
        8
 66
     7
 43
1.0
 76
     1
 77
     6
 78
     2
 67
     7
 79
     5
170
     0
171
     0
290
     0
174
     0
 93
        1
 44
0.0
173
     0
291
     1
 45
0.0
1001
ACAD
1000
AcDbSavedByObjectVersion
1070
     0
  0
VISUALSTYLE
  5
36
102
{ACAD_REACTORS
330
2A
102
}
102
{ACAD_XDICTIONARY
360
6C6
102
}
330
2A
100
AcDbVisualStyle
  2
Brighten
 70
    12
 71
     2
 72
     2
 73
     0
 90
        0
 40
0.6
 41
30.0
 62
     5
 63
     7
421
 16777215
 74
     1
 91
        4
 64
     7
 65
   257
 75
     1
175
     1
 42
1.0
 92
        8
 66
     7
 43
1.0
 76
     1
 77
     6
 78
     2
 67
     7
 79
     5
170
     0
171
     0
290
     0
174
     0
 93
        1
 44
50.0
173
     0
291
     1
 45
0.0
1001
ACAD
1000
AcDbSavedByObjectVersion
1070
     0
  0
VISUALSTYLE
  5
3A
102
{ACAD_REACTORS
330
2A
102
}
102
{ACAD_XDICTIONARY
360
6CE
102
}
330
2A
100
AcDbVisualStyle
  2
ColorChange
 70
    16
 71
     2
 72
     2
 73
     3
 90
        0
 40
0.6
 41
30.0
 62
     5
 63
     8
421
  8421504
 74
     1
 91
        4
 64
     7
 65
   257
 75
     1
175
     1
 42
1.0
 92
        8
 66
     8
424
  8421504
 43
1.0
 76
     1
 77
     6
 78
     2
 67
     7
 79
     5
170
     0
171
     0
290
     0
174
     0
 93
        1
 44
0.0
173
     0
291
     1
 45
0.0
1001
ACAD
1000
AcDbSavedByObjectVersion
1070
     0
  0
VISUALSTYLE
  5
34
102
{ACAD_REACTORS
330
2A
102
}
102
{ACAD_XDICTIONARY
360
6C2
102
}
330
2A
100
AcDbVisualStyle
  2
Conceptual
 70
     9
 71
     3
 72
     2
 73
     0
 90
        0
 40
0.6
 41
30.0
 62
     5
 63
     7
421
 16777215
 74
     2
 91
        2
 64
     7
 65
   257
 75
     1
175
     1
 42
40.0
 92
        8
 66
     7
 43
1.0
 76
     1
 77
     6
 78
     2
 67
     7
 79
     3
170
     0
171
     0
290
     0
174
     0
 93
        1
 44
0.0
173
     0
291
     0
 45
0.0
1001
ACAD
1000
AcDbSavedByObjectVersion
1070
     0
  0
VISUALSTYLE
  5
35
102
{ACAD_REACTORS
330
2A
102
}
102
{ACAD_XDICTIONARY
360
6C4
102
}
330
2A
100
AcDbVisualStyle
  2
Dim
 70
    11
 71
     2
 72
     2
 73
     0
 90
        0
 40
0.6
 41
30.0
 62
     5
 63
     7
421
 16777215
 74
     1
 91
        4
 64
     7
 65
   257
 75
     1
175
     1
 42
1.0
 92
        8
 66
     7
 43
1.0
 76
     1
 77
     6
 78
     2
 67
     7
 79
     5
170
     0
171
     0
290
     0
174
     0
 93
        1
 44
-50.0
173
     0
291
     1
 45
0.0
1001
ACAD
1000
AcDbSavedByObjectVersion
1070
     0
  0
VISUALSTYLE
  5
39
102
{ACAD_REACTORS
330
2A
102
}
102
{ACAD_XDICTIONARY
360
6CC
102
}
330
2A
100
AcDbVisualStyle
  2
Facepattern
 70
    15
 71
     2
 72
     2
 73
     0
 90
        0
 40
0.6
 41
30.0
 62
     5
 63
     7
421
 16777215
 74
     1
 91
        4
 64
     7
 65
   257
 75
     1
175
     1
 42
1.0
 92
        8
 66
     7
 43
1.0
 76
     1
 77
     6
 78
     2
 67
     7
 79
     5
170
     0
171
     0
290
     0
174
     0
 93
        1
 44
0.0
173
     0
291
     1
 45
0.0
1001
ACAD
1000
AcDbSavedByObjectVersion
1070
     0
  0
VISUALSTYLE
  5
2B
102
{ACAD_REACTORS
330
2A
102
}
102
{ACAD_XDICTIONARY
360
6B0
102
}
330
2A
100
AcDbVisualStyle
  2
Flat
 70
     0
 71
     2
 72
     1
 73
     1
 90
        2
 40
0.6
 41
30.0
 62
     5
 63
     7
421
 16777215
 74
     0
 91
        4
 64
     7
 65
   257
 75
     1
175
     1
 42
1.0
 92
        8
 66
     7
 43
1.0
 76
     1
 77
     6
 78
     2
 67
     7
 79
     5
170
     0
171
     0
290
     0
174
     0
 93
       13
 44
0.0
173
     0
291
     1
 45
0.0
1001
ACAD
1000
AcDbSavedByObjectVersion
1070
     0
  0
VISUALSTYLE
  5
2C
102
{ACAD_REACTORS
330
2A
102
}
102
{ACAD_XDICTIONARY
360
6B2
102
}
330
2A
100
AcDbVisualStyle
  2
FlatWithEdges
 70
     1
 71
     2
 72
     1
 73
     1
 90
        2
 40
0.6
 41
30.0
 62
     5
 63
     7
421
 16777215
 74
     1
 91
        4
 64
     7
 65
   257
 75
     1
175
     1
 42
1.0
 92
        0
 66
   257
 43
1.0
 76
     1
 77
     6
 78
     2
 67
     7
 79
     5
170
     0
171
     0
290
     0
174
     0
 93
       13
 44
0.0
173
     0
291
     1
 45
0.0
1001
ACAD
1000
AcDbSavedByObjectVersion
1070
     0
  0
VISUALSTYLE
  5
2D
102
{ACAD_REACTORS
330
2A
102
}
102
{ACAD_XDICTIONARY
360
6B4
102
}
330
2A
100
AcDbVisualStyle
  2
Gouraud
 70
     2
 71
     2
 72
     2
 73
     1
 90
        2
 40
0.6
 41
30.0
 62
     5
 63
     7
421
 16777215
 74
     0
 91
        4
 64
     7
 65
   257
 75
     1
175
     1
 42
1.0
 92
        0
 66
     7
 43
1.0
 76
     1
 77
     6
 78
     2
 67
     7
 79
     5
170
     0
171
     0
290
     0
174
     0
 93
       13
 44
0.0
173
     0
291
     1
 45
0.0
1001
ACAD
1000
AcDbSavedByObjectVersion
1070
     0
  0
VISUALSTYLE
  5
2E
102
{ACAD_REACTORS
330
2A
102
}
102
{ACAD_XDICTIONARY
360
6B6
102
}
330
2A
100
AcDbVisualStyle
  2
GouraudWithEdges
 70
     3
 71
     2
 72
     2
 73
     1
 90
        2
 40
0.6
 41
30.0
 62
     5
 63
     7
421
 16777215
 74
     1
 91
        4
 64
     7
 65
   257
 75
     1
175
     1
 42
1.0
 92
        0
 66
   257
 43
1.0
 76
     1
 77
     6
 78
     2
 67
     7
 79
     5
170
     0
171
     0
290
     0
174
     0
 93
       13
 44
0.0
173
     0
291
     1
 45
0.0
1001
ACAD
1000
AcDbSavedByObjectVersion
1070
     0
  0
VISUALSTYLE
  5
38
102
{ACAD_REACTORS
330
2A
102
}
102
{ACAD_XDICTIONARY
360
6CA
102
}
330
2A
100
AcDbVisualStyle
  2
Linepattern
 70
    14
 71
     2
 72
     2
 73
     0
 90
        0
 40
0.6
 41
30.0
 62
     5
 63
     7
421
 16777215
 74
     1
 91
        4
 64
     7
 65
   257
 75
     7
175
     7
 42
1.0
 92
        8
 66
     7
 43
1.0
 76
     1
 77
     6
 78
     2
 67
     7
 79
     5
170
     0
171
     0
290
     0
174
     0
 93
        1
 44
0.0
173
     0
291
     1
 45
0.0
1001
ACAD
1000
AcDbSavedByObjectVersion
1070
     0
  0
VISUALSTYLE
  5
33
102
{ACAD_REACTORS
330
2A
102
}
102
{ACAD_XDICTIONARY
360
6C0
102
}
330
2A
100
AcDbVisualStyle
  2
Realistic
 70
     8
 71
     2
 72
     3
 73
     0
 90
        2
 40
0.6
 41
30.0
 62
     5
 63
     7
421
 16777215
 74
     0
 91
        0
 64
     7
 65
   257
 75
     1
175
     1
 42
1.0
 92
        8
 66
   257
 43
1.0
 76
     1
 77
     6
 78
     2
 67
     7
 79
     3
170
     0
171
     0
290
     0
174
     0
 93
       13
 44
0.0
173
     0
291
     0
 45
0.0
1001
ACAD
1000
AcDbSavedByObjectVersion
1070
     0
  0
VISUALSTYLE
  5
37
102
{ACAD_REACTORS
330
2A
102
}
102
{ACAD_XDICTIONARY
360
6C8
102
}
330
2A
100
AcDbVisualStyle
  2
Thicken
 70
    13
 71
     2
 72
     2
 73
     0
 90
        0
 40
0.6
 41
30.0
 62
     5
 63
     7
421
 16777215
 74
     1
 91
        4
 64
     7
 65
   257
 75
     1
175
     1
 42
1.0
 92
       12
 66
     7
 43
1.0
 76
     1
 77
     6
 78
     2
 67
     7
 79
     5
170
     0
171
     0
290
     0
174
     0
 93
        1
 44
0.0
173
     0
291
     1
 45
0.0
1001
ACAD
1000
AcDbSavedByObjectVersion
1070
     0
  0
DICTIONARYVAR
  5
6AE
102
{ACAD_REACTORS
330
6AD
102
}
330
6AD
100
DictionaryVariables
280
     0
  1
1:1
  0
DICTIONARYVAR
  5
6AF
102
{ACAD_REACTORS
330
6AD
102
}
330
6AD
100
DictionaryVariables
280
     0
  1
1
  0
DICTIONARY
  5
6D2
330
3D
100
AcDbDictionary
280
     1
281
     1
  3
ACAD_XREC_ROUNDTRIP
360
6D3
  0
DICTIONARY
  5
6D0
330
3C
100
AcDbDictionary
280
     1
281
     1
  3
ACAD_XREC_ROUNDTRIP
360
6D1
  0
DICTIONARY
  5
6D4
330
3E
100
AcDbDictionary
280
     1
281
     1
  3
ACAD_XREC_ROUNDTRIP
360
6D5
  0
DICTIONARY
  5
6B8
330
2F
100
AcDbDictionary
280
     1
281
     1
  3
ACAD_XREC_ROUNDTRIP
360
6B9
  0
DICTIONARY
  5
6BC
330
31
100
AcDbDictionary
280
     1
281
     1
  3
ACAD_XREC_ROUNDTRIP
360
6BD
  0
DICTIONARY
  5
6BA
330
30
100
AcDbDictionary
280
     1
281
     1
  3
ACAD_XREC_ROUNDTRIP
360
6BB
  0
DICTIONARY
  5
6BE
330
32
100
AcDbDictionary
280
     1
281
     1
  3
ACAD_XREC_ROUNDTRIP
360
6BF
  0
DICTIONARY
  5
6C6
330
36
100
AcDbDictionary
280
     1
281
     1
  3
ACAD_XREC_ROUNDTRIP
360
6C7
  0
DICTIONARY
  5
6CE
330
3A
100
AcDbDictionary
280
     1
281
     1
  3
ACAD_XREC_ROUNDTRIP
360
6CF
  0
DICTIONARY
  5
6C2
330
34
100
AcDbDictionary
280
     1
281
     1
  3
ACAD_XREC_ROUNDTRIP
360
6C3
  0
DICTIONARY
  5
6C4
330
35
100
AcDbDictionary
280
     1
281
     1
  3
ACAD_XREC_ROUNDTRIP
360
6C5
  0
DICTIONARY
  5
6CC
330
39
100
AcDbDictionary
280
     1
281
     1
  3
ACAD_XREC_ROUNDTRIP
360
6CD
  0
DICTIONARY
  5
6B0
330
2B
100
AcDbDictionary
280
     1
281
     1
  3
ACAD_XREC_ROUNDTRIP
360
6B1
  0
DICTIONARY
  5
6B2
330
2C
100
AcDbDictionary
280
     1
281
     1
  3
ACAD_XREC_ROUNDTRIP
360
6B3
  0
DICTIONARY
  5
6B4
330
2D
100
AcDbDictionary
280
     1
281
     1
  3
ACAD_XREC_ROUNDTRIP
360
6B5
  0
DICTIONARY
  5
6B6
330
2E
100
AcDbDictionary
280
     1
281
     1
  3
ACAD_XREC_ROUNDTRIP
360
6B7
  0
DICTIONARY
  5
6CA
330
38
100
AcDbDictionary
280
     1
281
     1
  3
ACAD_XREC_ROUNDTRIP
360
6CB
  0
DICTIONARY
  5
6C0
330
33
100
AcDbDictionary
280
     1
281
     1
  3
ACAD_XREC_ROUNDTRIP
360
6C1
  0
DICTIONARY
  5
6C8
330
37
100
AcDbDictionary
280
     1
281
     1
  3
ACAD_XREC_ROUNDTRIP
360
6C9
  0
XRECORD
  5
6D3
102
{ACAD_REACTORS
330
6D2
102
}
330
6D2
100
AcDbXrecord
280
     1
102
MATERIAL
148
0.0
149
0.0
149
0.0
 93
        0
 94
      127
282
     0
 72
     1
 77
     1
171
     1
175
     1
179
     1
273
     0
  0
XRECORD
  5
6D1
102
{ACAD_REACTORS
330
6D0
102
}
330
6D0
100
AcDbXrecord
280
     1
102
MATERIAL
148
0.0
149
0.0
149
0.0
 93
        0
 94
      127
282
     0
 72
     1
 77
     1
171
     1
175
     1
179
     1
273
     0
  0
XRECORD
  5
6D5
102
{ACAD_REACTORS
330
6D4
102
}
330
6D4
100
AcDbXrecord
280
     1
102
MATERIAL
148
0.0
149
0.0
149
0.0
 93
        0
 94
      127
282
     0
 72
     1
 77
     1
171
     1
175
     1
179
     1
273
     0
  0
XRECORD
  5
6B9
102
{ACAD_REACTORS
330
6B8
102
}
330
6B8
100
AcDbXrecord
280
     1
102
RTVSPropertyOp0
 70
     1
102
RTVSPropertyOp1
 70
     1
102
RTVSPropertyOp2
 70
     1
102
RTVSPropertyOp3
 70
     1
102
RTVSPropertyOp4
 70
     1
102
RTVSPropertyOp5
 70
     1
102
RTVSPropertyOp6
 70
     1
102
RTVSPropertyOp7
 70
     1
102
RTVSPropertyOp8
 70
     1
102
RTVSPropertyOp9
 70
     1
102
RTVSPropertyOp10
 70
     1
102
RTVSPropertyOp11
 70
     1
102
RTVSPropertyOp12
 70
     1
102
RTVSPropertyOp13
 70
     1
102
RTVSPropertyOp14
 70
     1
102
RTVSPropertyOp15
 70
     1
102
RTVSPropertyOp16
 70
     1
102
RTVSPropertyOp17
 70
     1
102
RTVSPropertyOp18
 70
     1
102
RTVSPropertyOp19
 70
     1
102
RTVSPropertyOp20
 70
     1
102
RTVSPropertyOp21
 70
     1
102
RTVSPropertyOp22
 70
     1
102
RTVSPropertyOp23
 70
     1
102
RTVSPropertyOp24
 70
     1
102
RTVSPropertyOp25
 70
     1
102
RTVSPropertyOp26
 70
     1
102
RTVSPropertyOp27
 70
     1
102
RTVSPropertyOp28
 70
     1
102
RTVSPropertyOp29
 70
     1
102
RTVSPropertyOp30
 70
     1
102
RTVSPropertyOp31
 70
     1
102
RTVSPropertyOp32
 70
     1
102
RTVSPropertyOp33
 70
     1
102
RTVSPropertyOp34
 70
     1
102
RTVSPropertyOp35
 70
     1
102
RTVSPropertyOp36
 70
     1
102
RTVSPropertyOp37
 70
     1
102
RTVSPropertyOp38
 70
     1
102
RTVSPropertyOp39
 70
     1
102
RTVSPropertyOp40
 70
     1
102
RTVSPropertyOp41
 70
     1
102
RTVSPropertyOp42
 70
     1
102
RTVSPropertyOp43
 70
     1
102
RTVSPropertyOp44
 70
     1
102
RTVSPropertyOp45
 70
     1
102
RTVSPropertyOp46
 70
     1
102
RTVSPropertyOp47
 70
     1
102
RTVSPropertyOp48
 70
     1
102
RTVSPropertyOp49
 70
     1
102
RTVSPropertyOp50
 70
     1
102
RTVSPropertyOp51
 70
     0
102
RTVSPropertyOp52
 70
     0
102
RTVSPropertyOp53
 70
     1
102
RTVSPropertyOp54
 70
     1
102
RTVSPropertyOp55
 70
     1
102
RTVSPropertyOp56
 70
     1
102
RTVSPropertyOp57
 70
     1
102
RTVSPost2010Prop28
280
     1
102
RTVSPost2010PropOp28
 70
     1
102
RTVSPost2010Prop29
280
     1
102
RTVSPost2010PropOp29
 70
     1
102
RTVSPost2010Prop30
280
     0
102
RTVSPost2010PropOp30
 70
     1
102
RTVSPost2010Prop31
280
     0
102
RTVSPost2010PropOp31
 70
     1
102
RTVSPost2010Prop32
280
     0
102
RTVSPost2010PropOp32
 70
     1
102
RTVSPost2010Prop33
280
     0
102
RTVSPost2010PropOp33
 70
     1
102
RTVSPost2010Prop34
280
     0
102
RTVSPost2010PropOp34
 70
     1
102
RTVSPost2010Prop35
280
     0
102
RTVSPost2010PropOp35
 70
     1
102
RTVSPost2010Prop36
280
     0
102
RTVSPost2010PropOp36
 70
     1
102
RTVSPost2010Prop37
 90
       50
102
RTVSPost2010PropOp37
 70
     1
102
RTVSPost2010Prop38
140
0.0
102
RTVSPost2010PropOp38
 70
     1
102
RTVSPost2010Prop39
140
1.0
102
RTVSPost2010PropOp39
 70
     1
102
RTVSPost2010Prop40
 90
        0
102
RTVSPost2010PropOp40
 70
     1
102
RTVSPost2010Prop41ColorIndex
 90
       18
102
RTVSPost2010Prop41ColorRGB
 90
        0
102
RTVSPost2010PropOp41
 70
     1
102
RTVSPost2010Prop42
 90
       50
102
RTVSPost2010PropOp42
 70
     1
102
RTVSPost2010Prop43
 90
        3
102
RTVSPost2010PropOp43
 70
     1
102
RTVSPost2010Prop44ColorIndex
 90
        5
102
RTVSPost2010Prop44ColorRGB
 90
      255
102
RTVSPost2010PropOp44
 70
     1
102
RTVSPost2010Prop45
280
     0
102
RTVSPost2010PropOp45
 70
     1
102
RTVSPost2010Prop46
 90
       50
102
RTVSPost2010PropOp46
 70
     1
102
RTVSPost2010Prop47
 90
       50
102
RTVSPost2010PropOp47
 70
     1
102
RTVSPost2010Prop48
 90
       50
102
RTVSPost2010PropOp48
 70
     1
102
RTVSPost2010Prop49
280
     0
102
RTVSPost2010PropOp49
 70
     1
102
RTVSPost2010Prop50
 90
       50
102
RTVSPost2010PropOp50
 70
     1
102
RTVSPost2010Prop51ColorIndex
 90
      256
102
RTVSPost2010Prop51ColorRGB
 90
-16777216
102
RTVSPost2010PropOp51
 70
     0
102
RTVSPost2010Prop52
140
1.0
102
RTVSPost2010PropOp52
 70
     0
102
RTVSPost2010Prop53
 90
        2
102
RTVSPost2010PropOp53
 70
     1
102
RTVSPost2010Prop54
  1
strokes_ogs.tif
102
RTVSPost2010PropOp54
 70
     1
102
RTVSPost2010Prop55
280
     0
102
RTVSPost2010PropOp55
 70
     1
102
RTVSPost2010Prop56
140
1.0
102
RTVSPost2010PropOp56
 70
     1
102
RTVSPost2010Prop57
140
1.0
102
RTVSPost2010PropOp57
 70
     1
  0
XRECORD
  5
6BD
102
{ACAD_REACTORS
330
6BC
102
}
330
6BC
100
AcDbXrecord
280
     1
102
RTVSPropertyOp0
 70
     1
102
RTVSPropertyOp1
 70
     1
102
RTVSPropertyOp2
 70
     1
102
RTVSPropertyOp3
 70
     1
102
RTVSPropertyOp4
 70
     1
102
RTVSPropertyOp5
 70
     1
102
RTVSPropertyOp6
 70
     1
102
RTVSPropertyOp7
 70
     1
102
RTVSPropertyOp8
 70
     1
102
RTVSPropertyOp9
 70
     1
102
RTVSPropertyOp10
 70
     1
102
RTVSPropertyOp11
 70
     1
102
RTVSPropertyOp12
 70
     1
102
RTVSPropertyOp13
 70
     1
102
RTVSPropertyOp14
 70
     1
102
RTVSPropertyOp15
 70
     1
102
RTVSPropertyOp16
 70
     1
102
RTVSPropertyOp17
 70
     1
102
RTVSPropertyOp18
 70
     1
102
RTVSPropertyOp19
 70
     1
102
RTVSPropertyOp20
 70
     1
102
RTVSPropertyOp21
 70
     1
102
RTVSPropertyOp22
 70
     1
102
RTVSPropertyOp23
 70
     1
102
RTVSPropertyOp24
 70
     1
102
RTVSPropertyOp25
 70
     1
102
RTVSPropertyOp26
 70
     1
102
RTVSPropertyOp27
 70
     1
102
RTVSPropertyOp28
 70
     1
102
RTVSPropertyOp29
 70
     1
102
RTVSPropertyOp30
 70
     1
102
RTVSPropertyOp31
 70
     1
102
RTVSPropertyOp32
 70
     1
102
RTVSPropertyOp33
 70
     1
102
RTVSPropertyOp34
 70
     1
102
RTVSPropertyOp35
 70
     1
102
RTVSPropertyOp36
 70
     1
102
RTVSPropertyOp37
 70
     1
102
RTVSPropertyOp38
 70
     1
102
RTVSPropertyOp39
 70
     1
102
RTVSPropertyOp40
 70
     1
102
RTVSPropertyOp41
 70
     1
102
RTVSPropertyOp42
 70
     1
102
RTVSPropertyOp43
 70
     1
102
RTVSPropertyOp44
 70
     1
102
RTVSPropertyOp45
 70
     1
102
RTVSPropertyOp46
 70
     1
102
RTVSPropertyOp47
 70
     1
102
RTVSPropertyOp48
 70
     1
102
RTVSPropertyOp49
 70
     1
102
RTVSPropertyOp50
 70
     1
102
RTVSPropertyOp51
 70
     0
102
RTVSPropertyOp52
 70
     0
102
RTVSPropertyOp53
 70
     1
102
RTVSPropertyOp54
 70
     1
102
RTVSPropertyOp55
 70
     1
102
RTVSPropertyOp56
 70
     1
102
RTVSPropertyOp57
 70
     1
102
RTVSPost2010Prop28
280
     0
102
RTVSPost2010PropOp28
 70
     1
102
RTVSPost2010Prop29
280
     1
102
RTVSPost2010PropOp29
 70
     1
102
RTVSPost2010Prop30
280
     1
102
RTVSPost2010PropOp30
 70
     1
102
RTVSPost2010Prop31
280
     0
102
RTVSPost2010PropOp31
 70
     1
102
RTVSPost2010Prop32
280
     0
102
RTVSPost2010PropOp32
 70
     1
102
RTVSPost2010Prop33
280
     0
102
RTVSPost2010PropOp33
 70
     1
102
RTVSPost2010Prop34
280
     0
102
RTVSPost2010PropOp34
 70
     1
102
RTVSPost2010Prop35
280
     0
102
RTVSPost2010PropOp35
 70
     1
102
RTVSPost2010Prop36
280
     0
102
RTVSPost2010PropOp36
 70
     1
102
RTVSPost2010Prop37
 90
       50
102
RTVSPost2010PropOp37
 70
     1
102
RTVSPost2010Prop38
140
0.0
102
RTVSPost2010PropOp38
 70
     1
102
RTVSPost2010Prop39
140
1.0
102
RTVSPost2010PropOp39
 70
     1
102
RTVSPost2010Prop40
 90
        0
102
RTVSPost2010PropOp40
 70
     1
102
RTVSPost2010Prop41ColorIndex
 90
       18
102
RTVSPost2010Prop41ColorRGB
 90
        0
102
RTVSPost2010PropOp41
 70
     1
102
RTVSPost2010Prop42
 90
       50
102
RTVSPost2010PropOp42
 70
     1
102
RTVSPost2010Prop43
 90
        3
102
RTVSPost2010PropOp43
 70
     1
102
RTVSPost2010Prop44ColorIndex
 90
        5
102
RTVSPost2010Prop44ColorRGB
 90
      255
102
RTVSPost2010PropOp44
 70
     1
102
RTVSPost2010Prop45
280
     0
102
RTVSPost2010PropOp45
 70
     1
102
RTVSPost2010Prop46
 90
       50
102
RTVSPost2010PropOp46
 70
     1
102
RTVSPost2010Prop47
 90
       50
102
RTVSPost2010PropOp47
 70
     1
102
RTVSPost2010Prop48
 90
       50
102
RTVSPost2010PropOp48
 70
     1
102
RTVSPost2010Prop49
280
     0
102
RTVSPost2010PropOp49
 70
     1
102
RTVSPost2010Prop50
 90
       50
102
RTVSPost2010PropOp50
 70
     1
102
RTVSPost2010Prop51ColorIndex
 90
      256
102
RTVSPost2010Prop51ColorRGB
 90
-16777216
102
RTVSPost2010PropOp51
 70
     0
102
RTVSPost2010Prop52
140
1.0
102
RTVSPost2010PropOp52
 70
     0
102
RTVSPost2010Prop53
 90
        2
102
RTVSPost2010PropOp53
 70
     1
102
RTVSPost2010Prop54
  1
strokes_ogs.tif
102
RTVSPost2010PropOp54
 70
     1
102
RTVSPost2010Prop55
280
     0
102
RTVSPost2010PropOp55
 70
     1
102
RTVSPost2010Prop56
140
1.0
102
RTVSPost2010PropOp56
 70
     1
102
RTVSPost2010Prop57
140
1.0
102
RTVSPost2010PropOp57
 70
     1
  0
XRECORD
  5
6BB
102
{ACAD_REACTORS
330
6BA
102
}
330
6BA
100
AcDbXrecord
280
     1
102
RTVSPropertyOp0
 70
     1
102
RTVSPropertyOp1
 70
     1
102
RTVSPropertyOp2
 70
     1
102
RTVSPropertyOp3
 70
     1
102
RTVSPropertyOp4
 70
     1
102
RTVSPropertyOp5
 70
     1
102
RTVSPropertyOp6
 70
     1
102
RTVSPropertyOp7
 70
     1
102
RTVSPropertyOp8
 70
     1
102
RTVSPropertyOp9
 70
     1
102
RTVSPropertyOp10
 70
     1
102
RTVSPropertyOp11
 70
     1
102
RTVSPropertyOp12
 70
     1
102
RTVSPropertyOp13
 70
     1
102
RTVSPropertyOp14
 70
     1
102
RTVSPropertyOp15
 70
     1
102
RTVSPropertyOp16
 70
     1
102
RTVSPropertyOp17
 70
     1
102
RTVSPropertyOp18
 70
     1
102
RTVSPropertyOp19
 70
     1
102
RTVSPropertyOp20
 70
     1
102
RTVSPropertyOp21
 70
     1
102
RTVSPropertyOp22
 70
     1
102
RTVSPropertyOp23
 70
     1
102
RTVSPropertyOp24
 70
     1
102
RTVSPropertyOp25
 70
     1
102
RTVSPropertyOp26
 70
     1
102
RTVSPropertyOp27
 70
     1
102
RTVSPropertyOp28
 70
     1
102
RTVSPropertyOp29
 70
     1
102
RTVSPropertyOp30
 70
     1
102
RTVSPropertyOp31
 70
     1
102
RTVSPropertyOp32
 70
     1
102
RTVSPropertyOp33
 70
     1
102
RTVSPropertyOp34
 70
     1
102
RTVSPropertyOp35
 70
     1
102
RTVSPropertyOp36
 70
     1
102
RTVSPropertyOp37
 70
     1
102
RTVSPropertyOp38
 70
     1
102
RTVSPropertyOp39
 70
     1
102
RTVSPropertyOp40
 70
     1
102
RTVSPropertyOp41
 70
     1
102
RTVSPropertyOp42
 70
     1
102
RTVSPropertyOp43
 70
     1
102
RTVSPropertyOp44
 70
     1
102
RTVSPropertyOp45
 70
     1
102
RTVSPropertyOp46
 70
     1
102
RTVSPropertyOp47
 70
     1
102
RTVSPropertyOp48
 70
     1
102
RTVSPropertyOp49
 70
     1
102
RTVSPropertyOp50
 70
     1
102
RTVSPropertyOp51
 70
     0
102
RTVSPropertyOp52
 70
     0
102
RTVSPropertyOp53
 70
     1
102
RTVSPropertyOp54
 70
     1
102
RTVSPropertyOp55
 70
     1
102
RTVSPropertyOp56
 70
     1
102
RTVSPropertyOp57
 70
     1
102
RTVSPost2010Prop28
280
     0
102
RTVSPost2010PropOp28
 70
     1
102
RTVSPost2010Prop29
280
     1
102
RTVSPost2010PropOp29
 70
     1
102
RTVSPost2010Prop30
280
     1
102
RTVSPost2010PropOp30
 70
     1
102
RTVSPost2010Prop31
280
     0
102
RTVSPost2010PropOp31
 70
     1
102
RTVSPost2010Prop32
280
     0
102
RTVSPost2010PropOp32
 70
     1
102
RTVSPost2010Prop33
280
     0
102
RTVSPost2010PropOp33
 70
     1
102
RTVSPost2010Prop34
280
     0
102
RTVSPost2010PropOp34
 70
     1
102
RTVSPost2010Prop35
280
     0
102
RTVSPost2010PropOp35
 70
     1
102
RTVSPost2010Prop36
280
     0
102
RTVSPost2010PropOp36
 70
     1
102
RTVSPost2010Prop37
 90
       50
102
RTVSPost2010PropOp37
 70
     1
102
RTVSPost2010Prop38
140
0.0
102
RTVSPost2010PropOp38
 70
     1
102
RTVSPost2010Prop39
140
1.0
102
RTVSPost2010PropOp39
 70
     1
102
RTVSPost2010Prop40
 90
        0
102
RTVSPost2010PropOp40
 70
     1
102
RTVSPost2010Prop41ColorIndex
 90
       18
102
RTVSPost2010Prop41ColorRGB
 90
        0
102
RTVSPost2010PropOp41
 70
     1
102
RTVSPost2010Prop42
 90
       50
102
RTVSPost2010PropOp42
 70
     1
102
RTVSPost2010Prop43
 90
        3
102
RTVSPost2010PropOp43
 70
     1
102
RTVSPost2010Prop44ColorIndex
 90
        5
102
RTVSPost2010Prop44ColorRGB
 90
      255
102
RTVSPost2010PropOp44
 70
     1
102
RTVSPost2010Prop45
280
     0
102
RTVSPost2010PropOp45
 70
     1
102
RTVSPost2010Prop46
 90
       50
102
RTVSPost2010PropOp46
 70
     1
102
RTVSPost2010Prop47
 90
       50
102
RTVSPost2010PropOp47
 70
     1
102
RTVSPost2010Prop48
 90
       50
102
RTVSPost2010PropOp48
 70
     1
102
RTVSPost2010Prop49
280
     0
102
RTVSPost2010PropOp49
 70
     1
102
RTVSPost2010Prop50
 90
       50
102
RTVSPost2010PropOp50
 70
     1
102
RTVSPost2010Prop51ColorIndex
 90
      256
102
RTVSPost2010Prop51ColorRGB
 90
-16777216
102
RTVSPost2010PropOp51
 70
     0
102
RTVSPost2010Prop52
140
1.0
102
RTVSPost2010PropOp52
 70
     0
102
RTVSPost2010Prop53
 90
        2
102
RTVSPost2010PropOp53
 70
     1
102
RTVSPost2010Prop54
  1
strokes_ogs.tif
102
RTVSPost2010PropOp54
 70
     1
102
RTVSPost2010Prop55
280
     0
102
RTVSPost2010PropOp55
 70
     1
102
RTVSPost2010Prop56
140
1.0
102
RTVSPost2010PropOp56
 70
     1
102
RTVSPost2010Prop57
140
1.0
102
RTVSPost2010PropOp57
 70
     1
  0
XRECORD
  5
6BF
102
{ACAD_REACTORS
330
6BE
102
}
330
6BE
100
AcDbXrecord
280
     1
102
RTVSPropertyOp0
 70
     1
102
RTVSPropertyOp1
 70
     1
102
RTVSPropertyOp2
 70
     1
102
RTVSPropertyOp3
 70
     1
102
RTVSPropertyOp4
 70
     1
102
RTVSPropertyOp5
 70
     1
102
RTVSPropertyOp6
 70
     1
102
RTVSPropertyOp7
 70
     1
102
RTVSPropertyOp8
 70
     1
102
RTVSPropertyOp9
 70
     1
102
RTVSPropertyOp10
 70
     1
102
RTVSPropertyOp11
 70
     1
102
RTVSPropertyOp12
 70
     1
102
RTVSPropertyOp13
 70
     1
102
RTVSPropertyOp14
 70
     1
102
RTVSPropertyOp15
 70
     1
102
RTVSPropertyOp16
 70
     1
102
RTVSPropertyOp17
 70
     1
102
RTVSPropertyOp18
 70
     1
102
RTVSPropertyOp19
 70
     1
102
RTVSPropertyOp20
 70
     1
102
RTVSPropertyOp21
 70
     1
102
RTVSPropertyOp22
 70
     1
102
RTVSPropertyOp23
 70
     1
102
RTVSPropertyOp24
 70
     1
102
RTVSPropertyOp25
 70
     1
102
RTVSPropertyOp26
 70
     1
102
RTVSPropertyOp27
 70
     1
102
RTVSPropertyOp28
 70
     1
102
RTVSPropertyOp29
 70
     1
102
RTVSPropertyOp30
 70
     1
102
RTVSPropertyOp31
 70
     1
102
RTVSPropertyOp32
 70
     1
102
RTVSPropertyOp33
 70
     1
102
RTVSPropertyOp34
 70
     1
102
RTVSPropertyOp35
 70
     1
102
RTVSPropertyOp36
 70
     1
102
RTVSPropertyOp37
 70
     1
102
RTVSPropertyOp38
 70
     1
102
RTVSPropertyOp39
 70
     1
102
RTVSPropertyOp40
 70
     1
102
RTVSPropertyOp41
 70
     1
102
RTVSPropertyOp42
 70
     1
102
RTVSPropertyOp43
 70
     1
102
RTVSPropertyOp44
 70
     1
102
RTVSPropertyOp45
 70
     1
102
RTVSPropertyOp46
 70
     1
102
RTVSPropertyOp47
 70
     1
102
RTVSPropertyOp48
 70
     1
102
RTVSPropertyOp49
 70
     1
102
RTVSPropertyOp50
 70
     1
102
RTVSPropertyOp51
 70
     0
102
RTVSPropertyOp52
 70
     0
102
RTVSPropertyOp53
 70
     1
102
RTVSPropertyOp54
 70
     1
102
RTVSPropertyOp55
 70
     1
102
RTVSPropertyOp56
 70
     1
102
RTVSPropertyOp57
 70
     1
102
RTVSPost2010Prop28
280
     0
102
RTVSPost2010PropOp28
 70
     1
102
RTVSPost2010Prop29
280
     1
102
RTVSPost2010PropOp29
 70
     1
102
RTVSPost2010Prop30
280
     1
102
RTVSPost2010PropOp30
 70
     1
102
RTVSPost2010Prop31
280
     0
102
RTVSPost2010PropOp31
 70
     1
102
RTVSPost2010Prop32
280
     0
102
RTVSPost2010PropOp32
 70
     1
102
RTVSPost2010Prop33
280
     0
102
RTVSPost2010PropOp33
 70
     1
102
RTVSPost2010Prop34
280
     0
102
RTVSPost2010PropOp34
 70
     1
102
RTVSPost2010Prop35
280
     0
102
RTVSPost2010PropOp35
 70
     1
102
RTVSPost2010Prop36
280
     0
102
RTVSPost2010PropOp36
 70
     1
102
RTVSPost2010Prop37
 90
       50
102
RTVSPost2010PropOp37
 70
     1
102
RTVSPost2010Prop38
140
0.0
102
RTVSPost2010PropOp38
 70
     1
102
RTVSPost2010Prop39
140
1.0
102
RTVSPost2010PropOp39
 70
     1
102
RTVSPost2010Prop40
 90
        0
102
RTVSPost2010PropOp40
 70
     1
102
RTVSPost2010Prop41ColorIndex
 90
       18
102
RTVSPost2010Prop41ColorRGB
 90
        0
102
RTVSPost2010PropOp41
 70
     1
102
RTVSPost2010Prop42
 90
       50
102
RTVSPost2010PropOp42
 70
     1
102
RTVSPost2010Prop43
 90
        3
102
RTVSPost2010PropOp43
 70
     1
102
RTVSPost2010Prop44ColorIndex
 90
        5
102
RTVSPost2010Prop44ColorRGB
 90
      255
102
RTVSPost2010PropOp44
 70
     1
102
RTVSPost2010Prop45
280
     0
102
RTVSPost2010PropOp45
 70
     1
102
RTVSPost2010Prop46
 90
       50
102
RTVSPost2010PropOp46
 70
     1
102
RTVSPost2010Prop47
 90
       50
102
RTVSPost2010PropOp47
 70
     1
102
RTVSPost2010Prop48
 90
       50
102
RTVSPost2010PropOp48
 70
     1
102
RTVSPost2010Prop49
280
     0
102
RTVSPost2010PropOp49
 70
     1
102
RTVSPost2010Prop50
 90
       50
102
RTVSPost2010PropOp50
 70
     1
102
RTVSPost2010Prop51ColorIndex
 90
      256
102
RTVSPost2010Prop51ColorRGB
 90
-16777216
102
RTVSPost2010PropOp51
 70
     0
102
RTVSPost2010Prop52
140
1.0
102
RTVSPost2010PropOp52
 70
     0
102
RTVSPost2010Prop53
 90
        2
102
RTVSPost2010PropOp53
 70
     1
102
RTVSPost2010Prop54
  1
strokes_ogs.tif
102
RTVSPost2010PropOp54
 70
     1
102
RTVSPost2010Prop55
280
     0
102
RTVSPost2010PropOp55
 70
     1
102
RTVSPost2010Prop56
140
1.0
102
RTVSPost2010PropOp56
 70
     1
102
RTVSPost2010Prop57
140
1.0
102
RTVSPost2010PropOp57
 70
     1
  0
XRECORD
  5
6C7
102
{ACAD_REACTORS
330
6C6
102
}
330
6C6
100
AcDbXrecord
280
     1
102
RTVSPropertyOp0
 70
     1
102
RTVSPropertyOp1
 70
     1
102
RTVSPropertyOp2
 70
     1
102
RTVSPropertyOp3
 70
     1
102
RTVSPropertyOp4
 70
     1
102
RTVSPropertyOp5
 70
     1
102
RTVSPropertyOp6
 70
     1
102
RTVSPropertyOp7
 70
     1
102
RTVSPropertyOp8
 70
     1
102
RTVSPropertyOp9
 70
     1
102
RTVSPropertyOp10
 70
     1
102
RTVSPropertyOp11
 70
     1
102
RTVSPropertyOp12
 70
     1
102
RTVSPropertyOp13
 70
     1
102
RTVSPropertyOp14
 70
     1
102
RTVSPropertyOp15
 70
     1
102
RTVSPropertyOp16
 70
     1
102
RTVSPropertyOp17
 70
     1
102
RTVSPropertyOp18
 70
     1
102
RTVSPropertyOp19
 70
     1
102
RTVSPropertyOp20
 70
     1
102
RTVSPropertyOp21
 70
     1
102
RTVSPropertyOp22
 70
     1
102
RTVSPropertyOp23
 70
     1
102
RTVSPropertyOp24
 70
     1
102
RTVSPropertyOp25
 70
     1
102
RTVSPropertyOp26
 70
     1
102
RTVSPropertyOp27
 70
     1
102
RTVSPropertyOp28
 70
     1
102
RTVSPropertyOp29
 70
     1
102
RTVSPropertyOp30
 70
     1
102
RTVSPropertyOp31
 70
     1
102
RTVSPropertyOp32
 70
     1
102
RTVSPropertyOp33
 70
     1
102
RTVSPropertyOp34
 70
     1
102
RTVSPropertyOp35
 70
     1
102
RTVSPropertyOp36
 70
     1
102
RTVSPropertyOp37
 70
     1
102
RTVSPropertyOp38
 70
     1
102
RTVSPropertyOp39
 70
     1
102
RTVSPropertyOp40
 70
     1
102
RTVSPropertyOp41
 70
     1
102
RTVSPropertyOp42
 70
     1
102
RTVSPropertyOp43
 70
     1
102
RTVSPropertyOp44
 70
     1
102
RTVSPropertyOp45
 70
     1
102
RTVSPropertyOp46
 70
     1
102
RTVSPropertyOp47
 70
     1
102
RTVSPropertyOp48
 70
     1
102
RTVSPropertyOp49
 70
     1
102
RTVSPropertyOp50
 70
     1
102
RTVSPropertyOp51
 70
     0
102
RTVSPropertyOp52
 70
     0
102
RTVSPropertyOp53
 70
     1
102
RTVSPropertyOp54
 70
     1
102
RTVSPropertyOp55
 70
     1
102
RTVSPropertyOp56
 70
     1
102
RTVSPropertyOp57
 70
     1
102
RTVSPost2010Prop28
280
     0
102
RTVSPost2010PropOp28
 70
     1
102
RTVSPost2010Prop29
280
     1
102
RTVSPost2010PropOp29
 70
     1
102
RTVSPost2010Prop30
280
     1
102
RTVSPost2010PropOp30
 70
     1
102
RTVSPost2010Prop31
280
     0
102
RTVSPost2010PropOp31
 70
     1
102
RTVSPost2010Prop32
280
     0
102
RTVSPost2010PropOp32
 70
     1
102
RTVSPost2010Prop33
280
     0
102
RTVSPost2010PropOp33
 70
     1
102
RTVSPost2010Prop34
280
     0
102
RTVSPost2010PropOp34
 70
     1
102
RTVSPost2010Prop35
280
     0
102
RTVSPost2010PropOp35
 70
     1
102
RTVSPost2010Prop36
280
     0
102
RTVSPost2010PropOp36
 70
     1
102
RTVSPost2010Prop37
 90
       50
102
RTVSPost2010PropOp37
 70
     1
102
RTVSPost2010Prop38
140
0.0
102
RTVSPost2010PropOp38
 70
     1
102
RTVSPost2010Prop39
140
1.0
102
RTVSPost2010PropOp39
 70
     1
102
RTVSPost2010Prop40
 90
        0
102
RTVSPost2010PropOp40
 70
     1
102
RTVSPost2010Prop41ColorIndex
 90
       18
102
RTVSPost2010Prop41ColorRGB
 90
        0
102
RTVSPost2010PropOp41
 70
     1
102
RTVSPost2010Prop42
 90
       50
102
RTVSPost2010PropOp42
 70
     1
102
RTVSPost2010Prop43
 90
        3
102
RTVSPost2010PropOp43
 70
     1
102
RTVSPost2010Prop44ColorIndex
 90
        5
102
RTVSPost2010Prop44ColorRGB
 90
      255
102
RTVSPost2010PropOp44
 70
     1
102
RTVSPost2010Prop45
280
     0
102
RTVSPost2010PropOp45
 70
     1
102
RTVSPost2010Prop46
 90
       50
102
RTVSPost2010PropOp46
 70
     1
102
RTVSPost2010Prop47
 90
       50
102
RTVSPost2010PropOp47
 70
     1
102
RTVSPost2010Prop48
 90
       50
102
RTVSPost2010PropOp48
 70
     1
102
RTVSPost2010Prop49
280
     0
102
RTVSPost2010PropOp49
 70
     1
102
RTVSPost2010Prop50
 90
       50
102
RTVSPost2010PropOp50
 70
     1
102
RTVSPost2010Prop51ColorIndex
 90
      256
102
RTVSPost2010Prop51ColorRGB
 90
-16777216
102
RTVSPost2010PropOp51
 70
     0
102
RTVSPost2010Prop52
140
1.0
102
RTVSPost2010PropOp52
 70
     0
102
RTVSPost2010Prop53
 90
        2
102
RTVSPost2010PropOp53
 70
     1
102
RTVSPost2010Prop54
  1
strokes_ogs.tif
102
RTVSPost2010PropOp54
 70
     1
102
RTVSPost2010Prop55
280
     0
102
RTVSPost2010PropOp55
 70
     1
102
RTVSPost2010Prop56
140
1.0
102
RTVSPost2010PropOp56
 70
     1
102
RTVSPost2010Prop57
140
1.0
102
RTVSPost2010PropOp57
 70
     1
  0
XRECORD
  5
6CF
102
{ACAD_REACTORS
330
6CE
102
}
330
6CE
100
AcDbXrecord
280
     1
102
RTVSPropertyOp0
 70
     1
102
RTVSPropertyOp1
 70
     1
102
RTVSPropertyOp2
 70
     1
102
RTVSPropertyOp3
 70
     1
102
RTVSPropertyOp4
 70
     1
102
RTVSPropertyOp5
 70
     1
102
RTVSPropertyOp6
 70
     1
102
RTVSPropertyOp7
 70
     1
102
RTVSPropertyOp8
 70
     1
102
RTVSPropertyOp9
 70
     1
102
RTVSPropertyOp10
 70
     1
102
RTVSPropertyOp11
 70
     1
102
RTVSPropertyOp12
 70
     1
102
RTVSPropertyOp13
 70
     1
102
RTVSPropertyOp14
 70
     1
102
RTVSPropertyOp15
 70
     1
102
RTVSPropertyOp16
 70
     1
102
RTVSPropertyOp17
 70
     1
102
RTVSPropertyOp18
 70
     1
102
RTVSPropertyOp19
 70
     1
102
RTVSPropertyOp20
 70
     1
102
RTVSPropertyOp21
 70
     1
102
RTVSPropertyOp22
 70
     1
102
RTVSPropertyOp23
 70
     1
102
RTVSPropertyOp24
 70
     1
102
RTVSPropertyOp25
 70
     1
102
RTVSPropertyOp26
 70
     1
102
RTVSPropertyOp27
 70
     1
102
RTVSPropertyOp28
 70
     1
102
RTVSPropertyOp29
 70
     1
102
RTVSPropertyOp30
 70
     1
102
RTVSPropertyOp31
 70
     1
102
RTVSPropertyOp32
 70
     1
102
RTVSPropertyOp33
 70
     1
102
RTVSPropertyOp34
 70
     1
102
RTVSPropertyOp35
 70
     1
102
RTVSPropertyOp36
 70
     1
102
RTVSPropertyOp37
 70
     1
102
RTVSPropertyOp38
 70
     1
102
RTVSPropertyOp39
 70
     1
102
RTVSPropertyOp40
 70
     1
102
RTVSPropertyOp41
 70
     1
102
RTVSPropertyOp42
 70
     1
102
RTVSPropertyOp43
 70
     1
102
RTVSPropertyOp44
 70
     1
102
RTVSPropertyOp45
 70
     1
102
RTVSPropertyOp46
 70
     1
102
RTVSPropertyOp47
 70
     1
102
RTVSPropertyOp48
 70
     1
102
RTVSPropertyOp49
 70
     1
102
RTVSPropertyOp50
 70
     1
102
RTVSPropertyOp51
 70
     0
102
RTVSPropertyOp52
 70
     0
102
RTVSPropertyOp53
 70
     1
102
RTVSPropertyOp54
 70
     1
102
RTVSPropertyOp55
 70
     1
102
RTVSPropertyOp56
 70
     1
102
RTVSPropertyOp57
 70
     1
102
RTVSPost2010Prop28
280
     0
102
RTVSPost2010PropOp28
 70
     1
102
RTVSPost2010Prop29
280
     1
102
RTVSPost2010PropOp29
 70
     1
102
RTVSPost2010Prop30
280
     1
102
RTVSPost2010PropOp30
 70
     1
102
RTVSPost2010Prop31
280
     0
102
RTVSPost2010PropOp31
 70
     1
102
RTVSPost2010Prop32
280
     0
102
RTVSPost2010PropOp32
 70
     1
102
RTVSPost2010Prop33
280
     0
102
RTVSPost2010PropOp33
 70
     1
102
RTVSPost2010Prop34
280
     0
102
RTVSPost2010PropOp34
 70
     1
102
RTVSPost2010Prop35
280
     0
102
RTVSPost2010PropOp35
 70
     1
102
RTVSPost2010Prop36
280
     0
102
RTVSPost2010PropOp36
 70
     1
102
RTVSPost2010Prop37
 90
       50
102
RTVSPost2010PropOp37
 70
     1
102
RTVSPost2010Prop38
140
0.0
102
RTVSPost2010PropOp38
 70
     1
102
RTVSPost2010Prop39
140
1.0
102
RTVSPost2010PropOp39
 70
     1
102
RTVSPost2010Prop40
 90
        0
102
RTVSPost2010PropOp40
 70
     1
102
RTVSPost2010Prop41ColorIndex
 90
       18
102
RTVSPost2010Prop41ColorRGB
 90
        0
102
RTVSPost2010PropOp41
 70
     1
102
RTVSPost2010Prop42
 90
       50
102
RTVSPost2010PropOp42
 70
     1
102
RTVSPost2010Prop43
 90
        3
102
RTVSPost2010PropOp43
 70
     1
102
RTVSPost2010Prop44ColorIndex
 90
        5
102
RTVSPost2010Prop44ColorRGB
 90
      255
102
RTVSPost2010PropOp44
 70
     1
102
RTVSPost2010Prop45
280
     0
102
RTVSPost2010PropOp45
 70
     1
102
RTVSPost2010Prop46
 90
       50
102
RTVSPost2010PropOp46
 70
     1
102
RTVSPost2010Prop47
 90
       50
102
RTVSPost2010PropOp47
 70
     1
102
RTVSPost2010Prop48
 90
       50
102
RTVSPost2010PropOp48
 70
     1
102
RTVSPost2010Prop49
280
     0
102
RTVSPost2010PropOp49
 70
     1
102
RTVSPost2010Prop50
 90
       50
102
RTVSPost2010PropOp50
 70
     1
102
RTVSPost2010Prop51ColorIndex
 90
      256
102
RTVSPost2010Prop51ColorRGB
 90
-16777216
102
RTVSPost2010PropOp51
 70
     0
102
RTVSPost2010Prop52
140
1.0
102
RTVSPost2010PropOp52
 70
     0
102
RTVSPost2010Prop53
 90
        2
102
RTVSPost2010PropOp53
 70
     1
102
RTVSPost2010Prop54
  1
strokes_ogs.tif
102
RTVSPost2010PropOp54
 70
     1
102
RTVSPost2010Prop55
280
     0
102
RTVSPost2010PropOp55
 70
     1
102
RTVSPost2010Prop56
140
1.0
102
RTVSPost2010PropOp56
 70
     1
102
RTVSPost2010Prop57
140
1.0
102
RTVSPost2010PropOp57
 70
     1
  0
XRECORD
  5
6C3
102
{ACAD_REACTORS
330
6C2
102
}
330
6C2
100
AcDbXrecord
280
     1
102
RTVSPropertyOp0
 70
     1
102
RTVSPropertyOp1
 70
     1
102
RTVSPropertyOp2
 70
     1
102
RTVSPropertyOp3
 70
     1
102
RTVSPropertyOp4
 70
     1
102
RTVSPropertyOp5
 70
     1
102
RTVSPropertyOp6
 70
     1
102
RTVSPropertyOp7
 70
     1
102
RTVSPropertyOp8
 70
     1
102
RTVSPropertyOp9
 70
     1
102
RTVSPropertyOp10
 70
     1
102
RTVSPropertyOp11
 70
     1
102
RTVSPropertyOp12
 70
     1
102
RTVSPropertyOp13
 70
     1
102
RTVSPropertyOp14
 70
     1
102
RTVSPropertyOp15
 70
     1
102
RTVSPropertyOp16
 70
     1
102
RTVSPropertyOp17
 70
     1
102
RTVSPropertyOp18
 70
     1
102
RTVSPropertyOp19
 70
     1
102
RTVSPropertyOp20
 70
     1
102
RTVSPropertyOp21
 70
     1
102
RTVSPropertyOp22
 70
     1
102
RTVSPropertyOp23
 70
     1
102
RTVSPropertyOp24
 70
     1
102
RTVSPropertyOp25
 70
     1
102
RTVSPropertyOp26
 70
     1
102
RTVSPropertyOp27
 70
     1
102
RTVSPropertyOp28
 70
     1
102
RTVSPropertyOp29
 70
     1
102
RTVSPropertyOp30
 70
     1
102
RTVSPropertyOp31
 70
     1
102
RTVSPropertyOp32
 70
     1
102
RTVSPropertyOp33
 70
     1
102
RTVSPropertyOp34
 70
     1
102
RTVSPropertyOp35
 70
     1
102
RTVSPropertyOp36
 70
     1
102
RTVSPropertyOp37
 70
     1
102
RTVSPropertyOp38
 70
     1
102
RTVSPropertyOp39
 70
     1
102
RTVSPropertyOp40
 70
     1
102
RTVSPropertyOp41
 70
     1
102
RTVSPropertyOp42
 70
     1
102
RTVSPropertyOp43
 70
     1
102
RTVSPropertyOp44
 70
     1
102
RTVSPropertyOp45
 70
     1
102
RTVSPropertyOp46
 70
     1
102
RTVSPropertyOp47
 70
     1
102
RTVSPropertyOp48
 70
     1
102
RTVSPropertyOp49
 70
     1
102
RTVSPropertyOp50
 70
     1
102
RTVSPropertyOp51
 70
     0
102
RTVSPropertyOp52
 70
     0
102
RTVSPropertyOp53
 70
     1
102
RTVSPropertyOp54
 70
     1
102
RTVSPropertyOp55
 70
     1
102
RTVSPropertyOp56
 70
     1
102
RTVSPropertyOp57
 70
     1
102
RTVSPost2010Prop28
280
     0
102
RTVSPost2010PropOp28
 70
     1
102
RTVSPost2010Prop29
280
     1
102
RTVSPost2010PropOp29
 70
     1
102
RTVSPost2010Prop30
280
     1
102
RTVSPost2010PropOp30
 70
     1
102
RTVSPost2010Prop31
280
     0
102
RTVSPost2010PropOp31
 70
     1
102
RTVSPost2010Prop32
280
     0
102
RTVSPost2010PropOp32
 70
     1
102
RTVSPost2010Prop33
280
     0
102
RTVSPost2010PropOp33
 70
     1
102
RTVSPost2010Prop34
280
     0
102
RTVSPost2010PropOp34
 70
     1
102
RTVSPost2010Prop35
280
     0
102
RTVSPost2010PropOp35
 70
     1
102
RTVSPost2010Prop36
280
     0
102
RTVSPost2010PropOp36
 70
     1
102
RTVSPost2010Prop37
 90
       50
102
RTVSPost2010PropOp37
 70
     1
102
RTVSPost2010Prop38
140
0.0
102
RTVSPost2010PropOp38
 70
     1
102
RTVSPost2010Prop39
140
1.0
102
RTVSPost2010PropOp39
 70
     1
102
RTVSPost2010Prop40
 90
        0
102
RTVSPost2010PropOp40
 70
     1
102
RTVSPost2010Prop41ColorIndex
 90
       18
102
RTVSPost2010Prop41ColorRGB
 90
        0
102
RTVSPost2010PropOp41
 70
     1
102
RTVSPost2010Prop42
 90
       50
102
RTVSPost2010PropOp42
 70
     1
102
RTVSPost2010Prop43
 90
        3
102
RTVSPost2010PropOp43
 70
     1
102
RTVSPost2010Prop44ColorIndex
 90
        5
102
RTVSPost2010Prop44ColorRGB
 90
      255
102
RTVSPost2010PropOp44
 70
     1
102
RTVSPost2010Prop45
280
     0
102
RTVSPost2010PropOp45
 70
     1
102
RTVSPost2010Prop46
 90
       50
102
RTVSPost2010PropOp46
 70
     1
102
RTVSPost2010Prop47
 90
       50
102
RTVSPost2010PropOp47
 70
     1
102
RTVSPost2010Prop48
 90
       50
102
RTVSPost2010PropOp48
 70
     1
102
RTVSPost2010Prop49
280
     0
102
RTVSPost2010PropOp49
 70
     1
102
RTVSPost2010Prop50
 90
       50
102
RTVSPost2010PropOp50
 70
     1
102
RTVSPost2010Prop51ColorIndex
 90
      256
102
RTVSPost2010Prop51ColorRGB
 90
-16777216
102
RTVSPost2010PropOp51
 70
     0
102
RTVSPost2010Prop52
140
1.0
102
RTVSPost2010PropOp52
 70
     0
102
RTVSPost2010Prop53
 90
        2
102
RTVSPost2010PropOp53
 70
     1
102
RTVSPost2010Prop54
  1
strokes_ogs.tif
102
RTVSPost2010PropOp54
 70
     1
102
RTVSPost2010Prop55
280
     0
102
RTVSPost2010PropOp55
 70
     1
102
RTVSPost2010Prop56
140
1.0
102
RTVSPost2010PropOp56
 70
     1
102
RTVSPost2010Prop57
140
1.0
102
RTVSPost2010PropOp57
 70
     1
  0
XRECORD
  5
6C5
102
{ACAD_REACTORS
330
6C4
102
}
330
6C4
100
AcDbXrecord
280
     1
102
RTVSPropertyOp0
 70
     1
102
RTVSPropertyOp1
 70
     1
102
RTVSPropertyOp2
 70
     1
102
RTVSPropertyOp3
 70
     1
102
RTVSPropertyOp4
 70
     1
102
RTVSPropertyOp5
 70
     1
102
RTVSPropertyOp6
 70
     1
102
RTVSPropertyOp7
 70
     1
102
RTVSPropertyOp8
 70
     1
102
RTVSPropertyOp9
 70
     1
102
RTVSPropertyOp10
 70
     1
102
RTVSPropertyOp11
 70
     1
102
RTVSPropertyOp12
 70
     1
102
RTVSPropertyOp13
 70
     1
102
RTVSPropertyOp14
 70
     1
102
RTVSPropertyOp15
 70
     1
102
RTVSPropertyOp16
 70
     1
102
RTVSPropertyOp17
 70
     1
102
RTVSPropertyOp18
 70
     1
102
RTVSPropertyOp19
 70
     1
102
RTVSPropertyOp20
 70
     1
102
RTVSPropertyOp21
 70
     1
102
RTVSPropertyOp22
 70
     1
102
RTVSPropertyOp23
 70
     1
102
RTVSPropertyOp24
 70
     1
102
RTVSPropertyOp25
 70
     1
102
RTVSPropertyOp26
 70
     1
102
RTVSPropertyOp27
 70
     1
102
RTVSPropertyOp28
 70
     1
102
RTVSPropertyOp29
 70
     1
102
RTVSPropertyOp30
 70
     1
102
RTVSPropertyOp31
 70
     1
102
RTVSPropertyOp32
 70
     1
102
RTVSPropertyOp33
 70
     1
102
RTVSPropertyOp34
 70
     1
102
RTVSPropertyOp35
 70
     1
102
RTVSPropertyOp36
 70
     1
102
RTVSPropertyOp37
 70
     1
102
RTVSPropertyOp38
 70
     1
102
RTVSPropertyOp39
 70
     1
102
RTVSPropertyOp40
 70
     1
102
RTVSPropertyOp41
 70
     1
102
RTVSPropertyOp42
 70
     1
102
RTVSPropertyOp43
 70
     1
102
RTVSPropertyOp44
 70
     1
102
RTVSPropertyOp45
 70
     1
102
RTVSPropertyOp46
 70
     1
102
RTVSPropertyOp47
 70
     1
102
RTVSPropertyOp48
 70
     1
102
RTVSPropertyOp49
 70
     1
102
RTVSPropertyOp50
 70
     1
102
RTVSPropertyOp51
 70
     0
102
RTVSPropertyOp52
 70
     0
102
RTVSPropertyOp53
 70
     1
102
RTVSPropertyOp54
 70
     1
102
RTVSPropertyOp55
 70
     1
102
RTVSPropertyOp56
 70
     1
102
RTVSPropertyOp57
 70
     1
102
RTVSPost2010Prop28
280
     0
102
RTVSPost2010PropOp28
 70
     1
102
RTVSPost2010Prop29
280
     1
102
RTVSPost2010PropOp29
 70
     1
102
RTVSPost2010Prop30
280
     1
102
RTVSPost2010PropOp30
 70
     1
102
RTVSPost2010Prop31
280
     0
102
RTVSPost2010PropOp31
 70
     1
102
RTVSPost2010Prop32
280
     0
102
RTVSPost2010PropOp32
 70
     1
102
RTVSPost2010Prop33
280
     0
102
RTVSPost2010PropOp33
 70
     1
102
RTVSPost2010Prop34
280
     0
102
RTVSPost2010PropOp34
 70
     1
102
RTVSPost2010Prop35
280
     0
102
RTVSPost2010PropOp35
 70
     1
102
RTVSPost2010Prop36
280
     0
102
RTVSPost2010PropOp36
 70
     1
102
RTVSPost2010Prop37
 90
       50
102
RTVSPost2010PropOp37
 70
     1
102
RTVSPost2010Prop38
140
0.0
102
RTVSPost2010PropOp38
 70
     1
102
RTVSPost2010Prop39
140
1.0
102
RTVSPost2010PropOp39
 70
     1
102
RTVSPost2010Prop40
 90
        0
102
RTVSPost2010PropOp40
 70
     1
102
RTVSPost2010Prop41ColorIndex
 90
       18
102
RTVSPost2010Prop41ColorRGB
 90
        0
102
RTVSPost2010PropOp41
 70
     1
102
RTVSPost2010Prop42
 90
       50
102
RTVSPost2010PropOp42
 70
     1
102
RTVSPost2010Prop43
 90
        3
102
RTVSPost2010PropOp43
 70
     1
102
RTVSPost2010Prop44ColorIndex
 90
        5
102
RTVSPost2010Prop44ColorRGB
 90
      255
102
RTVSPost2010PropOp44
 70
     1
102
RTVSPost2010Prop45
280
     0
102
RTVSPost2010PropOp45
 70
     1
102
RTVSPost2010Prop46
 90
       50
102
RTVSPost2010PropOp46
 70
     1
102
RTVSPost2010Prop47
 90
       50
102
RTVSPost2010PropOp47
 70
     1
102
RTVSPost2010Prop48
 90
       50
102
RTVSPost2010PropOp48
 70
     1
102
RTVSPost2010Prop49
280
     0
102
RTVSPost2010PropOp49
 70
     1
102
RTVSPost2010Prop50
 90
       50
102
RTVSPost2010PropOp50
 70
     1
102
RTVSPost2010Prop51ColorIndex
 90
      256
102
RTVSPost2010Prop51ColorRGB
 90
-16777216
102
RTVSPost2010PropOp51
 70
     0
102
RTVSPost2010Prop52
140
1.0
102
RTVSPost2010PropOp52
 70
     0
102
RTVSPost2010Prop53
 90
        2
102
RTVSPost2010PropOp53
 70
     1
102
RTVSPost2010Prop54
  1
strokes_ogs.tif
102
RTVSPost2010PropOp54
 70
     1
102
RTVSPost2010Prop55
280
     0
102
RTVSPost2010PropOp55
 70
     1
102
RTVSPost2010Prop56
140
1.0
102
RTVSPost2010PropOp56
 70
     1
102
RTVSPost2010Prop57
140
1.0
102
RTVSPost2010PropOp57
 70
     1
  0
XRECORD
  5
6CD
102
{ACAD_REACTORS
330
6CC
102
}
330
6CC
100
AcDbXrecord
280
     1
102
RTVSPropertyOp0
 70
     1
102
RTVSPropertyOp1
 70
     1
102
RTVSPropertyOp2
 70
     1
102
RTVSPropertyOp3
 70
     1
102
RTVSPropertyOp4
 70
     1
102
RTVSPropertyOp5
 70
     1
102
RTVSPropertyOp6
 70
     1
102
RTVSPropertyOp7
 70
     1
102
RTVSPropertyOp8
 70
     1
102
RTVSPropertyOp9
 70
     1
102
RTVSPropertyOp10
 70
     1
102
RTVSPropertyOp11
 70
     1
102
RTVSPropertyOp12
 70
     1
102
RTVSPropertyOp13
 70
     1
102
RTVSPropertyOp14
 70
     1
102
RTVSPropertyOp15
 70
     1
102
RTVSPropertyOp16
 70
     1
102
RTVSPropertyOp17
 70
     1
102
RTVSPropertyOp18
 70
     1
102
RTVSPropertyOp19
 70
     1
102
RTVSPropertyOp20
 70
     1
102
RTVSPropertyOp21
 70
     1
102
RTVSPropertyOp22
 70
     1
102
RTVSPropertyOp23
 70
     1
102
RTVSPropertyOp24
 70
     1
102
RTVSPropertyOp25
 70
     1
102
RTVSPropertyOp26
 70
     1
102
RTVSPropertyOp27
 70
     1
102
RTVSPropertyOp28
 70
     1
102
RTVSPropertyOp29
 70
     1
102
RTVSPropertyOp30
 70
     1
102
RTVSPropertyOp31
 70
     1
102
RTVSPropertyOp32
 70
     1
102
RTVSPropertyOp33
 70
     1
102
RTVSPropertyOp34
 70
     1
102
RTVSPropertyOp35
 70
     1
102
RTVSPropertyOp36
 70
     1
102
RTVSPropertyOp37
 70
     1
102
RTVSPropertyOp38
 70
     1
102
RTVSPropertyOp39
 70
     1
102
RTVSPropertyOp40
 70
     1
102
RTVSPropertyOp41
 70
     1
102
RTVSPropertyOp42
 70
     1
102
RTVSPropertyOp43
 70
     1
102
RTVSPropertyOp44
 70
     1
102
RTVSPropertyOp45
 70
     1
102
RTVSPropertyOp46
 70
     1
102
RTVSPropertyOp47
 70
     1
102
RTVSPropertyOp48
 70
     1
102
RTVSPropertyOp49
 70
     1
102
RTVSPropertyOp50
 70
     1
102
RTVSPropertyOp51
 70
     0
102
RTVSPropertyOp52
 70
     0
102
RTVSPropertyOp53
 70
     1
102
RTVSPropertyOp54
 70
     1
102
RTVSPropertyOp55
 70
     1
102
RTVSPropertyOp56
 70
     1
102
RTVSPropertyOp57
 70
     1
102
RTVSPost2010Prop28
280
     0
102
RTVSPost2010PropOp28
 70
     1
102
RTVSPost2010Prop29
280
     1
102
RTVSPost2010PropOp29
 70
     1
102
RTVSPost2010Prop30
280
     1
102
RTVSPost2010PropOp30
 70
     1
102
RTVSPost2010Prop31
280
     0
102
RTVSPost2010PropOp31
 70
     1
102
RTVSPost2010Prop32
280
     0
102
RTVSPost2010PropOp32
 70
     1
102
RTVSPost2010Prop33
280
     0
102
RTVSPost2010PropOp33
 70
     1
102
RTVSPost2010Prop34
280
     0
102
RTVSPost2010PropOp34
 70
     1
102
RTVSPost2010Prop35
280
     0
102
RTVSPost2010PropOp35
 70
     1
102
RTVSPost2010Prop36
280
     0
102
RTVSPost2010PropOp36
 70
     1
102
RTVSPost2010Prop37
 90
       50
102
RTVSPost2010PropOp37
 70
     1
102
RTVSPost2010Prop38
140
0.0
102
RTVSPost2010PropOp38
 70
     1
102
RTVSPost2010Prop39
140
1.0
102
RTVSPost2010PropOp39
 70
     1
102
RTVSPost2010Prop40
 90
        0
102
RTVSPost2010PropOp40
 70
     1
102
RTVSPost2010Prop41ColorIndex
 90
       18
102
RTVSPost2010Prop41ColorRGB
 90
        0
102
RTVSPost2010PropOp41
 70
     1
102
RTVSPost2010Prop42
 90
       50
102
RTVSPost2010PropOp42
 70
     1
102
RTVSPost2010Prop43
 90
        3
102
RTVSPost2010PropOp43
 70
     1
102
RTVSPost2010Prop44ColorIndex
 90
        5
102
RTVSPost2010Prop44ColorRGB
 90
      255
102
RTVSPost2010PropOp44
 70
     1
102
RTVSPost2010Prop45
280
     0
102
RTVSPost2010PropOp45
 70
     1
102
RTVSPost2010Prop46
 90
       50
102
RTVSPost2010PropOp46
 70
     1
102
RTVSPost2010Prop47
 90
       50
102
RTVSPost2010PropOp47
 70
     1
102
RTVSPost2010Prop48
 90
       50
102
RTVSPost2010PropOp48
 70
     1
102
RTVSPost2010Prop49
280
     0
102
RTVSPost2010PropOp49
 70
     1
102
RTVSPost2010Prop50
 90
       50
102
RTVSPost2010PropOp50
 70
     1
102
RTVSPost2010Prop51ColorIndex
 90
      256
102
RTVSPost2010Prop51ColorRGB
 90
-16777216
102
RTVSPost2010PropOp51
 70
     0
102
RTVSPost2010Prop52
140
1.0
102
RTVSPost2010PropOp52
 70
     0
102
RTVSPost2010Prop53
 90
        2
102
RTVSPost2010PropOp53
 70
     1
102
RTVSPost2010Prop54
  1
strokes_ogs.tif
102
RTVSPost2010PropOp54
 70
     1
102
RTVSPost2010Prop55
280
     0
102
RTVSPost2010PropOp55
 70
     1
102
RTVSPost2010Prop56
140
1.0
102
RTVSPost2010PropOp56
 70
     1
102
RTVSPost2010Prop57
140
1.0
102
RTVSPost2010PropOp57
 70
     1
  0
XRECORD
  5
6B1
102
{ACAD_REACTORS
330
6B0
102
}
330
6B0
100
AcDbXrecord
280
     1
102
RTVSPropertyOp0
 70
     1
102
RTVSPropertyOp1
 70
     1
102
RTVSPropertyOp2
 70
     1
102
RTVSPropertyOp3
 70
     1
102
RTVSPropertyOp4
 70
     1
102
RTVSPropertyOp5
 70
     1
102
RTVSPropertyOp6
 70
     1
102
RTVSPropertyOp7
 70
     1
102
RTVSPropertyOp8
 70
     1
102
RTVSPropertyOp9
 70
     1
102
RTVSPropertyOp10
 70
     1
102
RTVSPropertyOp11
 70
     1
102
RTVSPropertyOp12
 70
     1
102
RTVSPropertyOp13
 70
     1
102
RTVSPropertyOp14
 70
     1
102
RTVSPropertyOp15
 70
     1
102
RTVSPropertyOp16
 70
     1
102
RTVSPropertyOp17
 70
     1
102
RTVSPropertyOp18
 70
     1
102
RTVSPropertyOp19
 70
     1
102
RTVSPropertyOp20
 70
     1
102
RTVSPropertyOp21
 70
     1
102
RTVSPropertyOp22
 70
     1
102
RTVSPropertyOp23
 70
     1
102
RTVSPropertyOp24
 70
     1
102
RTVSPropertyOp25
 70
     1
102
RTVSPropertyOp26
 70
     1
102
RTVSPropertyOp27
 70
     1
102
RTVSPropertyOp28
 70
     1
102
RTVSPropertyOp29
 70
     1
102
RTVSPropertyOp30
 70
     1
102
RTVSPropertyOp31
 70
     1
102
RTVSPropertyOp32
 70
     1
102
RTVSPropertyOp33
 70
     1
102
RTVSPropertyOp34
 70
     1
102
RTVSPropertyOp35
 70
     1
102
RTVSPropertyOp36
 70
     1
102
RTVSPropertyOp37
 70
     1
102
RTVSPropertyOp38
 70
     1
102
RTVSPropertyOp39
 70
     1
102
RTVSPropertyOp40
 70
     1
102
RTVSPropertyOp41
 70
     1
102
RTVSPropertyOp42
 70
     1
102
RTVSPropertyOp43
 70
     1
102
RTVSPropertyOp44
 70
     1
102
RTVSPropertyOp45
 70
     1
102
RTVSPropertyOp46
 70
     1
102
RTVSPropertyOp47
 70
     1
102
RTVSPropertyOp48
 70
     1
102
RTVSPropertyOp49
 70
     1
102
RTVSPropertyOp50
 70
     1
102
RTVSPropertyOp51
 70
     0
102
RTVSPropertyOp52
 70
     0
102
RTVSPropertyOp53
 70
     1
102
RTVSPropertyOp54
 70
     1
102
RTVSPropertyOp55
 70
     1
102
RTVSPropertyOp56
 70
     1
102
RTVSPropertyOp57
 70
     1
102
RTVSPost2010Prop28
280
     0
102
RTVSPost2010PropOp28
 70
     1
102
RTVSPost2010Prop29
280
     1
102
RTVSPost2010PropOp29
 70
     1
102
RTVSPost2010Prop30
280
     1
102
RTVSPost2010PropOp30
 70
     1
102
RTVSPost2010Prop31
280
     0
102
RTVSPost2010PropOp31
 70
     1
102
RTVSPost2010Prop32
280
     0
102
RTVSPost2010PropOp32
 70
     1
102
RTVSPost2010Prop33
280
     0
102
RTVSPost2010PropOp33
 70
     1
102
RTVSPost2010Prop34
280
     0
102
RTVSPost2010PropOp34
 70
     1
102
RTVSPost2010Prop35
280
     0
102
RTVSPost2010PropOp35
 70
     1
102
RTVSPost2010Prop36
280
     0
102
RTVSPost2010PropOp36
 70
     1
102
RTVSPost2010Prop37
 90
       50
102
RTVSPost2010PropOp37
 70
     1
102
RTVSPost2010Prop38
140
0.0
102
RTVSPost2010PropOp38
 70
     1
102
RTVSPost2010Prop39
140
1.0
102
RTVSPost2010PropOp39
 70
     1
102
RTVSPost2010Prop40
 90
        0
102
RTVSPost2010PropOp40
 70
     1
102
RTVSPost2010Prop41ColorIndex
 90
       18
102
RTVSPost2010Prop41ColorRGB
 90
        0
102
RTVSPost2010PropOp41
 70
     1
102
RTVSPost2010Prop42
 90
       50
102
RTVSPost2010PropOp42
 70
     1
102
RTVSPost2010Prop43
 90
        3
102
RTVSPost2010PropOp43
 70
     1
102
RTVSPost2010Prop44ColorIndex
 90
        5
102
RTVSPost2010Prop44ColorRGB
 90
      255
102
RTVSPost2010PropOp44
 70
     1
102
RTVSPost2010Prop45
280
     0
102
RTVSPost2010PropOp45
 70
     1
102
RTVSPost2010Prop46
 90
       50
102
RTVSPost2010PropOp46
 70
     1
102
RTVSPost2010Prop47
 90
       50
102
RTVSPost2010PropOp47
 70
     1
102
RTVSPost2010Prop48
 90
       50
102
RTVSPost2010PropOp48
 70
     1
102
RTVSPost2010Prop49
280
     0
102
RTVSPost2010PropOp49
 70
     1
102
RTVSPost2010Prop50
 90
       50
102
RTVSPost2010PropOp50
 70
     1
102
RTVSPost2010Prop51ColorIndex
 90
      256
102
RTVSPost2010Prop51ColorRGB
 90
-16777216
102
RTVSPost2010PropOp51
 70
     0
102
RTVSPost2010Prop52
140
1.0
102
RTVSPost2010PropOp52
 70
     0
102
RTVSPost2010Prop53
 90
        2
102
RTVSPost2010PropOp53
 70
     1
102
RTVSPost2010Prop54
  1
strokes_ogs.tif
102
RTVSPost2010PropOp54
 70
     1
102
RTVSPost2010Prop55
280
     0
102
RTVSPost2010PropOp55
 70
     1
102
RTVSPost2010Prop56
140
1.0
102
RTVSPost2010PropOp56
 70
     1
102
RTVSPost2010Prop57
140
1.0
102
RTVSPost2010PropOp57
 70
     1
  0
XRECORD
  5
6B3
102
{ACAD_REACTORS
330
6B2
102
}
330
6B2
100
AcDbXrecord
280
     1
102
RTVSPropertyOp0
 70
     1
102
RTVSPropertyOp1
 70
     1
102
RTVSPropertyOp2
 70
     1
102
RTVSPropertyOp3
 70
     1
102
RTVSPropertyOp4
 70
     1
102
RTVSPropertyOp5
 70
     1
102
RTVSPropertyOp6
 70
     1
102
RTVSPropertyOp7
 70
     1
102
RTVSPropertyOp8
 70
     1
102
RTVSPropertyOp9
 70
     1
102
RTVSPropertyOp10
 70
     1
102
RTVSPropertyOp11
 70
     1
102
RTVSPropertyOp12
 70
     1
102
RTVSPropertyOp13
 70
     1
102
RTVSPropertyOp14
 70
     1
102
RTVSPropertyOp15
 70
     1
102
RTVSPropertyOp16
 70
     1
102
RTVSPropertyOp17
 70
     1
102
RTVSPropertyOp18
 70
     1
102
RTVSPropertyOp19
 70
     1
102
RTVSPropertyOp20
 70
     1
102
RTVSPropertyOp21
 70
     1
102
RTVSPropertyOp22
 70
     1
102
RTVSPropertyOp23
 70
     1
102
RTVSPropertyOp24
 70
     1
102
RTVSPropertyOp25
 70
     1
102
RTVSPropertyOp26
 70
     1
102
RTVSPropertyOp27
 70
     1
102
RTVSPropertyOp28
 70
     1
102
RTVSPropertyOp29
 70
     1
102
RTVSPropertyOp30
 70
     1
102
RTVSPropertyOp31
 70
     1
102
RTVSPropertyOp32
 70
     1
102
RTVSPropertyOp33
 70
     1
102
RTVSPropertyOp34
 70
     1
102
RTVSPropertyOp35
 70
     1
102
RTVSPropertyOp36
 70
     1
102
RTVSPropertyOp37
 70
     1
102
RTVSPropertyOp38
 70
     1
102
RTVSPropertyOp39
 70
     1
102
RTVSPropertyOp40
 70
     1
102
RTVSPropertyOp41
 70
     1
102
RTVSPropertyOp42
 70
     1
102
RTVSPropertyOp43
 70
     1
102
RTVSPropertyOp44
 70
     1
102
RTVSPropertyOp45
 70
     1
102
RTVSPropertyOp46
 70
     1
102
RTVSPropertyOp47
 70
     1
102
RTVSPropertyOp48
 70
     1
102
RTVSPropertyOp49
 70
     1
102
RTVSPropertyOp50
 70
     1
102
RTVSPropertyOp51
 70
     0
102
RTVSPropertyOp52
 70
     0
102
RTVSPropertyOp53
 70
     1
102
RTVSPropertyOp54
 70
     1
102
RTVSPropertyOp55
 70
     1
102
RTVSPropertyOp56
 70
     1
102
RTVSPropertyOp57
 70
     1
102
RTVSPost2010Prop28
280
     0
102
RTVSPost2010PropOp28
 70
     1
102
RTVSPost2010Prop29
280
     1
102
RTVSPost2010PropOp29
 70
     1
102
RTVSPost2010Prop30
280
     1
102
RTVSPost2010PropOp30
 70
     1
102
RTVSPost2010Prop31
280
     0
102
RTVSPost2010PropOp31
 70
     1
102
RTVSPost2010Prop32
280
     0
102
RTVSPost2010PropOp32
 70
     1
102
RTVSPost2010Prop33
280
     0
102
RTVSPost2010PropOp33
 70
     1
102
RTVSPost2010Prop34
280
     0
102
RTVSPost2010PropOp34
 70
     1
102
RTVSPost2010Prop35
280
     0
102
RTVSPost2010PropOp35
 70
     1
102
RTVSPost2010Prop36
280
     0
102
RTVSPost2010PropOp36
 70
     1
102
RTVSPost2010Prop37
 90
       50
102
RTVSPost2010PropOp37
 70
     1
102
RTVSPost2010Prop38
140
0.0
102
RTVSPost2010PropOp38
 70
     1
102
RTVSPost2010Prop39
140
1.0
102
RTVSPost2010PropOp39
 70
     1
102
RTVSPost2010Prop40
 90
        0
102
RTVSPost2010PropOp40
 70
     1
102
RTVSPost2010Prop41ColorIndex
 90
       18
102
RTVSPost2010Prop41ColorRGB
 90
        0
102
RTVSPost2010PropOp41
 70
     1
102
RTVSPost2010Prop42
 90
       50
102
RTVSPost2010PropOp42
 70
     1
102
RTVSPost2010Prop43
 90
        3
102
RTVSPost2010PropOp43
 70
     1
102
RTVSPost2010Prop44ColorIndex
 90
        5
102
RTVSPost2010Prop44ColorRGB
 90
      255
102
RTVSPost2010PropOp44
 70
     1
102
RTVSPost2010Prop45
280
     0
102
RTVSPost2010PropOp45
 70
     1
102
RTVSPost2010Prop46
 90
       50
102
RTVSPost2010PropOp46
 70
     1
102
RTVSPost2010Prop47
 90
       50
102
RTVSPost2010PropOp47
 70
     1
102
RTVSPost2010Prop48
 90
       50
102
RTVSPost2010PropOp48
 70
     1
102
RTVSPost2010Prop49
280
     0
102
RTVSPost2010PropOp49
 70
     1
102
RTVSPost2010Prop50
 90
       50
102
RTVSPost2010PropOp50
 70
     1
102
RTVSPost2010Prop51ColorIndex
 90
      256
102
RTVSPost2010Prop51ColorRGB
 90
-16777216
102
RTVSPost2010PropOp51
 70
     0
102
RTVSPost2010Prop52
140
1.0
102
RTVSPost2010PropOp52
 70
     0
102
RTVSPost2010Prop53
 90
        2
102
RTVSPost2010PropOp53
 70
     1
102
RTVSPost2010Prop54
  1
strokes_ogs.tif
102
RTVSPost2010PropOp54
 70
     1
102
RTVSPost2010Prop55
280
     0
102
RTVSPost2010PropOp55
 70
     1
102
RTVSPost2010Prop56
140
1.0
102
RTVSPost2010PropOp56
 70
     1
102
RTVSPost2010Prop57
140
1.0
102
RTVSPost2010PropOp57
 70
     1
  0
XRECORD
  5
6B5
102
{ACAD_REACTORS
330
6B4
102
}
330
6B4
100
AcDbXrecord
280
     1
102
RTVSPropertyOp0
 70
     1
102
RTVSPropertyOp1
 70
     1
102
RTVSPropertyOp2
 70
     1
102
RTVSPropertyOp3
 70
     1
102
RTVSPropertyOp4
 70
     1
102
RTVSPropertyOp5
 70
     1
102
RTVSPropertyOp6
 70
     1
102
RTVSPropertyOp7
 70
     1
102
RTVSPropertyOp8
 70
     1
102
RTVSPropertyOp9
 70
     1
102
RTVSPropertyOp10
 70
     1
102
RTVSPropertyOp11
 70
     1
102
RTVSPropertyOp12
 70
     1
102
RTVSPropertyOp13
 70
     1
102
RTVSPropertyOp14
 70
     1
102
RTVSPropertyOp15
 70
     1
102
RTVSPropertyOp16
 70
     1
102
RTVSPropertyOp17
 70
     1
102
RTVSPropertyOp18
 70
     1
102
RTVSPropertyOp19
 70
     1
102
RTVSPropertyOp20
 70
     1
102
RTVSPropertyOp21
 70
     1
102
RTVSPropertyOp22
 70
     1
102
RTVSPropertyOp23
 70
     1
102
RTVSPropertyOp24
 70
     1
102
RTVSPropertyOp25
 70
     1
102
RTVSPropertyOp26
 70
     1
102
RTVSPropertyOp27
 70
     1
102
RTVSPropertyOp28
 70
     1
102
RTVSPropertyOp29
 70
     1
102
RTVSPropertyOp30
 70
     1
102
RTVSPropertyOp31
 70
     1
102
RTVSPropertyOp32
 70
     1
102
RTVSPropertyOp33
 70
     1
102
RTVSPropertyOp34
 70
     1
102
RTVSPropertyOp35
 70
     1
102
RTVSPropertyOp36
 70
     1
102
RTVSPropertyOp37
 70
     1
102
RTVSPropertyOp38
 70
     1
102
RTVSPropertyOp39
 70
     1
102
RTVSPropertyOp40
 70
     1
102
RTVSPropertyOp41
 70
     1
102
RTVSPropertyOp42
 70
     1
102
RTVSPropertyOp43
 70
     1
102
RTVSPropertyOp44
 70
     1
102
RTVSPropertyOp45
 70
     1
102
RTVSPropertyOp46
 70
     1
102
RTVSPropertyOp47
 70
     1
102
RTVSPropertyOp48
 70
     1
102
RTVSPropertyOp49
 70
     1
102
RTVSPropertyOp50
 70
     1
102
RTVSPropertyOp51
 70
     0
102
RTVSPropertyOp52
 70
     0
102
RTVSPropertyOp53
 70
     1
102
RTVSPropertyOp54
 70
     1
102
RTVSPropertyOp55
 70
     1
102
RTVSPropertyOp56
 70
     1
102
RTVSPropertyOp57
 70
     1
102
RTVSPost2010Prop28
280
     0
102
RTVSPost2010PropOp28
 70
     1
102
RTVSPost2010Prop29
280
     1
102
RTVSPost2010PropOp29
 70
     1
102
RTVSPost2010Prop30
280
     1
102
RTVSPost2010PropOp30
 70
     1
102
RTVSPost2010Prop31
280
     0
102
RTVSPost2010PropOp31
 70
     1
102
RTVSPost2010Prop32
280
     0
102
RTVSPost2010PropOp32
 70
     1
102
RTVSPost2010Prop33
280
     0
102
RTVSPost2010PropOp33
 70
     1
102
RTVSPost2010Prop34
280
     0
102
RTVSPost2010PropOp34
 70
     1
102
RTVSPost2010Prop35
280
     0
102
RTVSPost2010PropOp35
 70
     1
102
RTVSPost2010Prop36
280
     0
102
RTVSPost2010PropOp36
 70
     1
102
RTVSPost2010Prop37
 90
       50
102
RTVSPost2010PropOp37
 70
     1
102
RTVSPost2010Prop38
140
0.0
102
RTVSPost2010PropOp38
 70
     1
102
RTVSPost2010Prop39
140
1.0
102
RTVSPost2010PropOp39
 70
     1
102
RTVSPost2010Prop40
 90
        0
102
RTVSPost2010PropOp40
 70
     1
102
RTVSPost2010Prop41ColorIndex
 90
       18
102
RTVSPost2010Prop41ColorRGB
 90
        0
102
RTVSPost2010PropOp41
 70
     1
102
RTVSPost2010Prop42
 90
       50
102
RTVSPost2010PropOp42
 70
     1
102
RTVSPost2010Prop43
 90
        3
102
RTVSPost2010PropOp43
 70
     1
102
RTVSPost2010Prop44ColorIndex
 90
        5
102
RTVSPost2010Prop44ColorRGB
 90
      255
102
RTVSPost2010PropOp44
 70
     1
102
RTVSPost2010Prop45
280
     0
102
RTVSPost2010PropOp45
 70
     1
102
RTVSPost2010Prop46
 90
       50
102
RTVSPost2010PropOp46
 70
     1
102
RTVSPost2010Prop47
 90
       50
102
RTVSPost2010PropOp47
 70
     1
102
RTVSPost2010Prop48
 90
       50
102
RTVSPost2010PropOp48
 70
     1
102
RTVSPost2010Prop49
280
     0
102
RTVSPost2010PropOp49
 70
     1
102
RTVSPost2010Prop50
 90
       50
102
RTVSPost2010PropOp50
 70
     1
102
RTVSPost2010Prop51ColorIndex
 90
      256
102
RTVSPost2010Prop51ColorRGB
 90
-16777216
102
RTVSPost2010PropOp51
 70
     0
102
RTVSPost2010Prop52
140
1.0
102
RTVSPost2010PropOp52
 70
     0
102
RTVSPost2010Prop53
 90
        2
102
RTVSPost2010PropOp53
 70
     1
102
RTVSPost2010Prop54
  1
strokes_ogs.tif
102
RTVSPost2010PropOp54
 70
     1
102
RTVSPost2010Prop55
280
     0
102
RTVSPost2010PropOp55
 70
     1
102
RTVSPost2010Prop56
140
1.0
102
RTVSPost2010PropOp56
 70
     1
102
RTVSPost2010Prop57
140
1.0
102
RTVSPost2010PropOp57
 70
     1
  0
XRECORD
  5
6B7
102
{ACAD_REACTORS
330
6B6
102
}
330
6B6
100
AcDbXrecord
280
     1
102
RTVSPropertyOp0
 70
     1
102
RTVSPropertyOp1
 70
     1
102
RTVSPropertyOp2
 70
     1
102
RTVSPropertyOp3
 70
     1
102
RTVSPropertyOp4
 70
     1
102
RTVSPropertyOp5
 70
     1
102
RTVSPropertyOp6
 70
     1
102
RTVSPropertyOp7
 70
     1
102
RTVSPropertyOp8
 70
     1
102
RTVSPropertyOp9
 70
     1
102
RTVSPropertyOp10
 70
     1
102
RTVSPropertyOp11
 70
     1
102
RTVSPropertyOp12
 70
     1
102
RTVSPropertyOp13
 70
     1
102
RTVSPropertyOp14
 70
     1
102
RTVSPropertyOp15
 70
     1
102
RTVSPropertyOp16
 70
     1
102
RTVSPropertyOp17
 70
     1
102
RTVSPropertyOp18
 70
     1
102
RTVSPropertyOp19
 70
     1
102
RTVSPropertyOp20
 70
     1
102
RTVSPropertyOp21
 70
     1
102
RTVSPropertyOp22
 70
     1
102
RTVSPropertyOp23
 70
     1
102
RTVSPropertyOp24
 70
     1
102
RTVSPropertyOp25
 70
     1
102
RTVSPropertyOp26
 70
     1
102
RTVSPropertyOp27
 70
     1
102
RTVSPropertyOp28
 70
     1
102
RTVSPropertyOp29
 70
     1
102
RTVSPropertyOp30
 70
     1
102
RTVSPropertyOp31
 70
     1
102
RTVSPropertyOp32
 70
     1
102
RTVSPropertyOp33
 70
     1
102
RTVSPropertyOp34
 70
     1
102
RTVSPropertyOp35
 70
     1
102
RTVSPropertyOp36
 70
     1
102
RTVSPropertyOp37
 70
     1
102
RTVSPropertyOp38
 70
     1
102
RTVSPropertyOp39
 70
     1
102
RTVSPropertyOp40
 70
     1
102
RTVSPropertyOp41
 70
     1
102
RTVSPropertyOp42
 70
     1
102
RTVSPropertyOp43
 70
     1
102
RTVSPropertyOp44
 70
     1
102
RTVSPropertyOp45
 70
     1
102
RTVSPropertyOp46
 70
     1
102
RTVSPropertyOp47
 70
     1
102
RTVSPropertyOp48
 70
     1
102
RTVSPropertyOp49
 70
     1
102
RTVSPropertyOp50
 70
     1
102
RTVSPropertyOp51
 70
     0
102
RTVSPropertyOp52
 70
     0
102
RTVSPropertyOp53
 70
     1
102
RTVSPropertyOp54
 70
     1
102
RTVSPropertyOp55
 70
     1
102
RTVSPropertyOp56
 70
     1
102
RTVSPropertyOp57
 70
     1
102
RTVSPost2010Prop28
280
     0
102
RTVSPost2010PropOp28
 70
     1
102
RTVSPost2010Prop29
280
     1
102
RTVSPost2010PropOp29
 70
     1
102
RTVSPost2010Prop30
280
     1
102
RTVSPost2010PropOp30
 70
     1
102
RTVSPost2010Prop31
280
     0
102
RTVSPost2010PropOp31
 70
     1
102
RTVSPost2010Prop32
280
     0
102
RTVSPost2010PropOp32
 70
     1
102
RTVSPost2010Prop33
280
     0
102
RTVSPost2010PropOp33
 70
     1
102
RTVSPost2010Prop34
280
     0
102
RTVSPost2010PropOp34
 70
     1
102
RTVSPost2010Prop35
280
     0
102
RTVSPost2010PropOp35
 70
     1
102
RTVSPost2010Prop36
280
     0
102
RTVSPost2010PropOp36
 70
     1
102
RTVSPost2010Prop37
 90
       50
102
RTVSPost2010PropOp37
 70
     1
102
RTVSPost2010Prop38
140
0.0
102
RTVSPost2010PropOp38
 70
     1
102
RTVSPost2010Prop39
140
1.0
102
RTVSPost2010PropOp39
 70
     1
102
RTVSPost2010Prop40
 90
        0
102
RTVSPost2010PropOp40
 70
     1
102
RTVSPost2010Prop41ColorIndex
 90
       18
102
RTVSPost2010Prop41ColorRGB
 90
        0
102
RTVSPost2010PropOp41
 70
     1
102
RTVSPost2010Prop42
 90
       50
102
RTVSPost2010PropOp42
 70
     1
102
RTVSPost2010Prop43
 90
        3
102
RTVSPost2010PropOp43
 70
     1
102
RTVSPost2010Prop44ColorIndex
 90
        5
102
RTVSPost2010Prop44ColorRGB
 90
      255
102
RTVSPost2010PropOp44
 70
     1
102
RTVSPost2010Prop45
280
     0
102
RTVSPost2010PropOp45
 70
     1
102
RTVSPost2010Prop46
 90
       50
102
RTVSPost2010PropOp46
 70
     1
102
RTVSPost2010Prop47
 90
       50
102
RTVSPost2010PropOp47
 70
     1
102
RTVSPost2010Prop48
 90
       50
102
RTVSPost2010PropOp48
 70
     1
102
RTVSPost2010Prop49
280
     0
102
RTVSPost2010PropOp49
 70
     1
102
RTVSPost2010Prop50
 90
       50
102
RTVSPost2010PropOp50
 70
     1
102
RTVSPost2010Prop51ColorIndex
 90
      256
102
RTVSPost2010Prop51ColorRGB
 90
-16777216
102
RTVSPost2010PropOp51
 70
     0
102
RTVSPost2010Prop52
140
1.0
102
RTVSPost2010PropOp52
 70
     0
102
RTVSPost2010Prop53
 90
        2
102
RTVSPost2010PropOp53
 70
     1
102
RTVSPost2010Prop54
  1
strokes_ogs.tif
102
RTVSPost2010PropOp54
 70
     1
102
RTVSPost2010Prop55
280
     0
102
RTVSPost2010PropOp55
 70
     1
102
RTVSPost2010Prop56
140
1.0
102
RTVSPost2010PropOp56
 70
     1
102
RTVSPost2010Prop57
140
1.0
102
RTVSPost2010PropOp57
 70
     1
  0
XRECORD
  5
6CB
102
{ACAD_REACTORS
330
6CA
102
}
330
6CA
100
AcDbXrecord
280
     1
102
RTVSPropertyOp0
 70
     1
102
RTVSPropertyOp1
 70
     1
102
RTVSPropertyOp2
 70
     1
102
RTVSPropertyOp3
 70
     1
102
RTVSPropertyOp4
 70
     1
102
RTVSPropertyOp5
 70
     1
102
RTVSPropertyOp6
 70
     1
102
RTVSPropertyOp7
 70
     1
102
RTVSPropertyOp8
 70
     1
102
RTVSPropertyOp9
 70
     1
102
RTVSPropertyOp10
 70
     1
102
RTVSPropertyOp11
 70
     1
102
RTVSPropertyOp12
 70
     1
102
RTVSPropertyOp13
 70
     1
102
RTVSPropertyOp14
 70
     1
102
RTVSPropertyOp15
 70
     1
102
RTVSPropertyOp16
 70
     1
102
RTVSPropertyOp17
 70
     1
102
RTVSPropertyOp18
 70
     1
102
RTVSPropertyOp19
 70
     1
102
RTVSPropertyOp20
 70
     1
102
RTVSPropertyOp21
 70
     1
102
RTVSPropertyOp22
 70
     1
102
RTVSPropertyOp23
 70
     1
102
RTVSPropertyOp24
 70
     1
102
RTVSPropertyOp25
 70
     1
102
RTVSPropertyOp26
 70
     1
102
RTVSPropertyOp27
 70
     1
102
RTVSPropertyOp28
 70
     1
102
RTVSPropertyOp29
 70
     1
102
RTVSPropertyOp30
 70
     1
102
RTVSPropertyOp31
 70
     1
102
RTVSPropertyOp32
 70
     1
102
RTVSPropertyOp33
 70
     1
102
RTVSPropertyOp34
 70
     1
102
RTVSPropertyOp35
 70
     1
102
RTVSPropertyOp36
 70
     1
102
RTVSPropertyOp37
 70
     1
102
RTVSPropertyOp38
 70
     1
102
RTVSPropertyOp39
 70
     1
102
RTVSPropertyOp40
 70
     1
102
RTVSPropertyOp41
 70
     1
102
RTVSPropertyOp42
 70
     1
102
RTVSPropertyOp43
 70
     1
102
RTVSPropertyOp44
 70
     1
102
RTVSPropertyOp45
 70
     1
102
RTVSPropertyOp46
 70
     1
102
RTVSPropertyOp47
 70
     1
102
RTVSPropertyOp48
 70
     1
102
RTVSPropertyOp49
 70
     1
102
RTVSPropertyOp50
 70
     1
102
RTVSPropertyOp51
 70
     0
102
RTVSPropertyOp52
 70
     0
102
RTVSPropertyOp53
 70
     1
102
RTVSPropertyOp54
 70
     1
102
RTVSPropertyOp55
 70
     1
102
RTVSPropertyOp56
 70
     1
102
RTVSPropertyOp57
 70
     1
102
RTVSPost2010Prop28
280
     0
102
RTVSPost2010PropOp28
 70
     1
102
RTVSPost2010Prop29
280
     1
102
RTVSPost2010PropOp29
 70
     1
102
RTVSPost2010Prop30
280
     1
102
RTVSPost2010PropOp30
 70
     1
102
RTVSPost2010Prop31
280
     0
102
RTVSPost2010PropOp31
 70
     1
102
RTVSPost2010Prop32
280
     0
102
RTVSPost2010PropOp32
 70
     1
102
RTVSPost2010Prop33
280
     0
102
RTVSPost2010PropOp33
 70
     1
102
RTVSPost2010Prop34
280
     0
102
RTVSPost2010PropOp34
 70
     1
102
RTVSPost2010Prop35
280
     0
102
RTVSPost2010PropOp35
 70
     1
102
RTVSPost2010Prop36
280
     0
102
RTVSPost2010PropOp36
 70
     1
102
RTVSPost2010Prop37
 90
       50
102
RTVSPost2010PropOp37
 70
     1
102
RTVSPost2010Prop38
140
0.0
102
RTVSPost2010PropOp38
 70
     1
102
RTVSPost2010Prop39
140
1.0
102
RTVSPost2010PropOp39
 70
     1
102
RTVSPost2010Prop40
 90
        0
102
RTVSPost2010PropOp40
 70
     1
102
RTVSPost2010Prop41ColorIndex
 90
       18
102
RTVSPost2010Prop41ColorRGB
 90
        0
102
RTVSPost2010PropOp41
 70
     1
102
RTVSPost2010Prop42
 90
       50
102
RTVSPost2010PropOp42
 70
     1
102
RTVSPost2010Prop43
 90
        3
102
RTVSPost2010PropOp43
 70
     1
102
RTVSPost2010Prop44ColorIndex
 90
        5
102
RTVSPost2010Prop44ColorRGB
 90
      255
102
RTVSPost2010PropOp44
 70
     1
102
RTVSPost2010Prop45
280
     0
102
RTVSPost2010PropOp45
 70
     1
102
RTVSPost2010Prop46
 90
       50
102
RTVSPost2010PropOp46
 70
     1
102
RTVSPost2010Prop47
 90
       50
102
RTVSPost2010PropOp47
 70
     1
102
RTVSPost2010Prop48
 90
       50
102
RTVSPost2010PropOp48
 70
     1
102
RTVSPost2010Prop49
280
     0
102
RTVSPost2010PropOp49
 70
     1
102
RTVSPost2010Prop50
 90
       50
102
RTVSPost2010PropOp50
 70
     1
102
RTVSPost2010Prop51ColorIndex
 90
      256
102
RTVSPost2010Prop51ColorRGB
 90
-16777216
102
RTVSPost2010PropOp51
 70
     0
102
RTVSPost2010Prop52
140
1.0
102
RTVSPost2010PropOp52
 70
     0
102
RTVSPost2010Prop53
 90
        2
102
RTVSPost2010PropOp53
 70
     1
102
RTVSPost2010Prop54
  1
strokes_ogs.tif
102
RTVSPost2010PropOp54
 70
     1
102
RTVSPost2010Prop55
280
     0
102
RTVSPost2010PropOp55
 70
     1
102
RTVSPost2010Prop56
140
1.0
102
RTVSPost2010PropOp56
 70
     1
102
RTVSPost2010Prop57
140
1.0
102
RTVSPost2010PropOp57
 70
     1
  0
XRECORD
  5
6C1
102
{ACAD_REACTORS
330
6C0
102
}
330
6C0
100
AcDbXrecord
280
     1
102
RTVSPropertyOp0
 70
     1
102
RTVSPropertyOp1
 70
     1
102
RTVSPropertyOp2
 70
     1
102
RTVSPropertyOp3
 70
     1
102
RTVSPropertyOp4
 70
     1
102
RTVSPropertyOp5
 70
     1
102
RTVSPropertyOp6
 70
     1
102
RTVSPropertyOp7
 70
     1
102
RTVSPropertyOp8
 70
     1
102
RTVSPropertyOp9
 70
     1
102
RTVSPropertyOp10
 70
     1
102
RTVSPropertyOp11
 70
     1
102
RTVSPropertyOp12
 70
     1
102
RTVSPropertyOp13
 70
     1
102
RTVSPropertyOp14
 70
     1
102
RTVSPropertyOp15
 70
     1
102
RTVSPropertyOp16
 70
     1
102
RTVSPropertyOp17
 70
     1
102
RTVSPropertyOp18
 70
     1
102
RTVSPropertyOp19
 70
     1
102
RTVSPropertyOp20
 70
     1
102
RTVSPropertyOp21
 70
     1
102
RTVSPropertyOp22
 70
     1
102
RTVSPropertyOp23
 70
     1
102
RTVSPropertyOp24
 70
     1
102
RTVSPropertyOp25
 70
     1
102
RTVSPropertyOp26
 70
     1
102
RTVSPropertyOp27
 70
     1
102
RTVSPropertyOp28
 70
     1
102
RTVSPropertyOp29
 70
     1
102
RTVSPropertyOp30
 70
     1
102
RTVSPropertyOp31
 70
     1
102
RTVSPropertyOp32
 70
     1
102
RTVSPropertyOp33
 70
     1
102
RTVSPropertyOp34
 70
     1
102
RTVSPropertyOp35
 70
     1
102
RTVSPropertyOp36
 70
     1
102
RTVSPropertyOp37
 70
     1
102
RTVSPropertyOp38
 70
     1
102
RTVSPropertyOp39
 70
     1
102
RTVSPropertyOp40
 70
     1
102
RTVSPropertyOp41
 70
     1
102
RTVSPropertyOp42
 70
     1
102
RTVSPropertyOp43
 70
     1
102
RTVSPropertyOp44
 70
     1
102
RTVSPropertyOp45
 70
     1
102
RTVSPropertyOp46
 70
     1
102
RTVSPropertyOp47
 70
     1
102
RTVSPropertyOp48
 70
     1
102
RTVSPropertyOp49
 70
     1
102
RTVSPropertyOp50
 70
     1
102
RTVSPropertyOp51
 70
     0
102
RTVSPropertyOp52
 70
     0
102
RTVSPropertyOp53
 70
     1
102
RTVSPropertyOp54
 70
     1
102
RTVSPropertyOp55
 70
     1
102
RTVSPropertyOp56
 70
     1
102
RTVSPropertyOp57
 70
     1
102
RTVSPost2010Prop28
280
     0
102
RTVSPost2010PropOp28
 70
     1
102
RTVSPost2010Prop29
280
     1
102
RTVSPost2010PropOp29
 70
     1
102
RTVSPost2010Prop30
280
     1
102
RTVSPost2010PropOp30
 70
     1
102
RTVSPost2010Prop31
280
     0
102
RTVSPost2010PropOp31
 70
     1
102
RTVSPost2010Prop32
280
     0
102
RTVSPost2010PropOp32
 70
     1
102
RTVSPost2010Prop33
280
     0
102
RTVSPost2010PropOp33
 70
     1
102
RTVSPost2010Prop34
280
     0
102
RTVSPost2010PropOp34
 70
     1
102
RTVSPost2010Prop35
280
     0
102
RTVSPost2010PropOp35
 70
     1
102
RTVSPost2010Prop36
280
     0
102
RTVSPost2010PropOp36
 70
     1
102
RTVSPost2010Prop37
 90
       50
102
RTVSPost2010PropOp37
 70
     1
102
RTVSPost2010Prop38
140
0.0
102
RTVSPost2010PropOp38
 70
     1
102
RTVSPost2010Prop39
140
1.0
102
RTVSPost2010PropOp39
 70
     1
102
RTVSPost2010Prop40
 90
        0
102
RTVSPost2010PropOp40
 70
     1
102
RTVSPost2010Prop41ColorIndex
 90
       18
102
RTVSPost2010Prop41ColorRGB
 90
        0
102
RTVSPost2010PropOp41
 70
     1
102
RTVSPost2010Prop42
 90
       50
102
RTVSPost2010PropOp42
 70
     1
102
RTVSPost2010Prop43
 90
        3
102
RTVSPost2010PropOp43
 70
     1
102
RTVSPost2010Prop44ColorIndex
 90
        5
102
RTVSPost2010Prop44ColorRGB
 90
      255
102
RTVSPost2010PropOp44
 70
     1
102
RTVSPost2010Prop45
280
     0
102
RTVSPost2010PropOp45
 70
     1
102
RTVSPost2010Prop46
 90
       50
102
RTVSPost2010PropOp46
 70
     1
102
RTVSPost2010Prop47
 90
       50
102
RTVSPost2010PropOp47
 70
     1
102
RTVSPost2010Prop48
 90
       50
102
RTVSPost2010PropOp48
 70
     1
102
RTVSPost2010Prop49
280
     0
102
RTVSPost2010PropOp49
 70
     1
102
RTVSPost2010Prop50
 90
       50
102
RTVSPost2010PropOp50
 70
     1
102
RTVSPost2010Prop51ColorIndex
 90
      256
102
RTVSPost2010Prop51ColorRGB
 90
-16777216
102
RTVSPost2010PropOp51
 70
     0
102
RTVSPost2010Prop52
140
1.0
102
RTVSPost2010PropOp52
 70
     0
102
RTVSPost2010Prop53
 90
        2
102
RTVSPost2010PropOp53
 70
     1
102
RTVSPost2010Prop54
  1
strokes_ogs.tif
102
RTVSPost2010PropOp54
 70
     1
102
RTVSPost2010Prop55
280
     0
102
RTVSPost2010PropOp55
 70
     1
102
RTVSPost2010Prop56
140
1.0
102
RTVSPost2010PropOp56
 70
     1
102
RTVSPost2010Prop57
140
1.0
102
RTVSPost2010PropOp57
 70
     1
  0
XRECORD
  5
6C9
102
{ACAD_REACTORS
330
6C8
102
}
330
6C8
100
AcDbXrecord
280
     1
102
RTVSPropertyOp0
 70
     1
102
RTVSPropertyOp1
 70
     1
102
RTVSPropertyOp2
 70
     1
102
RTVSPropertyOp3
 70
     1
102
RTVSPropertyOp4
 70
     1
102
RTVSPropertyOp5
 70
     1
102
RTVSPropertyOp6
 70
     1
102
RTVSPropertyOp7
 70
     1
102
RTVSPropertyOp8
 70
     1
102
RTVSPropertyOp9
 70
     1
102
RTVSPropertyOp10
 70
     1
102
RTVSPropertyOp11
 70
     1
102
RTVSPropertyOp12
 70
     1
102
RTVSPropertyOp13
 70
     1
102
RTVSPropertyOp14
 70
     1
102
RTVSPropertyOp15
 70
     1
102
RTVSPropertyOp16
 70
     1
102
RTVSPropertyOp17
 70
     1
102
RTVSPropertyOp18
 70
     1
102
RTVSPropertyOp19
 70
     1
102
RTVSPropertyOp20
 70
     1
102
RTVSPropertyOp21
 70
     1
102
RTVSPropertyOp22
 70
     1
102
RTVSPropertyOp23
 70
     1
102
RTVSPropertyOp24
 70
     1
102
RTVSPropertyOp25
 70
     1
102
RTVSPropertyOp26
 70
     1
102
RTVSPropertyOp27
 70
     1
102
RTVSPropertyOp28
 70
     1
102
RTVSPropertyOp29
 70
     1
102
RTVSPropertyOp30
 70
     1
102
RTVSPropertyOp31
 70
     1
102
RTVSPropertyOp32
 70
     1
102
RTVSPropertyOp33
 70
     1
102
RTVSPropertyOp34
 70
     1
102
RTVSPropertyOp35
 70
     1
102
RTVSPropertyOp36
 70
     1
102
RTVSPropertyOp37
 70
     1
102
RTVSPropertyOp38
 70
     1
102
RTVSPropertyOp39
 70
     1
102
RTVSPropertyOp40
 70
     1
102
RTVSPropertyOp41
 70
     1
102
RTVSPropertyOp42
 70
     1
102
RTVSPropertyOp43
 70
     1
102
RTVSPropertyOp44
 70
     1
102
RTVSPropertyOp45
 70
     1
102
RTVSPropertyOp46
 70
     1
102
RTVSPropertyOp47
 70
     1
102
RTVSPropertyOp48
 70
     1
102
RTVSPropertyOp49
 70
     1
102
RTVSPropertyOp50
 70
     1
102
RTVSPropertyOp51
 70
     0
102
RTVSPropertyOp52
 70
     0
102
RTVSPropertyOp53
 70
     1
102
RTVSPropertyOp54
 70
     1
102
RTVSPropertyOp55
 70
     1
102
RTVSPropertyOp56
 70
     1
102
RTVSPropertyOp57
 70
     1
102
RTVSPost2010Prop28
280
     0
102
RTVSPost2010PropOp28
 70
     1
102
RTVSPost2010Prop29
280
     1
102
RTVSPost2010PropOp29
 70
     1
102
RTVSPost2010Prop30
280
     1
102
RTVSPost2010PropOp30
 70
     1
102
RTVSPost2010Prop31
280
     0
102
RTVSPost2010PropOp31
 70
     1
102
RTVSPost2010Prop32
280
     0
102
RTVSPost2010PropOp32
 70
     1
102
RTVSPost2010Prop33
280
     0
102
RTVSPost2010PropOp33
 70
     1
102
RTVSPost2010Prop34
280
     0
102
RTVSPost2010PropOp34
 70
     1
102
RTVSPost2010Prop35
280
     0
102
RTVSPost2010PropOp35
 70
     1
102
RTVSPost2010Prop36
280
     0
102
RTVSPost2010PropOp36
 70
     1
102
RTVSPost2010Prop37
 90
       50
102
RTVSPost2010PropOp37
 70
     1
102
RTVSPost2010Prop38
140
0.0
102
RTVSPost2010PropOp38
 70
     1
102
RTVSPost2010Prop39
140
1.0
102
RTVSPost2010PropOp39
 70
     1
102
RTVSPost2010Prop40
 90
        0
102
RTVSPost2010PropOp40
 70
     1
102
RTVSPost2010Prop41ColorIndex
 90
       18
102
RTVSPost2010Prop41ColorRGB
 90
        0
102
RTVSPost2010PropOp41
 70
     1
102
RTVSPost2010Prop42
 90
       50
102
RTVSPost2010PropOp42
 70
     1
102
RTVSPost2010Prop43
 90
        3
102
RTVSPost2010PropOp43
 70
     1
102
RTVSPost2010Prop44ColorIndex
 90
        5
102
RTVSPost2010Prop44ColorRGB
 90
      255
102
RTVSPost2010PropOp44
 70
     1
102
RTVSPost2010Prop45
280
     0
102
RTVSPost2010PropOp45
 70
     1
102
RTVSPost2010Prop46
 90
       50
102
RTVSPost2010PropOp46
 70
     1
102
RTVSPost2010Prop47
 90
       50
102
RTVSPost2010PropOp47
 70
     1
102
RTVSPost2010Prop48
 90
       50
102
RTVSPost2010PropOp48
 70
     1
102
RTVSPost2010Prop49
280
     0
102
RTVSPost2010PropOp49
 70
     1
102
RTVSPost2010Prop50
 90
       50
102
RTVSPost2010PropOp50
 70
     1
102
RTVSPost2010Prop51ColorIndex
 90
      256
102
RTVSPost2010Prop51ColorRGB
 90
-16777216
102
RTVSPost2010PropOp51
 70
     0
102
RTVSPost2010Prop52
140
1.0
102
RTVSPost2010PropOp52
 70
     0
102
RTVSPost2010Prop53
 90
        2
102
RTVSPost2010PropOp53
 70
     1
102
RTVSPost2010Prop54
  1
strokes_ogs.tif
102
RTVSPost2010PropOp54
 70
     1
102
RTVSPost2010Prop55
280
     0
102
RTVSPost2010PropOp55
 70
     1
102
RTVSPost2010Prop56
140
1.0
102
RTVSPost2010PropOp56
 70
     1
102
RTVSPost2010Prop57
140
1.0
102
RTVSPost2010PropOp57
 70
     1
  0
ENDSEC
  0
EOF
