  0
SECTION
  2
HEADER
  9
$ACADVER
  1
AC1018
  9
$ACADMAINTVER
 70
     0
  9
$DWGCODEPAGE
  3
ANSI_936
  9
$INSBASE
 10
0.0
 20
0.0
 30
0.0
  9
$EXTMIN
 10
350.5350335305492
 20
65.99999999999987
 30
0.0
  9
$EXTMAX
 10
567.1773214569109
 20
126.6916961341364
 30
0.0
  9
$LIMMIN
 10
0.0
 20
0.0
  9
$LIMMAX
 10
12.0
 20
9.0
  9
$ORTHOMODE
 70
     0
  9
$REGENMODE
 70
     1
  9
$FILLMODE
 70
     1
  9
$QTEXTMODE
 70
     0
  9
$MIRRTEXT
 70
     1
  9
$LTSCALE
 40
1.0
  9
$ATTMODE
 70
     1
  9
$TEXTSIZE
 40
0.2
  9
$TRACEWID
 40
0.05
  9
$TEXTSTYLE
  7
Standard
  9
$CLAYER
  8
0
  9
$CELTYPE
  6
ByLayer
  9
$CECOLOR
 62
   256
  9
$CELTSCALE
 40
1.0
  9
$DISPSILH
 70
     0
  9
$DIMSCALE
 40
1.0
  9
$DIMASZ
 40
0.18
  9
$DIMEXO
 40
0.0625
  9
$DIMDLI
 40
0.38
  9
$DIMRND
 40
0.0
  9
$DIMDLE
 40
0.0
  9
$DIMEXE
 40
0.18
  9
$DIMTP
 40
0.0
  9
$DIMTM
 40
0.0
  9
$DIMTXT
 40
0.18
  9
$DIMCEN
 40
0.09
  9
$DIMTSZ
 40
0.0
  9
$DIMTOL
 70
     0
  9
$DIMLIM
 70
     0
  9
$DIMTIH
 70
     1
  9
$DIMTOH
 70
     1
  9
$DIMSE1
 70
     0
  9
$DIMSE2
 70
     0
  9
$DIMTAD
 70
     0
  9
$DIMZIN
 70
     0
  9
$DIMBLK
  1

  9
$DIMASO
 70
     1
  9
$DIMSHO
 70
     1
  9
$DIMPOST
  1

  9
$DIMAPOST
  1

  9
$DIMALT
 70
     0
  9
$DIMALTD
 70
     2
  9
$DIMALTF
 40
25.4
  9
$DIMLFAC
 40
1.0
  9
$DIMTOFL
 70
     0
  9
$DIMTVP
 40
0.0
  9
$DIMTIX
 70
     0
  9
$DIMSOXD
 70
     0
  9
$DIMSAH
 70
     0
  9
$DIMBLK1
  1

  9
$DIMBLK2
  1

  9
$DIMSTYLE
  2
Standard
  9
$DIMCLRD
 70
     0
  9
$DIMCLRE
 70
     0
  9
$DIMCLRT
 70
     0
  9
$DIMTFAC
 40
1.0
  9
$DIMGAP
 40
0.09
  9
$DIMJUST
 70
     0
  9
$DIMSD1
 70
     0
  9
$DIMSD2
 70
     0
  9
$DIMTOLJ
 70
     1
  9
$DIMTZIN
 70
     0
  9
$DIMALTZ
 70
     0
  9
$DIMALTTZ
 70
     0
  9
$DIMUPT
 70
     0
  9
$DIMDEC
 70
     4
  9
$DIMTDEC
 70
     4
  9
$DIMALTU
 70
     2
  9
$DIMALTTD
 70
     2
  9
$DIMTXSTY
  7
Standard
  9
$DIMAUNIT
 70
     0
  9
$DIMADEC
 70
     0
  9
$DIMALTRND
 40
0.0
  9
$DIMAZIN
 70
     0
  9
$DIMDSEP
 70
    46
  9
$DIMATFIT
 70
     3
  9
$DIMFRAC
 70
     0
  9
$DIMLDRBLK
  1

  9
$DIMLUNIT
 70
     2
  9
$DIMLWD
 70
    -2
  9
$DIMLWE
 70
    -2
  9
$DIMTMOVE
 70
     2
  9
$LUNITS
 70
     2
  9
$LUPREC
 70
     2
  9
$SKETCHINC
 40
0.1
  9
$FILLETRAD
 40
0.5
  9
$AUNITS
 70
     0
  9
$AUPREC
 70
     0
  9
$MENU
  1
.
  9
$ELEVATION
 40
0.0
  9
$PELEVATION
 40
0.0
  9
$THICKNESS
 40
0.0
  9
$LIMCHECK
 70
     0
  9
$CHAMFERA
 40
0.5
  9
$CHAMFERB
 40
0.5
  9
$CHAMFERC
 40
1.0
  9
$CHAMFERD
 40
0.0
  9
$SKPOLY
 70
     0
  9
$TDCREATE
 40
2456720.830586493
  9
$TDUCREATE
 40
2456720.49725316
  9
$TDUPDATE
 40
2456720.830588252
  9
$TDUUPDATE
 40
2456720.497254919
  9
$TDINDWG
 40
0.0000000116
  9
$TDUSRTIMER
 40
0.0000000116
  9
$USRTIMER
 70
     1
  9
$ANGBASE
 50
0.0
  9
$ANGDIR
 70
     0
  9
$PDMODE
 70
     0
  9
$PDSIZE
 40
0.0
  9
$PLINEWID
 40
0.0
  9
$SPLFRAME
 70
     0
  9
$SPLINETYPE
 70
     6
  9
$SPLINESEGS
 70
     8
  9
$HANDSEED
  5
4B4
  9
$SURFTAB1
 70
     6
  9
$SURFTAB2
 70
     6
  9
$SURFTYPE
 70
     6
  9
$SURFU
 70
     6
  9
$SURFV
 70
     6
  9
$UCSBASE
  2

  9
$UCSNAME
  2

  9
$UCSORG
 10
0.0
 20
0.0
 30
0.0
  9
$UCSXDIR
 10
1.0
 20
0.0
 30
0.0
  9
$UCSYDIR
 10
0.0
 20
1.0
 30
0.0
  9
$UCSORTHOREF
  2

  9
$UCSORTHOVIEW
 70
     0
  9
$UCSORGTOP
 10
0.0
 20
0.0
 30
0.0
  9
$UCSORGBOTTOM
 10
0.0
 20
0.0
 30
0.0
  9
$UCSORGLEFT
 10
0.0
 20
0.0
 30
0.0
  9
$UCSORGRIGHT
 10
0.0
 20
0.0
 30
0.0
  9
$UCSORGFRONT
 10
0.0
 20
0.0
 30
0.0
  9
$UCSORGBACK
 10
0.0
 20
0.0
 30
0.0
  9
$PUCSBASE
  2

  9
$PUCSNAME
  2

  9
$PUCSORG
 10
0.0
 20
0.0
 30
0.0
  9
$PUCSXDIR
 10
1.0
 20
0.0
 30
0.0
  9
$PUCSYDIR
 10
0.0
 20
1.0
 30
0.0
  9
$PUCSORTHOREF
  2

  9
$PUCSORTHOVIEW
 70
     0
  9
$PUCSORGTOP
 10
0.0
 20
0.0
 30
0.0
  9
$PUCSORGBOTTOM
 10
0.0
 20
0.0
 30
0.0
  9
$PUCSORGLEFT
 10
0.0
 20
0.0
 30
0.0
  9
$PUCSORGRIGHT
 10
0.0
 20
0.0
 30
0.0
  9
$PUCSORGFRONT
 10
0.0
 20
0.0
 30
0.0
  9
$PUCSORGBACK
 10
0.0
 20
0.0
 30
0.0
  9
$USERI1
 70
     0
  9
$USERI2
 70
     0
  9
$USERI3
 70
     0
  9
$USERI4
 70
     0
  9
$USERI5
 70
     0
  9
$USERR1
 40
0.0
  9
$USERR2
 40
0.0
  9
$USERR3
 40
0.0
  9
$USERR4
 40
0.0
  9
$USERR5
 40
0.0
  9
$WORLDVIEW
 70
     1
  9
$SHADEDGE
 70
     3
  9
$SHADEDIF
 70
    70
  9
$TILEMODE
 70
     1
  9
$MAXACTVP
 70
    64
  9
$PINSBASE
 10
0.0
 20
0.0
 30
0.0
  9
$PLIMCHECK
 70
     0
  9
$PEXTMIN
 10
1.000000000000000E+20
 20
1.000000000000000E+20
 30
1.000000000000000E+20
  9
$PEXTMAX
 10
-1.000000000000000E+20
 20
-1.000000000000000E+20
 30
-1.000000000000000E+20
  9
$PLIMMIN
 10
0.0
 20
0.0
  9
$PLIMMAX
 10
12.0
 20
9.0
  9
$UNITMODE
 70
     0
  9
$VISRETAIN
 70
     1
  9
$PLINEGEN
 70
     0
  9
$PSLTSCALE
 70
     1
  9
$TREEDEPTH
 70
  3020
  9
$CMLSTYLE
  2
Standard
  9
$CMLJUST
 70
     0
  9
$CMLSCALE
 40
1.0
  9
$PROXYGRAPHICS
 70
     1
  9
$MEASUREMENT
 70
     0
  9
$CELWEIGHT
370
    -1
  9
$ENDCAPS
280
     0
  9
$JOINSTYLE
280
     0
  9
$LWDISPLAY
290
     0
  9
$INSUNITS
 70
     4
  9
$HYPERLINKBASE
  1

  9
$STYLESHEET
  1

  9
$XEDIT
290
     1
  9
$CEPSNTYPE
380
     0
  9
$PSTYLEMODE
290
     1
  9
$FINGERPRINTGUID
  2
{5F237EA8-1789-43AB-9E8D-43AF9F55ED95}
  9
$VERSIONGUID
  2
{FAEB1C32-E019-11D5-929B-00C0DF256EC4}
  9
$EXTNAMES
290
     1
  9
$PSVPSCALE
 40
0.0
  9
$OLESTARTUP
290
     0
  9
$SORTENTS
280
   127
  9
$INDEXCTL
280
     0
  9
$HIDETEXT
280
     1
  9
$XCLIPFRAME
290
     0
  9
$HALOGAP
280
     0
  9
$OBSCOLOR
 70
   257
  9
$OBSLTYPE
280
     0
  9
$INTERSECTIONDISPLAY
280
     0
  9
$INTERSECTIONCOLOR
 70
   257
  9
$DIMASSOC
280
     2
  9
$PROJECTNAME
  1

  0
ENDSEC
  0
SECTION
  2
CLASSES
  0
CLASS
  1
ACDBDICTIONARYWDFLT
  2
AcDbDictionaryWithDefault
  3
ObjectDBX Classes
 90
        0
 91
        4
280
     0
281
     0
  0
CLASS
  1
VISUALSTYLE
  2
AcDbVisualStyle
  3
ObjectDBX Classes
 90
     4095
 91
        4
280
     0
281
     0
  0
CLASS
  1
MATERIAL
  2
AcDbMaterial
  3
ObjectDBX Classes
 90
     1153
 91
        4
280
     0
281
     0
  0
CLASS
  1
SCALE
  2
AcDbScale
  3
ObjectDBX Classes
 90
     1153
 91
        4
280
     0
281
     0
  0
CLASS
  1
SUN
  2
AcDbSun
  3
SCENEOE
 90
     1153
 91
        4
280
     0
281
     0
  0
CLASS
  1
DICTIONARYVAR
  2
AcDbDictionaryVar
  3
ObjectDBX Classes
 90
        0
 91
        4
280
     0
281
     0
  0
ENDSEC
  0
SECTION
  2
TABLES
  0
TABLE
  2
VPORT
  5
8
330
0
100
AcDbSymbolTable
 70
     1
  0
VPORT
  5
29
330
8
100
AcDbSymbolTableRecord
100
AcDbViewportTableRecord
  2
*Active
 70
     0
 10
0.0
 20
0.0
 11
1.0
 21
1.0
 12
458.8587926977472
 22
96.3612044065799
 13
0.0
 23
0.0
 14
0.5
 24
0.5
 15
0.5
 25
0.5
 16
0.0
 26
0.0
 36
1.0
 17
0.0
 27
0.0
 37
0.0
 40
61.86353309182543
 41
3.571891025698511
 42
50.0
 43
0.0
 44
0.0
 50
0.0
 51
0.0
 71
     0
 72
   100
 73
     1
 74
     3
 75
     0
 76
     0
 77
     0
 78
     0
281
     0
 65
     1
110
0.0
120
0.0
130
0.0
111
1.0
121
0.0
131
0.0
112
0.0
122
1.0
132
0.0
 79
     0
146
0.0
  0
ENDTAB
  0
TABLE
  2
LTYPE
  5
5
330
0
100
AcDbSymbolTable
 70
     1
  0
LTYPE
  5
14
330
5
100
AcDbSymbolTableRecord
100
AcDbLinetypeTableRecord
  2
ByBlock
 70
     0
  3

 72
    65
 73
     0
 40
0.0
  0
LTYPE
  5
15
330
5
100
AcDbSymbolTableRecord
100
AcDbLinetypeTableRecord
  2
ByLayer
 70
     0
  3

 72
    65
 73
     0
 40
0.0
  0
LTYPE
  5
16
330
5
100
AcDbSymbolTableRecord
100
AcDbLinetypeTableRecord
  2
Continuous
 70
     0
  3
Solid line
 72
    65
 73
     0
 40
0.0
  0
ENDTAB
  0
TABLE
  2
LAYER
  5
2
330
0
100
AcDbSymbolTable
 70
     2
  0
LAYER
  5
10
330
2
100
AcDbSymbolTableRecord
100
AcDbLayerTableRecord
  2
0
 70
     0
 62
     7
  6
Continuous
370
    -3
390
F
  0
LAYER
  5
62
330
2
100
AcDbSymbolTableRecord
100
AcDbLayerTableRecord
  2
Make2D$可见线$普通线
 70
     0
 62
    18
420
        0
  6
Continuous
370
    -3
390
F
  0
ENDTAB
  0
TABLE
  2
STYLE
  5
3
330
0
100
AcDbSymbolTable
 70
     1
  0
STYLE
  5
11
330
3
100
AcDbSymbolTableRecord
100
AcDbTextStyleTableRecord
  2
Standard
 70
     0
 40
0.0
 41
1.0
 50
0.0
 71
     0
 42
0.2
  3
txt
  4

  0
ENDTAB
  0
TABLE
  2
VIEW
  5
6
330
0
100
AcDbSymbolTable
 70
     0
  0
ENDTAB
  0
TABLE
  2
UCS
  5
7
330
0
100
AcDbSymbolTable
 70
     0
  0
ENDTAB
  0
TABLE
  2
APPID
  5
9
330
0
100
AcDbSymbolTable
 70
     1
  0
APPID
  5
12
330
9
100
AcDbSymbolTableRecord
100
AcDbRegAppTableRecord
  2
ACAD
 70
     0
  0
ENDTAB
  0
TABLE
  2
DIMSTYLE
  5
A
330
0
100
AcDbSymbolTable
 70
     1
100
AcDbDimStyleTable
  0
DIMSTYLE
105
27
330
A
100
AcDbSymbolTableRecord
100
AcDbDimStyleTableRecord
  2
Standard
 70
     0
178
     0
340
11
  0
ENDTAB
  0
TABLE
  2
BLOCK_RECORD
  5
1
330
0
100
AcDbSymbolTable
 70
     1
  0
BLOCK_RECORD
  5
1F
330
1
100
AcDbSymbolTableRecord
100
AcDbBlockTableRecord
  2
*Model_Space
340
22
  0
BLOCK_RECORD
  5
1B
330
1
100
AcDbSymbolTableRecord
100
AcDbBlockTableRecord
  2
*Paper_Space
340
1E
  0
BLOCK_RECORD
  5
23
330
1
100
AcDbSymbolTableRecord
100
AcDbBlockTableRecord
  2
*Paper_Space0
340
26
  0
ENDTAB
  0
ENDSEC
  0
SECTION
  2
BLOCKS
  0
BLOCK
  5
20
330
1F
100
AcDbEntity
  8
0
100
AcDbBlockBegin
  2
*Model_Space
 70
     0
 10
0.0
 20
0.0
 30
0.0
  3
*Model_Space
  1
*Model_Space
  0
ENDBLK
  5
21
330
1F
100
AcDbEntity
  8
0
100
AcDbBlockEnd
  0
BLOCK
  5
1C
330
1B
100
AcDbEntity
 67
     1
  8
0
100
AcDbBlockBegin
  2
*Paper_Space
 70
     0
 10
0.0
 20
0.0
 30
0.0
  3
*Paper_Space
  1
*Paper_Space
  0
ENDBLK
  5
1D
330
1B
100
AcDbEntity
 67
     1
  8
0
100
AcDbBlockEnd
  0
BLOCK
  5
24
330
23
100
AcDbEntity
  8
0
100
AcDbBlockBegin
  2
*Paper_Space0
 70
     0
 10
0.0
 20
0.0
 30
0.0
  3
*Paper_Space0
  1
*Paper_Space0
  0
ENDBLK
  5
25
330
23
100
AcDbEntity
  8
0
100
AcDbBlockEnd
  0
ENDSEC
  0
SECTION
  2
ENTITIES
  0
LINE
  5
63
330
1F
100
AcDbEntity
  8
Make2D$可见线$普通线
100
AcDbLine
 10
366.3323913482662
 20
108.880468458045
 30
0.0
 11
366.2840379080365
 21
108.8300761436357
 31
0.0
  0
ARC
  5
64
330
1F
100
AcDbEntity
  8
Make2D$可见线$普通线
100
AcDbCircle
 10
408.3556401756249
 20
72.33333253594616
 30
0.0
 40
1.999999194502063
100
AcDbArc
 50
224.799725378265
 51
327.8243862162419
  0
ARC
  5
65
330
1F
100
AcDbEntity
  8
Make2D$可见线$普通线
100
AcDbCircle
 10
408.355640261388
 20
115.6641725428963
 30
0.0
 40
1.999999394050186
100
AcDbArc
 50
32.26642523871913
 51
135.1094631485948
  0
POLYLINE
  5
66
330
1F
100
AcDbEntity
  8
Make2D$可见线$普通线
100
AcDb2dPolyline
 66
     1
 10
0.0
 20
0.0
 30
0.0
  0
VERTEX
  5
67
330
66
100
AcDbEntity
  8
Make2D$可见线$普通线
100
AcDbVertex
100
AcDb2dVertex
 10
392.661812869445
 20
69.34509191471597
 30
0.0
  0
VERTEX
  5
68
330
66
100
AcDbEntity
  8
Make2D$可见线$普通线
100
AcDbVertex
100
AcDb2dVertex
 10
471.0459232305587
 20
78.01547275243604
 30
0.0
 42
0.3823026158725993
  0
VERTEX
  5
69
330
66
100
AcDbEntity
  8
Make2D$可见线$普通线
100
AcDbVertex
100
AcDb2dVertex
 10
479.9464887156219
 20
87.95485119111945
 30
0.0
  0
VERTEX
  5
6A
330
66
100
AcDbEntity
  8
Make2D$可见线$普通线
100
AcDbVertex
100
AcDb2dVertex
 10
479.9464887156221
 20
100.0451488088798
 30
0.0
 42
0.3823026158725932
  0
VERTEX
  5
6B
330
66
100
AcDbEntity
  8
Make2D$可见线$普通线
100
AcDbVertex
100
AcDb2dVertex
 10
471.0459232305587
 20
109.9845272475633
 30
0.0
  0
VERTEX
  5
6C
330
66
100
AcDbEntity
  8
Make2D$可见线$普通线
100
AcDbVertex
100
AcDb2dVertex
 10
392.6618128694449
 20
118.6549080852833
 30
0.0
 42
1.181894719826314
  0
VERTEX
  5
6D
330
66
100
AcDbEntity
  8
Make2D$可见线$普通线
100
AcDbVertex
100
AcDb2dVertex
 10
392.661812869445
 20
69.34509191471594
 30
0.0
  0
SEQEND
  5
6E
330
66
100
AcDbEntity
  8
Make2D$可见线$普通线
  0
POLYLINE
  5
6F
330
1F
100
AcDbEntity
  8
Make2D$可见线$普通线
100
AcDb2dPolyline
 66
     1
 10
0.0
 20
0.0
 30
0.0
  0
VERTEX
  5
70
330
6F
100
AcDbEntity
  8
Make2D$可见线$普通线
100
AcDbVertex
100
AcDb2dVertex
 10
369.3027961273143
 20
112.8340797928552
 30
0.0
  0
VERTEX
  5
71
330
6F
100
AcDbEntity
  8
Make2D$可见线$普通线
100
AcDbVertex
100
AcDb2dVertex
 10
353.8433373964123
 20
126.2044224790408
 30
0.0
 42
0.9999999999999983
  0
VERTEX
  5
72
330
6F
100
AcDbEntity
  8
Make2D$可见线$普通线
100
AcDbVertex
100
AcDb2dVertex
 10
351.2267296646861
 20
123.178969789232
 30
0.0
  0
VERTEX
  5
73
330
6F
100
AcDbEntity
  8
Make2D$可见线$普通线
100
AcDbVertex
100
AcDb2dVertex
 10
366.828036147161
 20
109.6859479665511
 30
0.0
  0
SEQEND
  5
74
330
6F
100
AcDbEntity
  8
Make2D$可见线$普通线
  0
POLYLINE
  5
75
330
1F
100
AcDbEntity
  8
Make2D$可见线$普通线
100
AcDb2dPolyline
 66
     1
 10
0.0
 20
0.0
 30
0.0
  0
VERTEX
  5
76
330
75
100
AcDbEntity
  8
Make2D$可见线$普通线
100
AcDbVertex
100
AcDb2dVertex
 10
389.9419557055165
 20
88.73379418302078
 30
0.0
  0
VERTEX
  5
77
330
75
100
AcDbEntity
  8
Make2D$可见线$普通线
100
AcDbVertex
100
AcDb2dVertex
 10
389.9419557055166
 20
88.64474447562633
 30
0.0
  0
VERTEX
  5
78
330
75
100
AcDbEntity
  8
Make2D$可见线$普通线
100
AcDbVertex
100
AcDb2dVertex
 10
390.3177584297821
 20
88.65001333994518
 30
0.0
  0
VERTEX
  5
79
330
75
100
AcDbEntity
  8
Make2D$可见线$普通线
100
AcDbVertex
100
AcDb2dVertex
 10
390.3176898411293
 20
88.80280343630317
 30
0.0
  0
VERTEX
  5
7A
330
75
100
AcDbEntity
  8
Make2D$可见线$普通线
100
AcDbVertex
100
AcDb2dVertex
 10
390.2989193727277
 20
88.88636849262956
 30
0.0
  0
VERTEX
  5
7B
330
75
100
AcDbEntity
  8
Make2D$可见线$普通线
100
AcDbVertex
100
AcDb2dVertex
 10
390.2542728037307
 20
88.96382582703778
 30
0.0
  0
VERTEX
  5
7C
330
75
100
AcDbEntity
  8
Make2D$可见线$普通线
100
AcDbVertex
100
AcDb2dVertex
 10
390.198912293308
 20
89.00476458552178
 30
0.0
  0
VERTEX
  5
7D
330
75
100
AcDbEntity
  8
Make2D$可见线$普通线
100
AcDbVertex
100
AcDb2dVertex
 10
390.1415913302122
 20
89.01255701819899
 30
0.0
  0
VERTEX
  5
7E
330
75
100
AcDbEntity
  8
Make2D$可见线$普通线
100
AcDbVertex
100
AcDb2dVertex
 10
390.0550212147733
 20
89.00832334726464
 30
0.0
  0
VERTEX
  5
7F
330
75
100
AcDbEntity
  8
Make2D$可见线$普通线
100
AcDbVertex
100
AcDb2dVertex
 10
390.0054973178031
 20
88.97653877834351
 30
0.0
  0
VERTEX
  5
80
330
75
100
AcDbEntity
  8
Make2D$可见线$普通线
100
AcDbVertex
100
AcDb2dVertex
 10
389.9716292883176
 20
88.92357396691487
 30
0.0
  0
VERTEX
  5
81
330
75
100
AcDbEntity
  8
Make2D$可见线$普通线
100
AcDbVertex
100
AcDb2dVertex
 10
389.9513136126631
 20
88.83512226679157
 30
0.0
  0
VERTEX
  5
82
330
75
100
AcDbEntity
  8
Make2D$可见线$普通线
100
AcDbVertex
100
AcDb2dVertex
 10
389.9419557055165
 20
88.73379418302078
 30
0.0
  0
SEQEND
  5
83
330
75
100
AcDbEntity
  8
Make2D$可见线$普通线
  0
POLYLINE
  5
84
330
1F
100
AcDbEntity
  8
Make2D$可见线$普通线
100
AcDb2dPolyline
 66
     1
 10
0.0
 20
0.0
 30
0.0
  0
VERTEX
  5
85
330
84
100
AcDbEntity
  8
Make2D$可见线$普通线
100
AcDbVertex
100
AcDb2dVertex
 10
390.4473099160978
 20
88.65102467585085
 30
0.0
  0
VERTEX
  5
86
330
84
100
AcDbEntity
  8
Make2D$可见线$普通线
100
AcDbVertex
100
AcDb2dVertex
 10
390.9102579696859
 20
88.65751757308054
 30
0.0
  0
VERTEX
  5
87
330
84
100
AcDbEntity
  8
Make2D$可见线$普通线
100
AcDbVertex
100
AcDb2dVertex
 10
390.9104177768062
 20
88.51935699501745
 30
0.0
  0
VERTEX
  5
88
330
84
100
AcDbEntity
  8
Make2D$可见线$普通线
100
AcDbVertex
100
AcDb2dVertex
 10
389.8115979941463
 20
88.50303504133761
 30
0.0
  0
VERTEX
  5
89
330
84
100
AcDbEntity
  8
Make2D$可见线$普通线
100
AcDbVertex
100
AcDb2dVertex
 10
389.8116347243625
 20
88.73895563736993
 30
0.0
  0
VERTEX
  5
8A
330
84
100
AcDbEntity
  8
Make2D$可见线$普通线
100
AcDbVertex
100
AcDb2dVertex
 10
389.8225870249906
 20
88.85725571127578
 30
0.0
  0
VERTEX
  5
8B
330
84
100
AcDbEntity
  8
Make2D$可见线$普通线
100
AcDbVertex
100
AcDb2dVertex
 10
389.8509319356019
 20
88.98048171054312
 30
0.0
  0
VERTEX
  5
8C
330
84
100
AcDbEntity
  8
Make2D$可见线$普通线
100
AcDbVertex
100
AcDb2dVertex
 10
389.9148136382544
 20
89.08026105032069
 30
0.0
  0
VERTEX
  5
8D
330
84
100
AcDbEntity
  8
Make2D$可见线$普通线
100
AcDbVertex
100
AcDb2dVertex
 10
390.017603393866
 20
89.1461200029995
 30
0.0
  0
VERTEX
  5
8E
330
84
100
AcDbEntity
  8
Make2D$可见线$普通线
100
AcDbVertex
100
AcDb2dVertex
 10
390.1482184849247
 20
89.15239802556094
 30
0.0
  0
VERTEX
  5
8F
330
84
100
AcDbEntity
  8
Make2D$可见线$普通线
100
AcDbVertex
100
AcDb2dVertex
 10
390.2475774022059
 20
89.13880974330469
 30
0.0
  0
VERTEX
  5
90
330
84
100
AcDbEntity
  8
Make2D$可见线$普通线
100
AcDbVertex
100
AcDb2dVertex
 10
390.3505702148334
 20
89.06255829081884
 30
0.0
  0
VERTEX
  5
91
330
84
100
AcDbEntity
  8
Make2D$可见线$普通线
100
AcDbVertex
100
AcDb2dVertex
 10
390.4200387721352
 20
88.94196552874142
 30
0.0
  0
VERTEX
  5
92
330
84
100
AcDbEntity
  8
Make2D$可见线$普通线
100
AcDbVertex
100
AcDb2dVertex
 10
390.4472073069847
 20
88.82100254324074
 30
0.0
  0
VERTEX
  5
93
330
84
100
AcDbEntity
  8
Make2D$可见线$普通线
100
AcDbVertex
100
AcDb2dVertex
 10
390.4473099160978
 20
88.65102467585085
 30
0.0
  0
SEQEND
  5
94
330
84
100
AcDbEntity
  8
Make2D$可见线$普通线
  0
POLYLINE
  5
95
330
1F
100
AcDbEntity
  8
Make2D$可见线$普通线
100
AcDb2dPolyline
 66
     1
 10
0.0
 20
0.0
 30
0.0
  0
VERTEX
  5
96
330
95
100
AcDbEntity
  8
Make2D$可见线$普通线
100
AcDbVertex
100
AcDb2dVertex
 10
390.2527200074192
 20
93.12445256772911
 30
0.0
  0
VERTEX
  5
97
330
95
100
AcDbEntity
  8
Make2D$可见线$普通线
100
AcDbVertex
100
AcDb2dVertex
 10
390.1976343843441
 20
93.16635121533794
 30
0.0
  0
VERTEX
  5
98
330
95
100
AcDbEntity
  8
Make2D$可见线$普通线
100
AcDbVertex
100
AcDb2dVertex
 10
390.1405981643459
 20
93.17548096969664
 30
0.0
  0
VERTEX
  5
99
330
95
100
AcDbEntity
  8
Make2D$可见线$普通线
100
AcDbVertex
100
AcDb2dVertex
 10
390.0544584344412
 20
93.1734259158445
 30
0.0
  0
VERTEX
  5
9A
330
95
100
AcDbEntity
  8
Make2D$可见线$普通线
100
AcDbVertex
100
AcDb2dVertex
 10
390.0051809364754
 20
93.14317938850728
 30
0.0
  0
VERTEX
  5
9B
330
95
100
AcDbEntity
  8
Make2D$可见线$普通线
100
AcDbVertex
100
AcDb2dVertex
 10
389.9714815010319
 20
93.09157676616574
 30
0.0
  0
VERTEX
  5
9C
330
95
100
AcDbEntity
  8
Make2D$可见线$普通线
100
AcDbVertex
100
AcDb2dVertex
 10
389.9512669957259
 20
93.00450554581936
 30
0.0
  0
VERTEX
  5
9D
330
95
100
AcDbEntity
  8
Make2D$可见线$普通线
100
AcDbVertex
100
AcDb2dVertex
 10
389.9419557055166
 20
92.90441560748864
 30
0.0
  0
VERTEX
  5
9E
330
95
100
AcDbEntity
  8
Make2D$可见线$普通线
100
AcDbVertex
100
AcDb2dVertex
 10
389.9419557055166
 20
92.81625110442529
 30
0.0
  0
VERTEX
  5
9F
330
95
100
AcDbEntity
  8
Make2D$可见线$普通线
100
AcDbVertex
100
AcDb2dVertex
 10
390.3158899971407
 20
92.81218873353917
 30
0.0
  0
VERTEX
  5
A0
330
95
100
AcDbEntity
  8
Make2D$可见线$普通线
100
AcDbVertex
100
AcDb2dVertex
 10
390.3158220887549
 20
92.96346344687332
 30
0.0
  0
VERTEX
  5
A1
330
95
100
AcDbEntity
  8
Make2D$可见线$普通线
100
AcDbVertex
100
AcDb2dVertex
 10
390.2971449063032
 20
93.04666222179979
 30
0.0
  0
VERTEX
  5
A2
330
95
100
AcDbEntity
  8
Make2D$可见线$普通线
100
AcDbVertex
100
AcDb2dVertex
 10
390.2527200074192
 20
93.12445256772911
 30
0.0
  0
SEQEND
  5
A3
330
95
100
AcDbEntity
  8
Make2D$可见线$普通线
  0
POLYLINE
  5
A4
330
1F
100
AcDbEntity
  8
Make2D$可见线$普通线
100
AcDb2dPolyline
 66
     1
 10
0.0
 20
0.0
 30
0.0
  0
VERTEX
  5
A5
330
A4
100
AcDbEntity
  8
Make2D$可见线$普通线
100
AcDbVertex
100
AcDb2dVertex
 10
390.4176640864663
 20
93.09871777999102
 30
0.0
  0
VERTEX
  5
A6
330
A4
100
AcDbEntity
  8
Make2D$可见线$普通线
100
AcDbVertex
100
AcDb2dVertex
 10
390.4313890716618
 20
93.03757379378747
 30
0.0
  0
VERTEX
  5
A7
330
A4
100
AcDbEntity
  8
Make2D$可见线$普通线
100
AcDbVertex
100
AcDb2dVertex
 10
390.9047648062103
 20
93.40660909350355
 30
0.0
  0
VERTEX
  5
A8
330
A4
100
AcDbEntity
  8
Make2D$可见线$普通线
100
AcDbVertex
100
AcDb2dVertex
 10
390.9049781408485
 20
93.22217152360211
 30
0.0
  0
VERTEX
  5
A9
330
A4
100
AcDbEntity
  8
Make2D$可见线$普通线
100
AcDbVertex
100
AcDb2dVertex
 10
390.4447534716446
 20
92.88592120018505
 30
0.0
  0
VERTEX
  5
AA
330
A4
100
AcDbEntity
  8
Make2D$可见线$普通线
100
AcDbVertex
100
AcDb2dVertex
 10
390.4447993076361
 20
92.80999125730828
 30
0.0
  0
VERTEX
  5
AB
330
A4
100
AcDbEntity
  8
Make2D$可见线$普通线
100
AcDbVertex
100
AcDb2dVertex
 10
390.9054606862753
 20
92.80498889202202
 30
0.0
  0
VERTEX
  5
AC
330
A4
100
AcDbEntity
  8
Make2D$可见线$普通线
100
AcDbVertex
100
AcDb2dVertex
 10
390.9066095237421
 20
92.66818407511606
 30
0.0
  0
VERTEX
  5
AD
330
A4
100
AcDbEntity
  8
Make2D$可见线$普通线
100
AcDbVertex
100
AcDb2dVertex
 10
389.8122481719225
 20
92.67916967747406
 30
0.0
  0
VERTEX
  5
AE
330
A4
100
AcDbEntity
  8
Make2D$可见线$普通线
100
AcDbVertex
100
AcDb2dVertex
 10
389.8122845367091
 20
92.91274309505944
 30
0.0
  0
VERTEX
  5
AF
330
A4
100
AcDbEntity
  8
Make2D$可见线$普通线
100
AcDbVertex
100
AcDb2dVertex
 10
389.8231821042894
 20
93.02959655167102
 30
0.0
  0
VERTEX
  5
B0
330
A4
100
AcDbEntity
  8
Make2D$可见线$普通线
100
AcDbVertex
100
AcDb2dVertex
 10
389.851385566721
 20
93.15089794706545
 30
0.0
  0
VERTEX
  5
B1
330
A4
100
AcDbEntity
  8
Make2D$可见线$普通线
100
AcDbVertex
100
AcDb2dVertex
 10
389.9149488377915
 20
93.24810909733058
 30
0.0
  0
VERTEX
  5
B2
330
A4
100
AcDbEntity
  8
Make2D$可见线$普通线
100
AcDbVertex
100
AcDb2dVertex
 10
390.0172268379187
 20
93.31077720758718
 30
0.0
  0
VERTEX
  5
B3
330
A4
100
AcDbEntity
  8
Make2D$可见线$普通线
100
AcDbVertex
100
AcDb2dVertex
 10
390.1471925608239
 20
93.31376980937294
 30
0.0
  0
VERTEX
  5
B4
330
A4
100
AcDbEntity
  8
Make2D$可见线$普通线
100
AcDbVertex
100
AcDb2dVertex
 10
390.24605815087
 20
93.29786460785884
 30
0.0
  0
VERTEX
  5
B5
330
A4
100
AcDbEntity
  8
Make2D$可见线$普通线
100
AcDbVertex
100
AcDb2dVertex
 10
390.3485400409548
 20
93.21982833135188
 30
0.0
  0
VERTEX
  5
B6
330
A4
100
AcDbEntity
  8
Make2D$可见线$普通线
100
AcDbVertex
100
AcDb2dVertex
 10
390.4176640864663
 20
93.09871777999102
 30
0.0
  0
SEQEND
  5
B7
330
A4
100
AcDbEntity
  8
Make2D$可见线$普通线
  0
POLYLINE
  5
B8
330
1F
100
AcDbEntity
  8
Make2D$可见线$普通线
100
AcDb2dPolyline
 66
     1
 10
0.0
 20
0.0
 30
0.0
  0
VERTEX
  5
B9
330
B8
100
AcDbEntity
  8
Make2D$可见线$普通线
100
AcDbVertex
100
AcDb2dVertex
 10
387.3529026257415
 20
95.32082811571784
 30
0.0
  0
VERTEX
  5
BA
330
B8
100
AcDbEntity
  8
Make2D$可见线$普通线
100
AcDbVertex
100
AcDb2dVertex
 10
387.293587853471
 20
95.36190234237061
 30
0.0
  0
VERTEX
  5
BB
330
B8
100
AcDbEntity
  8
Make2D$可见线$普通线
100
AcDbVertex
100
AcDb2dVertex
 10
387.2696044637014
 20
95.34686601164252
 30
0.0
 42
0.0161708408692114
  0
VERTEX
  5
BC
330
B8
100
AcDbEntity
  8
Make2D$可见线$普通线
100
AcDbVertex
100
AcDb2dVertex
 10
387.313435604995
 20
93.1778308481065
 30
0.0
  0
VERTEX
  5
BD
330
B8
100
AcDbEntity
  8
Make2D$可见线$普通线
100
AcDbVertex
100
AcDb2dVertex
 10
387.3945692543912
 20
92.90778948479736
 30
0.0
  0
VERTEX
  5
BE
330
B8
100
AcDbEntity
  8
Make2D$可见线$普通线
100
AcDbVertex
100
AcDb2dVertex
 10
387.4920159973341
 20
92.22662209325561
 30
0.0
 42
0.02427403399875
  0
VERTEX
  5
BF
330
B8
100
AcDbEntity
  8
Make2D$可见线$普通线
100
AcDbVertex
100
AcDb2dVertex
 10
387.9610274023619
 20
90.88810785074291
 30
0.0
  0
VERTEX
  5
C0
330
B8
100
AcDbEntity
  8
Make2D$可见线$普通线
100
AcDbVertex
100
AcDb2dVertex
 10
388.217997273819
 20
90.43110986109615
 30
0.0
  0
VERTEX
  5
C1
330
B8
100
AcDbEntity
  8
Make2D$可见线$普通线
100
AcDbVertex
100
AcDb2dVertex
 10
388.3858341937211
 20
90.17948675585068
 30
0.0
  0
VERTEX
  5
C2
330
B8
100
AcDbEntity
  8
Make2D$可见线$普通线
100
AcDbVertex
100
AcDb2dVertex
 10
388.5379412896289
 20
90.06526652115132
 30
0.0
  0
VERTEX
  5
C3
330
B8
100
AcDbEntity
  8
Make2D$可见线$普通线
100
AcDbVertex
100
AcDb2dVertex
 10
388.6571987309426
 20
90.05890309703442
 30
0.0
  0
VERTEX
  5
C4
330
B8
100
AcDbEntity
  8
Make2D$可见线$普通线
100
AcDbVertex
100
AcDb2dVertex
 10
388.7534469241324
 20
90.1049274278897
 30
0.0
  0
VERTEX
  5
C5
330
B8
100
AcDbEntity
  8
Make2D$可见线$普通线
100
AcDbVertex
100
AcDb2dVertex
 10
388.8208040534639
 20
90.2903821539039
 30
0.0
  0
VERTEX
  5
C6
330
B8
100
AcDbEntity
  8
Make2D$可见线$普通线
100
AcDbVertex
100
AcDb2dVertex
 10
388.7884975619174
 20
91.19109782876772
 30
0.0
  0
VERTEX
  5
C7
330
B8
100
AcDbEntity
  8
Make2D$可见线$普通线
100
AcDbVertex
100
AcDb2dVertex
 10
388.7370124143416
 20
91.5738297141089
 30
0.0
  0
VERTEX
  5
C8
330
B8
100
AcDbEntity
  8
Make2D$可见线$普通线
100
AcDbVertex
100
AcDb2dVertex
 10
388.6162113635839
 20
92.0098254856997
 30
0.0
  0
VERTEX
  5
C9
330
B8
100
AcDbEntity
  8
Make2D$可见线$普通线
100
AcDbVertex
100
AcDb2dVertex
 10
388.6057940586798
 20
92.20750498877361
 30
0.0
  0
VERTEX
  5
CA
330
B8
100
AcDbEntity
  8
Make2D$可见线$普通线
100
AcDbVertex
100
AcDb2dVertex
 10
388.544874091907
 20
92.36985637320582
 30
0.0
  0
VERTEX
  5
CB
330
B8
100
AcDbEntity
  8
Make2D$可见线$普通线
100
AcDbVertex
100
AcDb2dVertex
 10
388.4585718854635
 20
92.74197849640346
 30
0.0
  0
VERTEX
  5
CC
330
B8
100
AcDbEntity
  8
Make2D$可见线$普通线
100
AcDbVertex
100
AcDb2dVertex
 10
388.1806523864878
 20
93.58002808980187
 30
0.0
 42
-0.0186020981314455
  0
VERTEX
  5
CD
330
B8
100
AcDbEntity
  8
Make2D$可见线$普通线
100
AcDbVertex
100
AcDb2dVertex
 10
387.6594579727889
 20
94.83636842217196
 30
0.0
  0
VERTEX
  5
CE
330
B8
100
AcDbEntity
  8
Make2D$可见线$普通线
100
AcDbVertex
100
AcDb2dVertex
 10
387.3529026257415
 20
95.32082811571784
 30
0.0
  0
SEQEND
  5
CF
330
B8
100
AcDbEntity
  8
Make2D$可见线$普通线
  0
POLYLINE
  5
D0
330
1F
100
AcDbEntity
  8
Make2D$可见线$普通线
100
AcDb2dPolyline
 66
     1
 10
0.0
 20
0.0
 30
0.0
  0
VERTEX
  5
D1
330
D0
100
AcDbEntity
  8
Make2D$可见线$普通线
100
AcDbVertex
100
AcDb2dVertex
 10
387.039777520928
 20
96.7661690418855
 30
0.0
  0
VERTEX
  5
D2
330
D0
100
AcDbEntity
  8
Make2D$可见线$普通线
100
AcDbVertex
100
AcDb2dVertex
 10
387.0186883969193
 20
96.75220173050967
 30
0.0
  0
VERTEX
  5
D3
330
D0
100
AcDbEntity
  8
Make2D$可见线$普通线
100
AcDbVertex
100
AcDb2dVertex
 10
387.0277293067934
 20
96.68996883901933
 30
0.0
  0
VERTEX
  5
D4
330
D0
100
AcDbEntity
  8
Make2D$可见线$普通线
100
AcDbVertex
100
AcDb2dVertex
 10
387.1686429787555
 20
96.5855367184938
 30
0.0
  0
VERTEX
  5
D5
330
D0
100
AcDbEntity
  8
Make2D$可见线$普通线
100
AcDbVertex
100
AcDb2dVertex
 10
387.3268446060513
 20
96.4400814181739
 30
0.0
  0
VERTEX
  5
D6
330
D0
100
AcDbEntity
  8
Make2D$可见线$普通线
100
AcDbVertex
100
AcDb2dVertex
 10
387.4288169283823
 20
96.39623304032271
 30
0.0
  0
VERTEX
  5
D7
330
D0
100
AcDbEntity
  8
Make2D$可见线$普通线
100
AcDbVertex
100
AcDb2dVertex
 10
387.46881509657
 20
96.39776672575293
 30
0.0
  0
VERTEX
  5
D8
330
D0
100
AcDbEntity
  8
Make2D$可见线$普通线
100
AcDbVertex
100
AcDb2dVertex
 10
387.4870568238729
 20
96.45136544968987
 30
0.0
  0
VERTEX
  5
D9
330
D0
100
AcDbEntity
  8
Make2D$可见线$普通线
100
AcDbVertex
100
AcDb2dVertex
 10
387.4742014458117
 20
96.47164288149632
 30
0.0
  0
VERTEX
  5
DA
330
D0
100
AcDbEntity
  8
Make2D$可见线$普通线
100
AcDbVertex
100
AcDb2dVertex
 10
387.2022119288985
 20
96.72741513748689
 30
0.0
  0
VERTEX
  5
DB
330
D0
100
AcDbEntity
  8
Make2D$可见线$普通线
100
AcDbVertex
100
AcDb2dVertex
 10
387.1422740382035
 20
96.75901048930847
 30
0.0
  0
VERTEX
  5
DC
330
D0
100
AcDbEntity
  8
Make2D$可见线$普通线
100
AcDbVertex
100
AcDb2dVertex
 10
387.039777520928
 20
96.7661690418855
 30
0.0
  0
SEQEND
  5
DD
330
D0
100
AcDbEntity
  8
Make2D$可见线$普通线
  0
POLYLINE
  5
DE
330
1F
100
AcDbEntity
  8
Make2D$可见线$普通线
100
AcDb2dPolyline
 66
     1
 10
0.0
 20
0.0
 30
0.0
  0
VERTEX
  5
DF
330
DE
100
AcDbEntity
  8
Make2D$可见线$普通线
100
AcDbVertex
100
AcDb2dVertex
 10
387.4381202909047
 20
99.92307355617355
 30
0.0
  0
VERTEX
  5
E0
330
DE
100
AcDbEntity
  8
Make2D$可见线$普通线
100
AcDbVertex
100
AcDb2dVertex
 10
387.3712138511507
 20
99.9288793787798
 30
0.0
  0
VERTEX
  5
E1
330
DE
100
AcDbEntity
  8
Make2D$可见线$普通线
100
AcDbVertex
100
AcDb2dVertex
 10
387.3730319922064
 20
99.90995375194369
 30
0.0
  0
VERTEX
  5
E2
330
DE
100
AcDbEntity
  8
Make2D$可见线$普通线
100
AcDbVertex
100
AcDb2dVertex
 10
387.3672335597172
 20
99.84593265650913
 30
0.0
  0
VERTEX
  5
E3
330
DE
100
AcDbEntity
  8
Make2D$可见线$普通线
100
AcDbVertex
100
AcDb2dVertex
 10
387.7099175873288
 20
99.42817463272023
 30
0.0
  0
VERTEX
  5
E4
330
DE
100
AcDbEntity
  8
Make2D$可见线$普通线
100
AcDbVertex
100
AcDb2dVertex
 10
387.8046315826161
 20
99.37968405345292
 30
0.0
  0
VERTEX
  5
E5
330
DE
100
AcDbEntity
  8
Make2D$可见线$普通线
100
AcDbVertex
100
AcDb2dVertex
 10
387.8576764428537
 20
99.41500225948685
 30
0.0
  0
VERTEX
  5
E6
330
DE
100
AcDbEntity
  8
Make2D$可见线$普通线
100
AcDbVertex
100
AcDb2dVertex
 10
387.8442596838127
 20
99.51439854078454
 30
0.0
  0
VERTEX
  5
E7
330
DE
100
AcDbEntity
  8
Make2D$可见线$普通线
100
AcDbVertex
100
AcDb2dVertex
 10
387.5413909384782
 20
99.84310768667136
 30
0.0
  0
VERTEX
  5
E8
330
DE
100
AcDbEntity
  8
Make2D$可见线$普通线
100
AcDbVertex
100
AcDb2dVertex
 10
387.4381202909047
 20
99.92307355617355
 30
0.0
  0
SEQEND
  5
E9
330
DE
100
AcDbEntity
  8
Make2D$可见线$普通线
  0
POLYLINE
  5
EA
330
1F
100
AcDbEntity
  8
Make2D$可见线$普通线
100
AcDb2dPolyline
 66
     1
 10
0.0
 20
0.0
 30
0.0
  0
VERTEX
  5
EB
330
EA
100
AcDbEntity
  8
Make2D$可见线$普通线
100
AcDbVertex
100
AcDb2dVertex
 10
387.1314144479112
 20
105.13370091042
 30
0.0
  0
VERTEX
  5
EC
330
EA
100
AcDbEntity
  8
Make2D$可见线$普通线
100
AcDbVertex
100
AcDb2dVertex
 10
387.1176578017416
 20
105.077365095568
 30
0.0
  0
VERTEX
  5
ED
330
EA
100
AcDbEntity
  8
Make2D$可见线$普通线
100
AcDbVertex
100
AcDb2dVertex
 10
387.1314261270078
 20
104.9823459163961
 30
0.0
  0
VERTEX
  5
EE
330
EA
100
AcDbEntity
  8
Make2D$可见线$普通线
100
AcDbVertex
100
AcDb2dVertex
 10
387.2662441166063
 20
104.8476299070523
 30
0.0
  0
VERTEX
  5
EF
330
EA
100
AcDbEntity
  8
Make2D$可见线$普通线
100
AcDbVertex
100
AcDb2dVertex
 10
387.5939058558731
 20
104.2651640816174
 30
0.0
  0
VERTEX
  5
F0
330
EA
100
AcDbEntity
  8
Make2D$可见线$普通线
100
AcDbVertex
100
AcDb2dVertex
 10
387.7522657618943
 20
104.2651568079625
 30
0.0
  0
VERTEX
  5
F1
330
EA
100
AcDbEntity
  8
Make2D$可见线$普通线
100
AcDbVertex
100
AcDb2dVertex
 10
387.8671604433336
 20
104.3713247395593
 30
0.0
  0
VERTEX
  5
F2
330
EA
100
AcDbEntity
  8
Make2D$可见线$普通线
100
AcDbVertex
100
AcDb2dVertex
 10
387.9387648476944
 20
104.5957956925309
 30
0.0
  0
VERTEX
  5
F3
330
EA
100
AcDbEntity
  8
Make2D$可见线$普通线
100
AcDbVertex
100
AcDb2dVertex
 10
387.9118634029486
 20
104.8854583020851
 30
0.0
  0
VERTEX
  5
F4
330
EA
100
AcDbEntity
  8
Make2D$可见线$普通线
100
AcDbVertex
100
AcDb2dVertex
 10
387.8608768826994
 20
105.0087209372103
 30
0.0
  0
VERTEX
  5
F5
330
EA
100
AcDbEntity
  8
Make2D$可见线$普通线
100
AcDbVertex
100
AcDb2dVertex
 10
387.8376810201089
 20
105.1994862930535
 30
0.0
  0
VERTEX
  5
F6
330
EA
100
AcDbEntity
  8
Make2D$可见线$普通线
100
AcDbVertex
100
AcDb2dVertex
 10
387.7038054512147
 20
105.3544373610241
 30
0.0
  0
VERTEX
  5
F7
330
EA
100
AcDbEntity
  8
Make2D$可见线$普通线
100
AcDbVertex
100
AcDb2dVertex
 10
387.4227777908948
 20
105.3850098360525
 30
0.0
  0
VERTEX
  5
F8
330
EA
100
AcDbEntity
  8
Make2D$可见线$普通线
100
AcDbVertex
100
AcDb2dVertex
 10
387.2748125399996
 20
105.3402012153751
 30
0.0
  0
VERTEX
  5
F9
330
EA
100
AcDbEntity
  8
Make2D$可见线$普通线
100
AcDbVertex
100
AcDb2dVertex
 10
387.1886707127559
 20
105.231312870728
 30
0.0
  0
VERTEX
  5
FA
330
EA
100
AcDbEntity
  8
Make2D$可见线$普通线
100
AcDbVertex
100
AcDb2dVertex
 10
387.1314144479112
 20
105.13370091042
 30
0.0
  0
SEQEND
  5
FB
330
EA
100
AcDbEntity
  8
Make2D$可见线$普通线
  0
POLYLINE
  5
FC
330
1F
100
AcDbEntity
  8
Make2D$可见线$普通线
100
AcDb2dPolyline
 66
     1
 10
0.0
 20
0.0
 30
0.0
  0
VERTEX
  5
FD
330
FC
100
AcDbEntity
  8
Make2D$可见线$普通线
100
AcDbVertex
100
AcDb2dVertex
 10
388.9824122956258
 20
101.9158046207958
 30
0.0
  0
VERTEX
  5
FE
330
FC
100
AcDbEntity
  8
Make2D$可见线$普通线
100
AcDbVertex
100
AcDb2dVertex
 10
388.874352913919
 20
101.9682686833244
 30
0.0
  0
VERTEX
  5
FF
330
FC
100
AcDbEntity
  8
Make2D$可见线$普通线
100
AcDbVertex
100
AcDb2dVertex
 10
388.3667899350391
 20
101.9874863506267
 30
0.0
  0
VERTEX
  5
100
330
FC
100
AcDbEntity
  8
Make2D$可见线$普通线
100
AcDbVertex
100
AcDb2dVertex
 10
388.3474219498274
 20
101.9433049221433
 30
0.0
  0
VERTEX
  5
101
330
FC
100
AcDbEntity
  8
Make2D$可见线$普通线
100
AcDbVertex
100
AcDb2dVertex
 10
388.3424670126184
 20
101.8741948916535
 30
0.0
  0
VERTEX
  5
102
330
FC
100
AcDbEntity
  8
Make2D$可见线$普通线
100
AcDbVertex
100
AcDb2dVertex
 10
388.388181647418
 20
101.8308615643427
 30
0.0
  0
VERTEX
  5
103
330
FC
100
AcDbEntity
  8
Make2D$可见线$普通线
100
AcDbVertex
100
AcDb2dVertex
 10
388.5336491428074
 20
101.7118041003038
 30
0.0
  0
VERTEX
  5
104
330
FC
100
AcDbEntity
  8
Make2D$可见线$普通线
100
AcDbVertex
100
AcDb2dVertex
 10
388.6297500524538
 20
101.6590606752195
 30
0.0
  0
VERTEX
  5
105
330
FC
100
AcDbEntity
  8
Make2D$可见线$普通线
100
AcDbVertex
100
AcDb2dVertex
 10
388.9145094090403
 20
101.4228444355671
 30
0.0
  0
VERTEX
  5
106
330
FC
100
AcDbEntity
  8
Make2D$可见线$普通线
100
AcDbVertex
100
AcDb2dVertex
 10
389.0829922920199
 20
101.3085523282646
 30
0.0
  0
VERTEX
  5
107
330
FC
100
AcDbEntity
  8
Make2D$可见线$普通线
100
AcDbVertex
100
AcDb2dVertex
 10
389.2137984744398
 20
101.1824131638257
 30
0.0
  0
VERTEX
  5
108
330
FC
100
AcDbEntity
  8
Make2D$可见线$普通线
100
AcDbVertex
100
AcDb2dVertex
 10
389.3105506872461
 20
101.1264609237177
 30
0.0
  0
VERTEX
  5
109
330
FC
100
AcDbEntity
  8
Make2D$可见线$普通线
100
AcDbVertex
100
AcDb2dVertex
 10
389.6400279518015
 20
100.8856945336148
 30
0.0
  0
VERTEX
  5
10A
330
FC
100
AcDbEntity
  8
Make2D$可见线$普通线
100
AcDbVertex
100
AcDb2dVertex
 10
389.8540724760551
 20
100.712535123891
 30
0.0
  0
VERTEX
  5
10B
330
FC
100
AcDbEntity
  8
Make2D$可见线$普通线
100
AcDbVertex
100
AcDb2dVertex
 10
390.3356759950431
 20
100.3788292095432
 30
0.0
  0
VERTEX
  5
10C
330
FC
100
AcDbEntity
  8
Make2D$可见线$普通线
100
AcDbVertex
100
AcDb2dVertex
 10
390.8830867978863
 20
100.0430859426454
 30
0.0
  0
VERTEX
  5
10D
330
FC
100
AcDbEntity
  8
Make2D$可见线$普通线
100
AcDbVertex
100
AcDb2dVertex
 10
391.1964309264864
 20
99.83749027935629
 30
0.0
  0
VERTEX
  5
10E
330
FC
100
AcDbEntity
  8
Make2D$可见线$普通线
100
AcDbVertex
100
AcDb2dVertex
 10
391.3912751699504
 20
99.73975998399122
 30
0.0
  0
VERTEX
  5
10F
330
FC
100
AcDbEntity
  8
Make2D$可见线$普通线
100
AcDbVertex
100
AcDb2dVertex
 10
391.5940733716942
 20
99.656520813862
 30
0.0
  0
VERTEX
  5
110
330
FC
100
AcDbEntity
  8
Make2D$可见线$普通线
100
AcDbVertex
100
AcDb2dVertex
 10
391.6746992853207
 20
99.61079271402092
 30
0.0
  0
VERTEX
  5
111
330
FC
100
AcDbEntity
  8
Make2D$可见线$普通线
100
AcDbVertex
100
AcDb2dVertex
 10
392.1001562015916
 20
99.52179676385718
 30
0.0
  0
VERTEX
  5
112
330
FC
100
AcDbEntity
  8
Make2D$可见线$普通线
100
AcDbVertex
100
AcDb2dVertex
 10
392.3106292503196
 20
99.47276943154792
 30
0.0
  0
VERTEX
  5
113
330
FC
100
AcDbEntity
  8
Make2D$可见线$普通线
100
AcDbVertex
100
AcDb2dVertex
 10
392.4820173829345
 20
99.48622478780713
 30
0.0
  0
VERTEX
  5
114
330
FC
100
AcDbEntity
  8
Make2D$可见线$普通线
100
AcDbVertex
100
AcDb2dVertex
 10
392.5378049243222
 20
99.57867962352064
 30
0.0
  0
VERTEX
  5
115
330
FC
100
AcDbEntity
  8
Make2D$可见线$普通线
100
AcDbVertex
100
AcDb2dVertex
 10
392.5521967448327
 20
99.69228210877917
 30
0.0
  0
VERTEX
  5
116
330
FC
100
AcDbEntity
  8
Make2D$可见线$普通线
100
AcDbVertex
100
AcDb2dVertex
 10
392.4661134351774
 20
99.85883307718744
 30
0.0
  0
VERTEX
  5
117
330
FC
100
AcDbEntity
  8
Make2D$可见线$普通线
100
AcDbVertex
100
AcDb2dVertex
 10
392.2941453196711
 20
100.0651544330747
 30
0.0
  0
VERTEX
  5
118
330
FC
100
AcDbEntity
  8
Make2D$可见线$普通线
100
AcDbVertex
100
AcDb2dVertex
 10
392.121834940026
 20
100.2972419171484
 30
0.0
  0
VERTEX
  5
119
330
FC
100
AcDbEntity
  8
Make2D$可见线$普通线
100
AcDbVertex
100
AcDb2dVertex
 10
391.9434619779243
 20
100.4727551796077
 30
0.0
  0
VERTEX
  5
11A
330
FC
100
AcDbEntity
  8
Make2D$可见线$普通线
100
AcDbVertex
100
AcDb2dVertex
 10
391.740182320988
 20
100.6419670943372
 30
0.0
  0
VERTEX
  5
11B
330
FC
100
AcDbEntity
  8
Make2D$可见线$普通线
100
AcDbVertex
100
AcDb2dVertex
 10
391.3800372836271
 20
100.8883796354473
 30
0.0
  0
VERTEX
  5
11C
330
FC
100
AcDbEntity
  8
Make2D$可见线$普通线
100
AcDbVertex
100
AcDb2dVertex
 10
391.2092755063107
 20
101.0176861964045
 30
0.0
  0
VERTEX
  5
11D
330
FC
100
AcDbEntity
  8
Make2D$可见线$普通线
100
AcDbVertex
100
AcDb2dVertex
 10
391.0214093124276
 20
101.0762505672389
 30
0.0
  0
VERTEX
  5
11E
330
FC
100
AcDbEntity
  8
Make2D$可见线$普通线
100
AcDbVertex
100
AcDb2dVertex
 10
390.8415544456756
 20
101.1839798020069
 30
0.0
  0
VERTEX
  5
11F
330
FC
100
AcDbEntity
  8
Make2D$可见线$普通线
100
AcDbVertex
100
AcDb2dVertex
 10
390.7670613064252
 20
101.2544985534199
 30
0.0
  0
VERTEX
  5
120
330
FC
100
AcDbEntity
  8
Make2D$可见线$普通线
100
AcDbVertex
100
AcDb2dVertex
 10
390.4231275016513
 20
101.4423369797786
 30
0.0
  0
VERTEX
  5
121
330
FC
100
AcDbEntity
  8
Make2D$可见线$普通线
100
AcDbVertex
100
AcDb2dVertex
 10
390.299987764359
 20
101.4982506137614
 30
0.0
  0
VERTEX
  5
122
330
FC
100
AcDbEntity
  8
Make2D$可见线$普通线
100
AcDbVertex
100
AcDb2dVertex
 10
390.2089445008284
 20
101.5481953530261
 30
0.0
  0
VERTEX
  5
123
330
FC
100
AcDbEntity
  8
Make2D$可见线$普通线
100
AcDbVertex
100
AcDb2dVertex
 10
390.079825173432
 20
101.601063083377
 30
0.0
  0
VERTEX
  5
124
330
FC
100
AcDbEntity
  8
Make2D$可见线$普通线
100
AcDbVertex
100
AcDb2dVertex
 10
389.952339908753
 20
101.6468229805916
 30
0.0
  0
VERTEX
  5
125
330
FC
100
AcDbEntity
  8
Make2D$可见线$普通线
100
AcDbVertex
100
AcDb2dVertex
 10
389.8021404433058
 20
101.7372098894208
 30
0.0
  0
VERTEX
  5
126
330
FC
100
AcDbEntity
  8
Make2D$可见线$普通线
100
AcDbVertex
100
AcDb2dVertex
 10
389.539158983686
 20
101.7910682595348
 30
0.0
  0
VERTEX
  5
127
330
FC
100
AcDbEntity
  8
Make2D$可见线$普通线
100
AcDbVertex
100
AcDb2dVertex
 10
389.4378080722718
 20
101.8089486715568
 30
0.0
  0
VERTEX
  5
128
330
FC
100
AcDbEntity
  8
Make2D$可见线$普通线
100
AcDbVertex
100
AcDb2dVertex
 10
389.2607306879131
 20
101.8772611491143
 30
0.0
  0
VERTEX
  5
129
330
FC
100
AcDbEntity
  8
Make2D$可见线$普通线
100
AcDbVertex
100
AcDb2dVertex
 10
388.9824122956258
 20
101.9158046207958
 30
0.0
  0
SEQEND
  5
12A
330
FC
100
AcDbEntity
  8
Make2D$可见线$普通线
  0
POLYLINE
  5
12B
330
1F
100
AcDbEntity
  8
Make2D$可见线$普通线
100
AcDb2dPolyline
 66
     1
 10
0.0
 20
0.0
 30
0.0
  0
VERTEX
  5
12C
330
12B
100
AcDbEntity
  8
Make2D$可见线$普通线
100
AcDbVertex
100
AcDb2dVertex
 10
384.340635668785
 20
100.3305804496269
 30
0.0
  0
VERTEX
  5
12D
330
12B
100
AcDbEntity
  8
Make2D$可见线$普通线
100
AcDbVertex
100
AcDb2dVertex
 10
384.2635970967579
 20
100.3343935619329
 30
0.0
  0
VERTEX
  5
12E
330
12B
100
AcDbEntity
  8
Make2D$可见线$普通线
100
AcDbVertex
100
AcDb2dVertex
 10
384.2388606772057
 20
100.3340674736362
 30
0.0
  0
VERTEX
  5
12F
330
12B
100
AcDbEntity
  8
Make2D$可见线$普通线
100
AcDbVertex
100
AcDb2dVertex
 10
384.2414146151755
 20
100.2384718191446
 30
0.0
  0
VERTEX
  5
130
330
12B
100
AcDbEntity
  8
Make2D$可见线$普通线
100
AcDbVertex
100
AcDb2dVertex
 10
384.3079959765402
 20
100.1114953794536
 30
0.0
  0
VERTEX
  5
131
330
12B
100
AcDbEntity
  8
Make2D$可见线$普通线
100
AcDbVertex
100
AcDb2dVertex
 10
384.4180792107639
 20
100.0168784615653
 30
0.0
  0
VERTEX
  5
132
330
12B
100
AcDbEntity
  8
Make2D$可见线$普通线
100
AcDbVertex
100
AcDb2dVertex
 10
384.5501899866119
 20
99.8801073938722
 30
0.0
  0
VERTEX
  5
133
330
12B
100
AcDbEntity
  8
Make2D$可见线$普通线
100
AcDbVertex
100
AcDb2dVertex
 10
384.9523439638717
 20
99.56411854102144
 30
0.0
  0
VERTEX
  5
134
330
12B
100
AcDbEntity
  8
Make2D$可见线$普通线
100
AcDbVertex
100
AcDb2dVertex
 10
385.1224611010986
 20
99.40047832250569
 30
0.0
  0
VERTEX
  5
135
330
12B
100
AcDbEntity
  8
Make2D$可见线$普通线
100
AcDbVertex
100
AcDb2dVertex
 10
385.5107322196014
 20
99.1135857922843
 30
0.0
  0
VERTEX
  5
136
330
12B
100
AcDbEntity
  8
Make2D$可见线$普通线
100
AcDbVertex
100
AcDb2dVertex
 10
386.0655641641567
 20
98.74866544848008
 30
0.0
  0
VERTEX
  5
137
330
12B
100
AcDbEntity
  8
Make2D$可见线$普通线
100
AcDbVertex
100
AcDb2dVertex
 10
386.1780258395333
 20
98.66833790271811
 30
0.0
  0
VERTEX
  5
138
330
12B
100
AcDbEntity
  8
Make2D$可见线$普通线
100
AcDbVertex
100
AcDb2dVertex
 10
386.2622031832734
 20
98.58934952946025
 30
0.0
  0
VERTEX
  5
139
330
12B
100
AcDbEntity
  8
Make2D$可见线$普通线
100
AcDbVertex
100
AcDb2dVertex
 10
386.4787569382617
 20
98.48373490392747
 30
0.0
  0
VERTEX
  5
13A
330
12B
100
AcDbEntity
  8
Make2D$可见线$普通线
100
AcDbVertex
100
AcDb2dVertex
 10
386.5871245699947
 20
98.49985550161851
 30
0.0
  0
VERTEX
  5
13B
330
12B
100
AcDbEntity
  8
Make2D$可见线$普通线
100
AcDbVertex
100
AcDb2dVertex
 10
386.5981382118468
 20
98.55705677902493
 30
0.0
  0
VERTEX
  5
13C
330
12B
100
AcDbEntity
  8
Make2D$可见线$普通线
100
AcDbVertex
100
AcDb2dVertex
 10
386.4288123523013
 20
98.7549221800035
 30
0.0
  0
VERTEX
  5
13D
330
12B
100
AcDbEntity
  8
Make2D$可见线$普通线
100
AcDbVertex
100
AcDb2dVertex
 10
386.1504883931163
 20
99.00038721218787
 30
0.0
  0
VERTEX
  5
13E
330
12B
100
AcDbEntity
  8
Make2D$可见线$普通线
100
AcDbVertex
100
AcDb2dVertex
 10
386.0548678130527
 20
99.04933714463469
 30
0.0
  0
VERTEX
  5
13F
330
12B
100
AcDbEntity
  8
Make2D$可见线$普通线
100
AcDbVertex
100
AcDb2dVertex
 10
385.9972167569103
 20
99.13579508764472
 30
0.0
  0
VERTEX
  5
140
330
12B
100
AcDbEntity
  8
Make2D$可见线$普通线
100
AcDbVertex
100
AcDb2dVertex
 10
385.6366330419673
 20
99.38100515698737
 30
0.0
  0
VERTEX
  5
141
330
12B
100
AcDbEntity
  8
Make2D$可见线$普通线
100
AcDbVertex
100
AcDb2dVertex
 10
385.0158099490996
 20
99.87931873359308
 30
0.0
  0
VERTEX
  5
142
330
12B
100
AcDbEntity
  8
Make2D$可见线$普通线
100
AcDbVertex
100
AcDb2dVertex
 10
384.6315694008556
 20
100.1313987488419
 30
0.0
  0
VERTEX
  5
143
330
12B
100
AcDbEntity
  8
Make2D$可见线$普通线
100
AcDbVertex
100
AcDb2dVertex
 10
384.340635668785
 20
100.3305804496269
 30
0.0
  0
SEQEND
  5
144
330
12B
100
AcDbEntity
  8
Make2D$可见线$普通线
  0
POLYLINE
  5
145
330
1F
100
AcDbEntity
  8
Make2D$可见线$普通线
100
AcDb2dPolyline
 66
     1
 10
0.0
 20
0.0
 30
0.0
  0
VERTEX
  5
146
330
145
100
AcDbEntity
  8
Make2D$可见线$普通线
100
AcDbVertex
100
AcDb2dVertex
 10
369.9889885197559
 20
113.5623658541533
 30
0.0
 42
0.682298942765431
  0
VERTEX
  5
147
330
145
100
AcDbEntity
  8
Make2D$可见线$普通线
100
AcDbVertex
100
AcDb2dVertex
 10
391.440088638187
 20
66.0359430870576
 30
0.0
 42
-0.0022694869912327
  0
VERTEX
  5
148
330
145
100
AcDbEntity
  8
Make2D$可见线$普通线
100
AcDbVertex
100
AcDb2dVertex
 10
552.8000795169972
 20
73.40692434044823
 30
0.0
 42
0.4021016108433635
  0
VERTEX
  5
149
330
145
100
AcDbEntity
  8
Make2D$可见线$普通线
100
AcDbVertex
100
AcDb2dVertex
 10
567.1773214569109
 20
88.39399117817753
 30
0.0
  0
VERTEX
  5
14A
330
145
100
AcDbEntity
  8
Make2D$可见线$普通线
100
AcDbVertex
100
AcDb2dVertex
 10
567.1773214569108
 20
99.6060088218221
 30
0.0
 42
0.4021016108433957
  0
VERTEX
  5
14B
330
145
100
AcDbEntity
  8
Make2D$可见线$普通线
100
AcDbVertex
100
AcDb2dVertex
 10
552.8000795169974
 20
114.5930756595521
 30
0.0
 42
-0.0022694869912172
  0
VERTEX
  5
14C
330
145
100
AcDbEntity
  8
Make2D$可见线$普通线
100
AcDbVertex
100
AcDb2dVertex
 10
391.4400886381868
 20
121.9640569129406
 30
0.0
 42
0.2152221027429423
  0
VERTEX
  5
14D
330
145
100
AcDbEntity
  8
Make2D$可见线$普通线
100
AcDbVertex
100
AcDb2dVertex
 10
369.9889885197559
 20
113.5623658541533
 30
0.0
  0
SEQEND
  5
14E
330
145
100
AcDbEntity
  8
Make2D$可见线$普通线
  0
POLYLINE
  5
14F
330
1F
100
AcDbEntity
  8
Make2D$可见线$普通线
100
AcDb2dPolyline
 66
     1
 10
0.0
 20
0.0
 30
0.0
  0
VERTEX
  5
150
330
14F
100
AcDbEntity
  8
Make2D$可见线$普通线
100
AcDbVertex
100
AcDb2dVertex
 10
383.8348712966317
 20
90.87914605288971
 30
0.0
  0
VERTEX
  5
151
330
14F
100
AcDbEntity
  8
Make2D$可见线$普通线
100
AcDbVertex
100
AcDb2dVertex
 10
383.9156244247607
 20
90.93241985649352
 30
0.0
  0
VERTEX
  5
152
330
14F
100
AcDbEntity
  8
Make2D$可见线$普通线
100
AcDbVertex
100
AcDb2dVertex
 10
383.9529867104706
 20
90.93650652136533
 30
0.0
  0
VERTEX
  5
153
330
14F
100
AcDbEntity
  8
Make2D$可见线$普通线
100
AcDbVertex
100
AcDb2dVertex
 10
383.9846255833673
 20
90.91108490513282
 30
0.0
  0
VERTEX
  5
154
330
14F
100
AcDbEntity
  8
Make2D$可见线$普通线
100
AcDbVertex
100
AcDb2dVertex
 10
383.9856008411265
 20
90.84525057537438
 30
0.0
  0
VERTEX
  5
155
330
14F
100
AcDbEntity
  8
Make2D$可见线$普通线
100
AcDbVertex
100
AcDb2dVertex
 10
383.9356940936768
 20
90.74490731943182
 30
0.0
  0
VERTEX
  5
156
330
14F
100
AcDbEntity
  8
Make2D$可见线$普通线
100
AcDbVertex
100
AcDb2dVertex
 10
383.6656675034704
 20
90.5258626598736
 30
0.0
  0
VERTEX
  5
157
330
14F
100
AcDbEntity
  8
Make2D$可见线$普通线
100
AcDbVertex
100
AcDb2dVertex
 10
383.6029207817426
 20
90.49714653477575
 30
0.0
  0
VERTEX
  5
158
330
14F
100
AcDbEntity
  8
Make2D$可见线$普通线
100
AcDbVertex
100
AcDb2dVertex
 10
383.5418690664729
 20
90.50599353349502
 30
0.0
  0
VERTEX
  5
159
330
14F
100
AcDbEntity
  8
Make2D$可见线$普通线
100
AcDbVertex
100
AcDb2dVertex
 10
383.444829496792
 20
90.57639284762
 30
0.0
  0
VERTEX
  5
15A
330
14F
100
AcDbEntity
  8
Make2D$可见线$普通线
100
AcDbVertex
100
AcDb2dVertex
 10
383.3368218720871
 20
90.74760795209362
 30
0.0
  0
VERTEX
  5
15B
330
14F
100
AcDbEntity
  8
Make2D$可见线$普通线
100
AcDbVertex
100
AcDb2dVertex
 10
383.2349377774877
 20
90.96560622837738
 30
0.0
  0
VERTEX
  5
15C
330
14F
100
AcDbEntity
  8
Make2D$可见线$普通线
100
AcDbVertex
100
AcDb2dVertex
 10
383.1365777633047
 20
91.2711289284125
 30
0.0
  0
VERTEX
  5
15D
330
14F
100
AcDbEntity
  8
Make2D$可见线$普通线
100
AcDbVertex
100
AcDb2dVertex
 10
383.1242736558827
 20
91.37651966792826
 30
0.0
  0
VERTEX
  5
15E
330
14F
100
AcDbEntity
  8
Make2D$可见线$普通线
100
AcDbVertex
100
AcDb2dVertex
 10
383.0825821767225
 20
91.46692544156075
 30
0.0
  0
VERTEX
  5
15F
330
14F
100
AcDbEntity
  8
Make2D$可见线$普通线
100
AcDbVertex
100
AcDb2dVertex
 10
383.0489722425997
 20
91.65064310284014
 30
0.0
  0
VERTEX
  5
160
330
14F
100
AcDbEntity
  8
Make2D$可见线$普通线
100
AcDbVertex
100
AcDb2dVertex
 10
383.0549821998912
 20
91.70783337455804
 30
0.0
  0
VERTEX
  5
161
330
14F
100
AcDbEntity
  8
Make2D$可见线$普通线
100
AcDbVertex
100
AcDb2dVertex
 10
383.0323360587944
 20
91.77195579417479
 30
0.0
  0
VERTEX
  5
162
330
14F
100
AcDbEntity
  8
Make2D$可见线$普通线
100
AcDbVertex
100
AcDb2dVertex
 10
383.0364237979295
 20
91.92807277455061
 30
0.0
  0
VERTEX
  5
163
330
14F
100
AcDbEntity
  8
Make2D$可见线$普通线
100
AcDbVertex
100
AcDb2dVertex
 10
383.0002719615811
 20
91.98548568502154
 30
0.0
  0
VERTEX
  5
164
330
14F
100
AcDbEntity
  8
Make2D$可见线$普通线
100
AcDbVertex
100
AcDb2dVertex
 10
382.95138119696
 20
92.2733196752507
 30
0.0
  0
VERTEX
  5
165
330
14F
100
AcDbEntity
  8
Make2D$可见线$普通线
100
AcDbVertex
100
AcDb2dVertex
 10
382.9535388517733
 20
92.53058910411754
 30
0.0
  0
VERTEX
  5
166
330
14F
100
AcDbEntity
  8
Make2D$可见线$普通线
100
AcDbVertex
100
AcDb2dVertex
 10
382.9362840770731
 20
92.56984845334101
 30
0.0
  0
VERTEX
  5
167
330
14F
100
AcDbEntity
  8
Make2D$可见线$普通线
100
AcDbVertex
100
AcDb2dVertex
 10
382.9131602736434
 20
92.60916624289551
 30
0.0
  0
VERTEX
  5
168
330
14F
100
AcDbEntity
  8
Make2D$可见线$普通线
100
AcDbVertex
100
AcDb2dVertex
 10
382.888289339324
 20
92.78839173820141
 30
0.0
  0
VERTEX
  5
169
330
14F
100
AcDbEntity
  8
Make2D$可见线$普通线
100
AcDbVertex
100
AcDb2dVertex
 10
382.8792554785343
 20
92.9715456113846
 30
0.0
  0
VERTEX
  5
16A
330
14F
100
AcDbEntity
  8
Make2D$可见线$普通线
100
AcDbVertex
100
AcDb2dVertex
 10
382.8587545825429
 20
93.09271228326939
 30
0.0
  0
VERTEX
  5
16B
330
14F
100
AcDbEntity
  8
Make2D$可见线$普通线
100
AcDbVertex
100
AcDb2dVertex
 10
382.8514539722776
 20
93.99183402522077
 30
0.0
  0
VERTEX
  5
16C
330
14F
100
AcDbEntity
  8
Make2D$可见线$普通线
100
AcDbVertex
100
AcDb2dVertex
 10
382.9032536584987
 20
94.3510264189707
 30
0.0
  0
VERTEX
  5
16D
330
14F
100
AcDbEntity
  8
Make2D$可见线$普通线
100
AcDbVertex
100
AcDb2dVertex
 10
382.9016579332218
 20
94.4365806389544
 30
0.0
  0
VERTEX
  5
16E
330
14F
100
AcDbEntity
  8
Make2D$可见线$普通线
100
AcDbVertex
100
AcDb2dVertex
 10
382.9445760345663
 20
94.55652291056536
 30
0.0
  0
VERTEX
  5
16F
330
14F
100
AcDbEntity
  8
Make2D$可见线$普通线
100
AcDbVertex
100
AcDb2dVertex
 10
382.9594809491305
 20
94.61114269781966
 30
0.0
  0
VERTEX
  5
170
330
14F
100
AcDbEntity
  8
Make2D$可见线$普通线
100
AcDbVertex
100
AcDb2dVertex
 10
382.963133090293
 20
94.6776019884371
 30
0.0
  0
VERTEX
  5
171
330
14F
100
AcDbEntity
  8
Make2D$可见线$普通线
100
AcDbVertex
100
AcDb2dVertex
 10
383.0316098655071
 20
94.85346477598101
 30
0.0
  0
VERTEX
  5
172
330
14F
100
AcDbEntity
  8
Make2D$可见线$普通线
100
AcDbVertex
100
AcDb2dVertex
 10
383.0320485378501
 20
94.90621364231332
 30
0.0
  0
VERTEX
  5
173
330
14F
100
AcDbEntity
  8
Make2D$可见线$普通线
100
AcDbVertex
100
AcDb2dVertex
 10
383.0833885033054
 20
95.01158172245356
 30
0.0
  0
VERTEX
  5
174
330
14F
100
AcDbEntity
  8
Make2D$可见线$普通线
100
AcDbVertex
100
AcDb2dVertex
 10
383.0953383864535
 20
95.09121278951032
 30
0.0
  0
VERTEX
  5
175
330
14F
100
AcDbEntity
  8
Make2D$可见线$普通线
100
AcDbVertex
100
AcDb2dVertex
 10
383.0966981701349
 20
95.14310858504528
 30
0.0
  0
VERTEX
  5
176
330
14F
100
AcDbEntity
  8
Make2D$可见线$普通线
100
AcDbVertex
100
AcDb2dVertex
 10
383.2519956227682
 20
95.49063347450031
 30
0.0
  0
VERTEX
  5
177
330
14F
100
AcDbEntity
  8
Make2D$可见线$普通线
100
AcDbVertex
100
AcDb2dVertex
 10
383.7033073214949
 20
96.10780293024503
 30
0.0
  0
VERTEX
  5
178
330
14F
100
AcDbEntity
  8
Make2D$可见线$普通线
100
AcDbVertex
100
AcDb2dVertex
 10
383.935362359513
 20
96.33997050671904
 30
0.0
  0
VERTEX
  5
179
330
14F
100
AcDbEntity
  8
Make2D$可见线$普通线
100
AcDbVertex
100
AcDb2dVertex
 10
384.1974668539438
 20
96.54081508849616
 30
0.0
  0
VERTEX
  5
17A
330
14F
100
AcDbEntity
  8
Make2D$可见线$普通线
100
AcDbVertex
100
AcDb2dVertex
 10
384.894720524803
 20
96.8968823056424
 30
0.0
  0
VERTEX
  5
17B
330
14F
100
AcDbEntity
  8
Make2D$可见线$普通线
100
AcDbVertex
100
AcDb2dVertex
 10
385.3652407455012
 20
97.01121959616954
 30
0.0
  0
VERTEX
  5
17C
330
14F
100
AcDbEntity
  8
Make2D$可见线$普通线
100
AcDbVertex
100
AcDb2dVertex
 10
385.6766112347199
 20
97.03792919590909
 30
0.0
  0
VERTEX
  5
17D
330
14F
100
AcDbEntity
  8
Make2D$可见线$普通线
100
AcDbVertex
100
AcDb2dVertex
 10
385.9761811396867
 20
96.97902405472358
 30
0.0
  0
VERTEX
  5
17E
330
14F
100
AcDbEntity
  8
Make2D$可见线$普通线
100
AcDbVertex
100
AcDb2dVertex
 10
386.262976929211
 20
96.8632349263389
 30
0.0
  0
VERTEX
  5
17F
330
14F
100
AcDbEntity
  8
Make2D$可见线$普通线
100
AcDbVertex
100
AcDb2dVertex
 10
386.9221594647701
 20
96.3810965645299
 30
0.0
  0
VERTEX
  5
180
330
14F
100
AcDbEntity
  8
Make2D$可见线$普通线
100
AcDbVertex
100
AcDb2dVertex
 10
386.9603701576199
 20
96.34314010083084
 30
0.0
  0
VERTEX
  5
181
330
14F
100
AcDbEntity
  8
Make2D$可见线$普通线
100
AcDbVertex
100
AcDb2dVertex
 10
387.0049936399451
 20
96.34256103992901
 30
0.0
  0
VERTEX
  5
182
330
14F
100
AcDbEntity
  8
Make2D$可见线$普通线
100
AcDbVertex
100
AcDb2dVertex
 10
387.0238712995738
 20
96.36980122559679
 30
0.0
  0
VERTEX
  5
183
330
14F
100
AcDbEntity
  8
Make2D$可见线$普通线
100
AcDbVertex
100
AcDb2dVertex
 10
387.0092103542372
 20
96.42919626077683
 30
0.0
  0
VERTEX
  5
184
330
14F
100
AcDbEntity
  8
Make2D$可见线$普通线
100
AcDbVertex
100
AcDb2dVertex
 10
386.9156639679812
 20
96.54272972319312
 30
0.0
  0
VERTEX
  5
185
330
14F
100
AcDbEntity
  8
Make2D$可见线$普通线
100
AcDbVertex
100
AcDb2dVertex
 10
386.8164792361977
 20
96.63769884567601
 30
0.0
  0
VERTEX
  5
186
330
14F
100
AcDbEntity
  8
Make2D$可见线$普通线
100
AcDbVertex
100
AcDb2dVertex
 10
386.7783025480944
 20
96.76508792849346
 30
0.0
  0
VERTEX
  5
187
330
14F
100
AcDbEntity
  8
Make2D$可见线$普通线
100
AcDbVertex
100
AcDb2dVertex
 10
386.7460145102853
 20
96.91149321390616
 30
0.0
  0
VERTEX
  5
188
330
14F
100
AcDbEntity
  8
Make2D$可见线$普通线
100
AcDbVertex
100
AcDb2dVertex
 10
386.7778219257326
 20
97.01083883223451
 30
0.0
  0
VERTEX
  5
189
330
14F
100
AcDbEntity
  8
Make2D$可见线$普通线
100
AcDbVertex
100
AcDb2dVertex
 10
386.8269479459713
 20
97.0751425453568
 30
0.0
  0
VERTEX
  5
18A
330
14F
100
AcDbEntity
  8
Make2D$可见线$普通线
100
AcDbVertex
100
AcDb2dVertex
 10
386.8706404054644
 20
97.08394577874513
 30
0.0
  0
VERTEX
  5
18B
330
14F
100
AcDbEntity
  8
Make2D$可见线$普通线
100
AcDbVertex
100
AcDb2dVertex
 10
387.0745161851013
 20
97.01769049257278
 30
0.0
  0
VERTEX
  5
18C
330
14F
100
AcDbEntity
  8
Make2D$可见线$普通线
100
AcDbVertex
100
AcDb2dVertex
 10
387.3112307665461
 20
96.88580612978681
 30
0.0
  0
VERTEX
  5
18D
330
14F
100
AcDbEntity
  8
Make2D$可见线$普通线
100
AcDbVertex
100
AcDb2dVertex
 10
387.592779420132
 20
96.6543529836474
 30
0.0
  0
VERTEX
  5
18E
330
14F
100
AcDbEntity
  8
Make2D$可见线$普通线
100
AcDbVertex
100
AcDb2dVertex
 10
387.7185320911678
 20
96.49992216431438
 30
0.0
  0
VERTEX
  5
18F
330
14F
100
AcDbEntity
  8
Make2D$可见线$普通线
100
AcDbVertex
100
AcDb2dVertex
 10
387.8745060074002
 20
96.32822717152804
 30
0.0
  0
VERTEX
  5
190
330
14F
100
AcDbEntity
  8
Make2D$可见线$普通线
100
AcDbVertex
100
AcDb2dVertex
 10
387.9547461100825
 20
96.28816121478847
 30
0.0
  0
VERTEX
  5
191
330
14F
100
AcDbEntity
  8
Make2D$可见线$普通线
100
AcDbVertex
100
AcDb2dVertex
 10
388.0171535931098
 20
96.28086832251846
 30
0.0
  0
VERTEX
  5
192
330
14F
100
AcDbEntity
  8
Make2D$可见线$普通线
100
AcDbVertex
100
AcDb2dVertex
 10
388.0598582120348
 20
96.34613833765432
 30
0.0
  0
VERTEX
  5
193
330
14F
100
AcDbEntity
  8
Make2D$可见线$普通线
100
AcDbVertex
100
AcDb2dVertex
 10
388.0739228149609
 20
96.48379630873818
 30
0.0
  0
VERTEX
  5
194
330
14F
100
AcDbEntity
  8
Make2D$可见线$普通线
100
AcDbVertex
100
AcDb2dVertex
 10
388.0319369158951
 20
96.57396446402764
 30
0.0
  0
VERTEX
  5
195
330
14F
100
AcDbEntity
  8
Make2D$可见线$普通线
100
AcDbVertex
100
AcDb2dVertex
 10
388.0172555028628
 20
96.66716095712978
 30
0.0
  0
VERTEX
  5
196
330
14F
100
AcDbEntity
  8
Make2D$可见线$普通线
100
AcDbVertex
100
AcDb2dVertex
 10
387.9580091922451
 20
96.81671030325525
 30
0.0
  0
VERTEX
  5
197
330
14F
100
AcDbEntity
  8
Make2D$可见线$普通线
100
AcDbVertex
100
AcDb2dVertex
 10
387.812034366559
 20
97.08952900933444
 30
0.0
  0
VERTEX
  5
198
330
14F
100
AcDbEntity
  8
Make2D$可见线$普通线
100
AcDbVertex
100
AcDb2dVertex
 10
387.4424496206525
 20
97.67867506902995
 30
0.0
  0
VERTEX
  5
199
330
14F
100
AcDbEntity
  8
Make2D$可见线$普通线
100
AcDbVertex
100
AcDb2dVertex
 10
387.2636423675855
 20
97.8921207419828
 30
0.0
  0
VERTEX
  5
19A
330
14F
100
AcDbEntity
  8
Make2D$可见线$普通线
100
AcDbVertex
100
AcDb2dVertex
 10
386.8638971852038
 20
98.07757414009141
 30
0.0
  0
VERTEX
  5
19B
330
14F
100
AcDbEntity
  8
Make2D$可见线$普通线
100
AcDbVertex
100
AcDb2dVertex
 10
386.7283357803014
 20
98.14458210958001
 30
0.0
  0
VERTEX
  5
19C
330
14F
100
AcDbEntity
  8
Make2D$可见线$普通线
100
AcDbVertex
100
AcDb2dVertex
 10
386.6105486304413
 20
98.16840841557699
 30
0.0
  0
VERTEX
  5
19D
330
14F
100
AcDbEntity
  8
Make2D$可见线$普通线
100
AcDbVertex
100
AcDb2dVertex
 10
386.4680462180188
 20
98.29494444638736
 30
0.0
  0
VERTEX
  5
19E
330
14F
100
AcDbEntity
  8
Make2D$可见线$普通线
100
AcDbVertex
100
AcDb2dVertex
 10
386.2034526057172
 20
98.4157055927469
 30
0.0
  0
VERTEX
  5
19F
330
14F
100
AcDbEntity
  8
Make2D$可见线$普通线
100
AcDbVertex
100
AcDb2dVertex
 10
385.9395541184466
 20
98.61586061014474
 30
0.0
  0
VERTEX
  5
1A0
330
14F
100
AcDbEntity
  8
Make2D$可见线$普通线
100
AcDbVertex
100
AcDb2dVertex
 10
385.679809511489
 20
98.74616794736924
 30
0.0
  0
VERTEX
  5
1A1
330
14F
100
AcDbEntity
  8
Make2D$可见线$普通线
100
AcDbVertex
100
AcDb2dVertex
 10
385.5498719280266
 20
98.8492512054638
 30
0.0
  0
VERTEX
  5
1A2
330
14F
100
AcDbEntity
  8
Make2D$可见线$普通线
100
AcDbVertex
100
AcDb2dVertex
 10
385.2630362753136
 20
99.00837649689832
 30
0.0
  0
VERTEX
  5
1A3
330
14F
100
AcDbEntity
  8
Make2D$可见线$普通线
100
AcDbVertex
100
AcDb2dVertex
 10
384.1998154364711
 20
99.912230855188
 30
0.0
  0
VERTEX
  5
1A4
330
14F
100
AcDbEntity
  8
Make2D$可见线$普通线
100
AcDbVertex
100
AcDb2dVertex
 10
383.6887925238503
 20
100.5197557936522
 30
0.0
  0
VERTEX
  5
1A5
330
14F
100
AcDbEntity
  8
Make2D$可见线$普通线
100
AcDbVertex
100
AcDb2dVertex
 10
383.5242574209738
 20
100.7413241885455
 30
0.0
  0
VERTEX
  5
1A6
330
14F
100
AcDbEntity
  8
Make2D$可见线$普通线
100
AcDbVertex
100
AcDb2dVertex
 10
383.4888486563611
 20
100.8646704146122
 30
0.0
  0
VERTEX
  5
1A7
330
14F
100
AcDbEntity
  8
Make2D$可见线$普通线
100
AcDbVertex
100
AcDb2dVertex
 10
383.5193802417878
 20
100.9640359097111
 30
0.0
  0
VERTEX
  5
1A8
330
14F
100
AcDbEntity
  8
Make2D$可见线$普通线
100
AcDbVertex
100
AcDb2dVertex
 10
383.6219829612733
 20
100.9901458116999
 30
0.0
  0
VERTEX
  5
1A9
330
14F
100
AcDbEntity
  8
Make2D$可见线$普通线
100
AcDbVertex
100
AcDb2dVertex
 10
383.7800640139741
 20
100.9591963983379
 30
0.0
  0
VERTEX
  5
1AA
330
14F
100
AcDbEntity
  8
Make2D$可见线$普通线
100
AcDbVertex
100
AcDb2dVertex
 10
384.0959167455277
 20
100.7395542649517
 30
0.0
  0
VERTEX
  5
1AB
330
14F
100
AcDbEntity
  8
Make2D$可见线$普通线
100
AcDbVertex
100
AcDb2dVertex
 10
384.361998713045
 20
100.5130821905856
 30
0.0
  0
VERTEX
  5
1AC
330
14F
100
AcDbEntity
  8
Make2D$可见线$普通线
100
AcDbVertex
100
AcDb2dVertex
 10
384.638783180232
 20
100.355488580807
 30
0.0
  0
VERTEX
  5
1AD
330
14F
100
AcDbEntity
  8
Make2D$可见线$普通线
100
AcDbVertex
100
AcDb2dVertex
 10
384.8194022436649
 20
100.2237604544944
 30
0.0
  0
VERTEX
  5
1AE
330
14F
100
AcDbEntity
  8
Make2D$可见线$普通线
100
AcDbVertex
100
AcDb2dVertex
 10
385.1141801066246
 20
99.9948776470877
 30
0.0
  0
VERTEX
  5
1AF
330
14F
100
AcDbEntity
  8
Make2D$可见线$普通线
100
AcDbVertex
100
AcDb2dVertex
 10
385.2303265059542
 20
99.92045127007485
 30
0.0
  0
VERTEX
  5
1B0
330
14F
100
AcDbEntity
  8
Make2D$可见线$普通线
100
AcDbVertex
100
AcDb2dVertex
 10
385.3310369529142
 20
99.83499428095773
 30
0.0
  0
VERTEX
  5
1B1
330
14F
100
AcDbEntity
  8
Make2D$可见线$普通线
100
AcDbVertex
100
AcDb2dVertex
 10
385.4164194922779
 20
99.80655052996222
 30
0.0
  0
VERTEX
  5
1B2
330
14F
100
AcDbEntity
  8
Make2D$可见线$普通线
100
AcDbVertex
100
AcDb2dVertex
 10
385.8558794297274
 20
99.42966470401585
 30
0.0
  0
VERTEX
  5
1B3
330
14F
100
AcDbEntity
  8
Make2D$可见线$普通线
100
AcDbVertex
100
AcDb2dVertex
 10
386.0715444247905
 20
99.30903583461064
 30
0.0
  0
VERTEX
  5
1B4
330
14F
100
AcDbEntity
  8
Make2D$可见线$普通线
100
AcDbVertex
100
AcDb2dVertex
 10
386.4265195640181
 20
99.01272085595745
 30
0.0
  0
VERTEX
  5
1B5
330
14F
100
AcDbEntity
  8
Make2D$可见线$普通线
100
AcDbVertex
100
AcDb2dVertex
 10
386.685789611295
 20
98.77774467169836
 30
0.0
  0
VERTEX
  5
1B6
330
14F
100
AcDbEntity
  8
Make2D$可见线$普通线
100
AcDbVertex
100
AcDb2dVertex
 10
387.3059995529171
 20
98.16705920703349
 30
0.0
  0
VERTEX
  5
1B7
330
14F
100
AcDbEntity
  8
Make2D$可见线$普通线
100
AcDbVertex
100
AcDb2dVertex
 10
387.4273024601684
 20
98.13562965421043
 30
0.0
  0
VERTEX
  5
1B8
330
14F
100
AcDbEntity
  8
Make2D$可见线$普通线
100
AcDbVertex
100
AcDb2dVertex
 10
387.668232647591
 20
98.16050003719555
 30
0.0
  0
VERTEX
  5
1B9
330
14F
100
AcDbEntity
  8
Make2D$可见线$普通线
100
AcDbVertex
100
AcDb2dVertex
 10
387.8332460295914
 20
98.30480485246413
 30
0.0
  0
VERTEX
  5
1BA
330
14F
100
AcDbEntity
  8
Make2D$可见线$普通线
100
AcDbVertex
100
AcDb2dVertex
 10
387.8969621212491
 20
98.5009275916294
 30
0.0
  0
VERTEX
  5
1BB
330
14F
100
AcDbEntity
  8
Make2D$可见线$普通线
100
AcDbVertex
100
AcDb2dVertex
 10
387.8521328497185
 20
98.77064602993538
 30
0.0
  0
VERTEX
  5
1BC
330
14F
100
AcDbEntity
  8
Make2D$可见线$普通线
100
AcDbVertex
100
AcDb2dVertex
 10
387.7967577870805
 20
98.87125815990201
 30
0.0
  0
VERTEX
  5
1BD
330
14F
100
AcDbEntity
  8
Make2D$可见线$普通线
100
AcDbVertex
100
AcDb2dVertex
 10
387.7868751432061
 20
98.9618127844103
 30
0.0
  0
VERTEX
  5
1BE
330
14F
100
AcDbEntity
  8
Make2D$可见线$普通线
100
AcDbVertex
100
AcDb2dVertex
 10
387.5878264860366
 20
99.32119749983711
 30
0.0
  0
VERTEX
  5
1BF
330
14F
100
AcDbEntity
  8
Make2D$可见线$普通线
100
AcDbVertex
100
AcDb2dVertex
 10
387.2564332682985
 20
99.71438998927589
 30
0.0
  0
VERTEX
  5
1C0
330
14F
100
AcDbEntity
  8
Make2D$可见线$普通线
100
AcDbVertex
100
AcDb2dVertex
 10
387.0535045577894
 20
99.93725999459592
 30
0.0
  0
VERTEX
  5
1C1
330
14F
100
AcDbEntity
  8
Make2D$可见线$普通线
100
AcDbVertex
100
AcDb2dVertex
 10
386.9971969249925
 20
100.0933529933315
 30
0.0
  0
VERTEX
  5
1C2
330
14F
100
AcDbEntity
  8
Make2D$可见线$普通线
100
AcDbVertex
100
AcDb2dVertex
 10
386.9962010677622
 20
100.1682824379492
 30
0.0
  0
VERTEX
  5
1C3
330
14F
100
AcDbEntity
  8
Make2D$可见线$普通线
100
AcDbVertex
100
AcDb2dVertex
 10
387.0759535062311
 20
100.2986452483652
 30
0.0
  0
VERTEX
  5
1C4
330
14F
100
AcDbEntity
  8
Make2D$可见线$普通线
100
AcDbVertex
100
AcDb2dVertex
 10
387.169322561839
 20
100.3458219658017
 30
0.0
  0
VERTEX
  5
1C5
330
14F
100
AcDbEntity
  8
Make2D$可见线$普通线
100
AcDbVertex
100
AcDb2dVertex
 10
387.2784520303219
 20
100.3230460399387
 30
0.0
  0
VERTEX
  5
1C6
330
14F
100
AcDbEntity
  8
Make2D$可见线$普通线
100
AcDbVertex
100
AcDb2dVertex
 10
387.3498563618367
 20
100.2818357870608
 30
0.0
  0
VERTEX
  5
1C7
330
14F
100
AcDbEntity
  8
Make2D$可见线$普通线
100
AcDbVertex
100
AcDb2dVertex
 10
387.5453670875477
 20
100.2497922382235
 30
0.0
  0
VERTEX
  5
1C8
330
14F
100
AcDbEntity
  8
Make2D$可见线$普通线
100
AcDbVertex
100
AcDb2dVertex
 10
387.6415939625651
 20
100.2804813962434
 30
0.0
  0
VERTEX
  5
1C9
330
14F
100
AcDbEntity
  8
Make2D$可见线$普通线
100
AcDbVertex
100
AcDb2dVertex
 10
387.6893463501662
 20
100.3404863143223
 30
0.0
  0
VERTEX
  5
1CA
330
14F
100
AcDbEntity
  8
Make2D$可见线$普通线
100
AcDbVertex
100
AcDb2dVertex
 10
387.6955957093367
 20
100.4674154509181
 30
0.0
  0
VERTEX
  5
1CB
330
14F
100
AcDbEntity
  8
Make2D$可见线$普通线
100
AcDbVertex
100
AcDb2dVertex
 10
387.6759445494085
 20
100.615196004355
 30
0.0
  0
VERTEX
  5
1CC
330
14F
100
AcDbEntity
  8
Make2D$可见线$普通线
100
AcDbVertex
100
AcDb2dVertex
 10
387.6536752460995
 20
100.7212232858143
 30
0.0
  0
VERTEX
  5
1CD
330
14F
100
AcDbEntity
  8
Make2D$可见线$普通线
100
AcDbVertex
100
AcDb2dVertex
 10
387.4504185221952
 20
101.1600007561211
 30
0.0
  0
VERTEX
  5
1CE
330
14F
100
AcDbEntity
  8
Make2D$可见线$普通线
100
AcDbVertex
100
AcDb2dVertex
 10
387.3521859556601
 20
101.3381961515353
 30
0.0
  0
VERTEX
  5
1CF
330
14F
100
AcDbEntity
  8
Make2D$可见线$普通线
100
AcDbVertex
100
AcDb2dVertex
 10
387.1356248513196
 20
101.6648791144661
 30
0.0
  0
VERTEX
  5
1D0
330
14F
100
AcDbEntity
  8
Make2D$可见线$普通线
100
AcDbVertex
100
AcDb2dVertex
 10
387.0523671797278
 20
101.8029365073983
 30
0.0
  0
VERTEX
  5
1D1
330
14F
100
AcDbEntity
  8
Make2D$可见线$普通线
100
AcDbVertex
100
AcDb2dVertex
 10
387.0214597631319
 20
101.8964012649597
 30
0.0
  0
VERTEX
  5
1D2
330
14F
100
AcDbEntity
  8
Make2D$可见线$普通线
100
AcDbVertex
100
AcDb2dVertex
 10
386.8820021779298
 20
102.0452621994035
 30
0.0
  0
VERTEX
  5
1D3
330
14F
100
AcDbEntity
  8
Make2D$可见线$普通线
100
AcDbVertex
100
AcDb2dVertex
 10
386.775616964925
 20
102.1862764585255
 30
0.0
  0
VERTEX
  5
1D4
330
14F
100
AcDbEntity
  8
Make2D$可见线$普通线
100
AcDbVertex
100
AcDb2dVertex
 10
386.67039647531
 20
102.3795692246532
 30
0.0
  0
VERTEX
  5
1D5
330
14F
100
AcDbEntity
  8
Make2D$可见线$普通线
100
AcDbVertex
100
AcDb2dVertex
 10
386.5268104397102
 20
102.5698312706813
 30
0.0
  0
VERTEX
  5
1D6
330
14F
100
AcDbEntity
  8
Make2D$可见线$普通线
100
AcDbVertex
100
AcDb2dVertex
 10
386.2920022664539
 20
102.8383217090327
 30
0.0
  0
VERTEX
  5
1D7
330
14F
100
AcDbEntity
  8
Make2D$可见线$普通线
100
AcDbVertex
100
AcDb2dVertex
 10
386.0682178771369
 20
103.1458481608591
 30
0.0
  0
VERTEX
  5
1D8
330
14F
100
AcDbEntity
  8
Make2D$可见线$普通线
100
AcDbVertex
100
AcDb2dVertex
 10
385.8022802235409
 20
103.4118638030819
 30
0.0
  0
VERTEX
  5
1D9
330
14F
100
AcDbEntity
  8
Make2D$可见线$普通线
100
AcDbVertex
100
AcDb2dVertex
 10
385.7149800579799
 20
103.4918562480394
 30
0.0
  0
VERTEX
  5
1DA
330
14F
100
AcDbEntity
  8
Make2D$可见线$普通线
100
AcDbVertex
100
AcDb2dVertex
 10
385.379206726452
 20
103.8470683645294
 30
0.0
  0
VERTEX
  5
1DB
330
14F
100
AcDbEntity
  8
Make2D$可见线$普通线
100
AcDbVertex
100
AcDb2dVertex
 10
384.9911160990867
 20
104.1712020263435
 30
0.0
  0
VERTEX
  5
1DC
330
14F
100
AcDbEntity
  8
Make2D$可见线$普通线
100
AcDbVertex
100
AcDb2dVertex
 10
384.6977779102339
 20
104.4720812575905
 30
0.0
  0
VERTEX
  5
1DD
330
14F
100
AcDbEntity
  8
Make2D$可见线$普通线
100
AcDbVertex
100
AcDb2dVertex
 10
384.391719325107
 20
104.7394125923545
 30
0.0
  0
VERTEX
  5
1DE
330
14F
100
AcDbEntity
  8
Make2D$可见线$普通线
100
AcDbVertex
100
AcDb2dVertex
 10
383.9006577857382
 20
105.2482052502062
 30
0.0
  0
VERTEX
  5
1DF
330
14F
100
AcDbEntity
  8
Make2D$可见线$普通线
100
AcDbVertex
100
AcDb2dVertex
 10
383.6123243881113
 20
105.5130221092013
 30
0.0
  0
VERTEX
  5
1E0
330
14F
100
AcDbEntity
  8
Make2D$可见线$普通线
100
AcDbVertex
100
AcDb2dVertex
 10
383.3819551315394
 20
105.6920940272134
 30
0.0
  0
VERTEX
  5
1E1
330
14F
100
AcDbEntity
  8
Make2D$可见线$普通线
100
AcDbVertex
100
AcDb2dVertex
 10
383.3042696323544
 20
105.8272576186758
 30
0.0
  0
VERTEX
  5
1E2
330
14F
100
AcDbEntity
  8
Make2D$可见线$普通线
100
AcDbVertex
100
AcDb2dVertex
 10
383.2925379373136
 20
105.9277129112059
 30
0.0
  0
VERTEX
  5
1E3
330
14F
100
AcDbEntity
  8
Make2D$可见线$普通线
100
AcDbVertex
100
AcDb2dVertex
 10
383.3285896057749
 20
105.9912568745259
 30
0.0
  0
VERTEX
  5
1E4
330
14F
100
AcDbEntity
  8
Make2D$可见线$普通线
100
AcDbVertex
100
AcDb2dVertex
 10
383.3989035560971
 20
106.032771364764
 30
0.0
  0
VERTEX
  5
1E5
330
14F
100
AcDbEntity
  8
Make2D$可见线$普通线
100
AcDbVertex
100
AcDb2dVertex
 10
383.5321262852088
 20
105.9927494020318
 30
0.0
  0
VERTEX
  5
1E6
330
14F
100
AcDbEntity
  8
Make2D$可见线$普通线
100
AcDbVertex
100
AcDb2dVertex
 10
383.6407214407473
 20
105.8894352522357
 30
0.0
  0
VERTEX
  5
1E7
330
14F
100
AcDbEntity
  8
Make2D$可见线$普通线
100
AcDbVertex
100
AcDb2dVertex
 10
383.7482426640312
 20
105.7428931764268
 30
0.0
  0
VERTEX
  5
1E8
330
14F
100
AcDbEntity
  8
Make2D$可见线$普通线
100
AcDbVertex
100
AcDb2dVertex
 10
383.8985636958272
 20
105.5999701302227
 30
0.0
  0
VERTEX
  5
1E9
330
14F
100
AcDbEntity
  8
Make2D$可见线$普通线
100
AcDbVertex
100
AcDb2dVertex
 10
383.9916439593733
 20
105.5222968360981
 30
0.0
  0
VERTEX
  5
1EA
330
14F
100
AcDbEntity
  8
Make2D$可见线$普通线
100
AcDbVertex
100
AcDb2dVertex
 10
384.3651287873197
 20
105.1190406949387
 30
0.0
  0
VERTEX
  5
1EB
330
14F
100
AcDbEntity
  8
Make2D$可见线$普通线
100
AcDbVertex
100
AcDb2dVertex
 10
384.6388367205548
 20
104.8449165838679
 30
0.0
  0
VERTEX
  5
1EC
330
14F
100
AcDbEntity
  8
Make2D$可见线$普通线
100
AcDbVertex
100
AcDb2dVertex
 10
384.7894757228535
 20
104.6827980933975
 30
0.0
  0
VERTEX
  5
1ED
330
14F
100
AcDbEntity
  8
Make2D$可见线$普通线
100
AcDbVertex
100
AcDb2dVertex
 10
385.0437050719949
 20
104.4934284436675
 30
0.0
  0
VERTEX
  5
1EE
330
14F
100
AcDbEntity
  8
Make2D$可见线$普通线
100
AcDbVertex
100
AcDb2dVertex
 10
385.3203621029716
 20
104.2206238336015
 30
0.0
  0
VERTEX
  5
1EF
330
14F
100
AcDbEntity
  8
Make2D$可见线$普通线
100
AcDbVertex
100
AcDb2dVertex
 10
385.5074193663098
 20
104.0180065937641
 30
0.0
  0
VERTEX
  5
1F0
330
14F
100
AcDbEntity
  8
Make2D$可见线$普通线
100
AcDbVertex
100
AcDb2dVertex
 10
385.840708260932
 20
103.7831719537759
 30
0.0
  0
VERTEX
  5
1F1
330
14F
100
AcDbEntity
  8
Make2D$可见线$普通线
100
AcDbVertex
100
AcDb2dVertex
 10
386.0644928803194
 20
103.5822015766204
 30
0.0
  0
VERTEX
  5
1F2
330
14F
100
AcDbEntity
  8
Make2D$可见线$普通线
100
AcDbVertex
100
AcDb2dVertex
 10
386.329202465696
 20
103.3701171611908
 30
0.0
  0
VERTEX
  5
1F3
330
14F
100
AcDbEntity
  8
Make2D$可见线$普通线
100
AcDbVertex
100
AcDb2dVertex
 10
386.618126107297
 20
103.186750513091
 30
0.0
  0
VERTEX
  5
1F4
330
14F
100
AcDbEntity
  8
Make2D$可见线$普通线
100
AcDbVertex
100
AcDb2dVertex
 10
386.7784469143679
 20
103.0129270506351
 30
0.0
  0
VERTEX
  5
1F5
330
14F
100
AcDbEntity
  8
Make2D$可见线$普通线
100
AcDbVertex
100
AcDb2dVertex
 10
387.1362231522842
 20
102.7968070648061
 30
0.0
  0
VERTEX
  5
1F6
330
14F
100
AcDbEntity
  8
Make2D$可见线$普通线
100
AcDbVertex
100
AcDb2dVertex
 10
387.3939177867719
 20
102.5483843865317
 30
0.0
  0
VERTEX
  5
1F7
330
14F
100
AcDbEntity
  8
Make2D$可见线$普通线
100
AcDbVertex
100
AcDb2dVertex
 10
387.5658289778281
 20
102.4691964521725
 30
0.0
  0
VERTEX
  5
1F8
330
14F
100
AcDbEntity
  8
Make2D$可见线$普通线
100
AcDbVertex
100
AcDb2dVertex
 10
387.6750886547384
 20
102.4554985993448
 30
0.0
  0
VERTEX
  5
1F9
330
14F
100
AcDbEntity
  8
Make2D$可见线$普通线
100
AcDbVertex
100
AcDb2dVertex
 10
387.7358251432109
 20
102.4830173298679
 30
0.0
  0
VERTEX
  5
1FA
330
14F
100
AcDbEntity
  8
Make2D$可见线$普通线
100
AcDbVertex
100
AcDb2dVertex
 10
387.7724856860844
 20
102.592206412096
 30
0.0
  0
VERTEX
  5
1FB
330
14F
100
AcDbEntity
  8
Make2D$可见线$普通线
100
AcDbVertex
100
AcDb2dVertex
 10
387.7385844859885
 20
102.7588357252643
 30
0.0
  0
VERTEX
  5
1FC
330
14F
100
AcDbEntity
  8
Make2D$可见线$普通线
100
AcDbVertex
100
AcDb2dVertex
 10
387.7168267011953
 20
102.9330414099402
 30
0.0
  0
VERTEX
  5
1FD
330
14F
100
AcDbEntity
  8
Make2D$可见线$普通线
100
AcDbVertex
100
AcDb2dVertex
 10
387.7170771530101
 20
103.0256600043417
 30
0.0
  0
VERTEX
  5
1FE
330
14F
100
AcDbEntity
  8
Make2D$可见线$普通线
100
AcDbVertex
100
AcDb2dVertex
 10
387.6849136593993
 20
103.0868894897436
 30
0.0
  0
VERTEX
  5
1FF
330
14F
100
AcDbEntity
  8
Make2D$可见线$普通线
100
AcDbVertex
100
AcDb2dVertex
 10
387.6453543073229
 20
103.3991316614895
 30
0.0
  0
VERTEX
  5
200
330
14F
100
AcDbEntity
  8
Make2D$可见线$普通线
100
AcDbVertex
100
AcDb2dVertex
 10
387.5950592568499
 20
103.4869880183795
 30
0.0
  0
VERTEX
  5
201
330
14F
100
AcDbEntity
  8
Make2D$可见线$普通线
100
AcDbVertex
100
AcDb2dVertex
 10
387.5694405846989
 20
103.6971918747334
 30
0.0
  0
VERTEX
  5
202
330
14F
100
AcDbEntity
  8
Make2D$可见线$普通线
100
AcDbVertex
100
AcDb2dVertex
 10
387.5300482735059
 20
103.769418544513
 30
0.0
  0
VERTEX
  5
203
330
14F
100
AcDbEntity
  8
Make2D$可见线$普通线
100
AcDbVertex
100
AcDb2dVertex
 10
387.4730382748729
 20
103.9777960652594
 30
0.0
  0
VERTEX
  5
204
330
14F
100
AcDbEntity
  8
Make2D$可见线$普通线
100
AcDbVertex
100
AcDb2dVertex
 10
387.3455144346852
 20
104.1242649052844
 30
0.0
  0
VERTEX
  5
205
330
14F
100
AcDbEntity
  8
Make2D$可见线$普通线
100
AcDbVertex
100
AcDb2dVertex
 10
387.1672671550855
 20
104.2748465404888
 30
0.0
  0
VERTEX
  5
206
330
14F
100
AcDbEntity
  8
Make2D$可见线$普通线
100
AcDbVertex
100
AcDb2dVertex
 10
387.0175283108046
 20
104.4749094371082
 30
0.0
  0
VERTEX
  5
207
330
14F
100
AcDbEntity
  8
Make2D$可见线$普通线
100
AcDbVertex
100
AcDb2dVertex
 10
386.9461468879144
 20
104.6860447960432
 30
0.0
  0
VERTEX
  5
208
330
14F
100
AcDbEntity
  8
Make2D$可见线$普通线
100
AcDbVertex
100
AcDb2dVertex
 10
386.9315561177861
 20
104.7799512716709
 30
0.0
  0
VERTEX
  5
209
330
14F
100
AcDbEntity
  8
Make2D$可见线$普通线
100
AcDbVertex
100
AcDb2dVertex
 10
386.8888806230952
 20
104.8874053323322
 30
0.0
  0
VERTEX
  5
20A
330
14F
100
AcDbEntity
  8
Make2D$可见线$普通线
100
AcDbVertex
100
AcDb2dVertex
 10
386.8900681282215
 20
104.965294207193
 30
0.0
  0
VERTEX
  5
20B
330
14F
100
AcDbEntity
  8
Make2D$可见线$普通线
100
AcDbVertex
100
AcDb2dVertex
 10
386.8778163609966
 20
105.0489176071757
 30
0.0
  0
VERTEX
  5
20C
330
14F
100
AcDbEntity
  8
Make2D$可见线$普通线
100
AcDbVertex
100
AcDb2dVertex
 10
386.9545786444637
 20
105.3573126746712
 30
0.0
  0
VERTEX
  5
20D
330
14F
100
AcDbEntity
  8
Make2D$可见线$普通线
100
AcDbVertex
100
AcDb2dVertex
 10
387.0649824712416
 20
105.4924955099079
 30
0.0
  0
VERTEX
  5
20E
330
14F
100
AcDbEntity
  8
Make2D$可见线$普通线
100
AcDbVertex
100
AcDb2dVertex
 10
387.0995288500193
 20
105.5582127148528
 30
0.0
  0
VERTEX
  5
20F
330
14F
100
AcDbEntity
  8
Make2D$可见线$普通线
100
AcDbVertex
100
AcDb2dVertex
 10
387.1205275771404
 20
105.6794901313024
 30
0.0
  0
VERTEX
  5
210
330
14F
100
AcDbEntity
  8
Make2D$可见线$普通线
100
AcDbVertex
100
AcDb2dVertex
 10
387.2426470013928
 20
105.9927827340983
 30
0.0
  0
VERTEX
  5
211
330
14F
100
AcDbEntity
  8
Make2D$可见线$普通线
100
AcDbVertex
100
AcDb2dVertex
 10
387.3415225724204
 20
106.1910499132443
 30
0.0
  0
VERTEX
  5
212
330
14F
100
AcDbEntity
  8
Make2D$可见线$普通线
100
AcDbVertex
100
AcDb2dVertex
 10
387.5242044693725
 20
106.3558540057112
 30
0.0
  0
VERTEX
  5
213
330
14F
100
AcDbEntity
  8
Make2D$可见线$普通线
100
AcDbVertex
100
AcDb2dVertex
 10
387.5682993865469
 20
106.5064580286801
 30
0.0
  0
VERTEX
  5
214
330
14F
100
AcDbEntity
  8
Make2D$可见线$普通线
100
AcDbVertex
100
AcDb2dVertex
 10
387.5032928902118
 20
106.6669856985628
 30
0.0
  0
VERTEX
  5
215
330
14F
100
AcDbEntity
  8
Make2D$可见线$普通线
100
AcDbVertex
100
AcDb2dVertex
 10
387.2496329351089
 20
107.1054636052714
 30
0.0
  0
VERTEX
  5
216
330
14F
100
AcDbEntity
  8
Make2D$可见线$普通线
100
AcDbVertex
100
AcDb2dVertex
 10
387.2575679744943
 20
107.3007907051838
 30
0.0
  0
VERTEX
  5
217
330
14F
100
AcDbEntity
  8
Make2D$可见线$普通线
100
AcDbVertex
100
AcDb2dVertex
 10
387.4951919954174
 20
107.6091941854306
 30
0.0
  0
VERTEX
  5
218
330
14F
100
AcDbEntity
  8
Make2D$可见线$普通线
100
AcDbVertex
100
AcDb2dVertex
 10
387.5764341424535
 20
108.0549965200058
 30
0.0
  0
VERTEX
  5
219
330
14F
100
AcDbEntity
  8
Make2D$可见线$普通线
100
AcDbVertex
100
AcDb2dVertex
 10
387.6205219259332
 20
108.2309434361094
 30
0.0
  0
VERTEX
  5
21A
330
14F
100
AcDbEntity
  8
Make2D$可见线$普通线
100
AcDbVertex
100
AcDb2dVertex
 10
387.6652263048929
 20
108.6431106808703
 30
0.0
  0
VERTEX
  5
21B
330
14F
100
AcDbEntity
  8
Make2D$可见线$普通线
100
AcDbVertex
100
AcDb2dVertex
 10
387.6337426203948
 20
109.0552387362666
 30
0.0
  0
VERTEX
  5
21C
330
14F
100
AcDbEntity
  8
Make2D$可见线$普通线
100
AcDbVertex
100
AcDb2dVertex
 10
387.6636722265393
 20
109.385540350702
 30
0.0
  0
VERTEX
  5
21D
330
14F
100
AcDbEntity
  8
Make2D$可见线$普通线
100
AcDbVertex
100
AcDb2dVertex
 10
387.653485835473
 20
109.6300465880538
 30
0.0
  0
VERTEX
  5
21E
330
14F
100
AcDbEntity
  8
Make2D$可见线$普通线
100
AcDbVertex
100
AcDb2dVertex
 10
387.7084438430544
 20
109.8597104578752
 30
0.0
  0
VERTEX
  5
21F
330
14F
100
AcDbEntity
  8
Make2D$可见线$普通线
100
AcDbVertex
100
AcDb2dVertex
 10
387.6954072595605
 20
110.3844893945072
 30
0.0
  0
VERTEX
  5
220
330
14F
100
AcDbEntity
  8
Make2D$可见线$普通线
100
AcDbVertex
100
AcDb2dVertex
 10
387.7254792480093
 20
110.7982081852042
 30
0.0
  0
VERTEX
  5
221
330
14F
100
AcDbEntity
  8
Make2D$可见线$普通线
100
AcDbVertex
100
AcDb2dVertex
 10
387.6707712099292
 20
110.9342411491934
 30
0.0
  0
VERTEX
  5
222
330
14F
100
AcDbEntity
  8
Make2D$可见线$普通线
100
AcDbVertex
100
AcDb2dVertex
 10
387.642971804364
 20
111.1305144317745
 30
0.0
  0
VERTEX
  5
223
330
14F
100
AcDbEntity
  8
Make2D$可见线$普通线
100
AcDbVertex
100
AcDb2dVertex
 10
387.6658959681387
 20
111.2184073208737
 30
0.0
  0
VERTEX
  5
224
330
14F
100
AcDbEntity
  8
Make2D$可见线$普通线
100
AcDbVertex
100
AcDb2dVertex
 10
387.7034250674664
 20
111.2280549038074
 30
0.0
  0
VERTEX
  5
225
330
14F
100
AcDbEntity
  8
Make2D$可见线$普通线
100
AcDbVertex
100
AcDb2dVertex
 10
387.7705731068074
 20
111.1910912178553
 30
0.0
  0
VERTEX
  5
226
330
14F
100
AcDbEntity
  8
Make2D$可见线$普通线
100
AcDbVertex
100
AcDb2dVertex
 10
387.8268701821589
 20
111.0444016416935
 30
0.0
 42
-0.0159570440951223
  0
VERTEX
  5
227
330
14F
100
AcDbEntity
  8
Make2D$可见线$普通线
100
AcDbVertex
100
AcDb2dVertex
 10
387.8938500076949
 20
108.4229111179767
 30
0.0
  0
VERTEX
  5
228
330
14F
100
AcDbEntity
  8
Make2D$可见线$普通线
100
AcDbVertex
100
AcDb2dVertex
 10
387.8078629274019
 20
107.6468266084835
 30
0.0
  0
VERTEX
  5
229
330
14F
100
AcDbEntity
  8
Make2D$可见线$普通线
100
AcDbVertex
100
AcDb2dVertex
 10
387.7171173077662
 20
107.2833686657059
 30
0.0
  0
VERTEX
  5
22A
330
14F
100
AcDbEntity
  8
Make2D$可见线$普通线
100
AcDbVertex
100
AcDb2dVertex
 10
387.6396821647937
 20
107.1443483661999
 30
0.0
  0
VERTEX
  5
22B
330
14F
100
AcDbEntity
  8
Make2D$可见线$普通线
100
AcDbVertex
100
AcDb2dVertex
 10
387.6264146163987
 20
106.9964414640807
 30
0.0
  0
VERTEX
  5
22C
330
14F
100
AcDbEntity
  8
Make2D$可见线$普通线
100
AcDbVertex
100
AcDb2dVertex
 10
387.7184260360812
 20
106.8199885433284
 30
0.0
  0
VERTEX
  5
22D
330
14F
100
AcDbEntity
  8
Make2D$可见线$普通线
100
AcDbVertex
100
AcDb2dVertex
 10
387.9995893206931
 20
106.4479253655639
 30
0.0
  0
VERTEX
  5
22E
330
14F
100
AcDbEntity
  8
Make2D$可见线$普通线
100
AcDbVertex
100
AcDb2dVertex
 10
388.1170141157217
 20
106.3175150883434
 30
0.0
  0
VERTEX
  5
22F
330
14F
100
AcDbEntity
  8
Make2D$可见线$普通线
100
AcDbVertex
100
AcDb2dVertex
 10
388.1396993509472
 20
106.1664657772874
 30
0.0
  0
VERTEX
  5
230
330
14F
100
AcDbEntity
  8
Make2D$可见线$普通线
100
AcDbVertex
100
AcDb2dVertex
 10
388.0780699221356
 20
106.0654806671345
 30
0.0
  0
VERTEX
  5
231
330
14F
100
AcDbEntity
  8
Make2D$可见线$普通线
100
AcDbVertex
100
AcDb2dVertex
 10
387.9627656881472
 20
106.0490901713683
 30
0.0
  0
VERTEX
  5
232
330
14F
100
AcDbEntity
  8
Make2D$可见线$普通线
100
AcDbVertex
100
AcDb2dVertex
 10
387.7935881215976
 20
106.1121174823396
 30
0.0
  0
VERTEX
  5
233
330
14F
100
AcDbEntity
  8
Make2D$可见线$普通线
100
AcDbVertex
100
AcDb2dVertex
 10
387.6726920381106
 20
106.0748352053272
 30
0.0
  0
VERTEX
  5
234
330
14F
100
AcDbEntity
  8
Make2D$可见线$普通线
100
AcDbVertex
100
AcDb2dVertex
 10
387.5228264227607
 20
105.8877064783078
 30
0.0
  0
VERTEX
  5
235
330
14F
100
AcDbEntity
  8
Make2D$可见线$普通线
100
AcDbVertex
100
AcDb2dVertex
 10
387.4447411629274
 20
105.676433508448
 30
0.0
  0
VERTEX
  5
236
330
14F
100
AcDbEntity
  8
Make2D$可见线$普通线
100
AcDbVertex
100
AcDb2dVertex
 10
387.468858571661
 20
105.6258825203328
 30
0.0
  0
VERTEX
  5
237
330
14F
100
AcDbEntity
  8
Make2D$可见线$普通线
100
AcDbVertex
100
AcDb2dVertex
 10
387.536186140245
 20
105.6061141602356
 30
0.0
  0
VERTEX
  5
238
330
14F
100
AcDbEntity
  8
Make2D$可见线$普通线
100
AcDbVertex
100
AcDb2dVertex
 10
387.7399425470429
 20
105.6084978060372
 30
0.0
  0
VERTEX
  5
239
330
14F
100
AcDbEntity
  8
Make2D$可见线$普通线
100
AcDbVertex
100
AcDb2dVertex
 10
387.8397163278534
 20
105.5798336741366
 30
0.0
  0
VERTEX
  5
23A
330
14F
100
AcDbEntity
  8
Make2D$可见线$普通线
100
AcDbVertex
100
AcDb2dVertex
 10
387.9360084127579
 20
105.4879449929825
 30
0.0
  0
VERTEX
  5
23B
330
14F
100
AcDbEntity
  8
Make2D$可见线$普通线
100
AcDbVertex
100
AcDb2dVertex
 10
388.0313495570725
 20
105.3227717515721
 30
0.0
  0
VERTEX
  5
23C
330
14F
100
AcDbEntity
  8
Make2D$可见线$普通线
100
AcDbVertex
100
AcDb2dVertex
 10
388.1491729668861
 20
104.8821739091342
 30
0.0
  0
VERTEX
  5
23D
330
14F
100
AcDbEntity
  8
Make2D$可见线$普通线
100
AcDbVertex
100
AcDb2dVertex
 10
388.1691607144388
 20
104.6210171297792
 30
0.0
  0
VERTEX
  5
23E
330
14F
100
AcDbEntity
  8
Make2D$可见线$普通线
100
AcDbVertex
100
AcDb2dVertex
 10
388.0746103647911
 20
104.2471698529007
 30
0.0
  0
VERTEX
  5
23F
330
14F
100
AcDbEntity
  8
Make2D$可见线$普通线
100
AcDbVertex
100
AcDb2dVertex
 10
387.9345688950173
 20
104.0933735049648
 30
0.0
  0
VERTEX
  5
240
330
14F
100
AcDbEntity
  8
Make2D$可见线$普通线
100
AcDbVertex
100
AcDb2dVertex
 10
387.8151923108427
 20
104.0500115968232
 30
0.0
  0
VERTEX
  5
241
330
14F
100
AcDbEntity
  8
Make2D$可见线$普通线
100
AcDbVertex
100
AcDb2dVertex
 10
387.7576468188079
 20
103.9970502030064
 30
0.0
  0
VERTEX
  5
242
330
14F
100
AcDbEntity
  8
Make2D$可见线$普通线
100
AcDbVertex
100
AcDb2dVertex
 10
387.7473066293337
 20
103.9374707026911
 30
0.0
  0
VERTEX
  5
243
330
14F
100
AcDbEntity
  8
Make2D$可见线$普通线
100
AcDbVertex
100
AcDb2dVertex
 10
387.9027213604076
 20
103.3215774302563
 30
0.0
  0
VERTEX
  5
244
330
14F
100
AcDbEntity
  8
Make2D$可见线$普通线
100
AcDbVertex
100
AcDb2dVertex
 10
387.9024722614854
 20
103.2211091893874
 30
0.0
  0
VERTEX
  5
245
330
14F
100
AcDbEntity
  8
Make2D$可见线$普通线
100
AcDbVertex
100
AcDb2dVertex
 10
387.9753388558161
 20
103.0314053554882
 30
0.0
  0
VERTEX
  5
246
330
14F
100
AcDbEntity
  8
Make2D$可见线$普通线
100
AcDbVertex
100
AcDb2dVertex
 10
388.0277344466419
 20
102.6991636910915
 30
0.0
  0
VERTEX
  5
247
330
14F
100
AcDbEntity
  8
Make2D$可见线$普通线
100
AcDbVertex
100
AcDb2dVertex
 10
388.0255999351585
 20
102.4005567369014
 30
0.0
  0
VERTEX
  5
248
330
14F
100
AcDbEntity
  8
Make2D$可见线$普通线
100
AcDbVertex
100
AcDb2dVertex
 10
388.0401263025396
 20
102.3305153755019
 30
0.0
  0
VERTEX
  5
249
330
14F
100
AcDbEntity
  8
Make2D$可见线$普通线
100
AcDbVertex
100
AcDb2dVertex
 10
388.0695776267009
 20
102.2798230682662
 30
0.0
  0
VERTEX
  5
24A
330
14F
100
AcDbEntity
  8
Make2D$可见线$普通线
100
AcDbVertex
100
AcDb2dVertex
 10
388.1127070488054
 20
102.2508199981449
 30
0.0
  0
VERTEX
  5
24B
330
14F
100
AcDbEntity
  8
Make2D$可见线$普通线
100
AcDbVertex
100
AcDb2dVertex
 10
388.2160484429317
 20
102.2439561828945
 30
0.0
  0
VERTEX
  5
24C
330
14F
100
AcDbEntity
  8
Make2D$可见线$普通线
100
AcDbVertex
100
AcDb2dVertex
 10
388.4620054286621
 20
102.2574232453002
 30
0.0
  0
VERTEX
  5
24D
330
14F
100
AcDbEntity
  8
Make2D$可见线$普通线
100
AcDbVertex
100
AcDb2dVertex
 10
388.7938076710786
 20
102.2201988675719
 30
0.0
  0
VERTEX
  5
24E
330
14F
100
AcDbEntity
  8
Make2D$可见线$普通线
100
AcDbVertex
100
AcDb2dVertex
 10
389.1282540669451
 20
102.1567771741723
 30
0.0
  0
VERTEX
  5
24F
330
14F
100
AcDbEntity
  8
Make2D$可见线$普通线
100
AcDbVertex
100
AcDb2dVertex
 10
389.1856688211907
 20
102.1106625766644
 30
0.0
  0
VERTEX
  5
250
330
14F
100
AcDbEntity
  8
Make2D$可见线$普通线
100
AcDbVertex
100
AcDb2dVertex
 10
389.408087200339
 20
102.0879804333828
 30
0.0
  0
VERTEX
  5
251
330
14F
100
AcDbEntity
  8
Make2D$可见线$普通线
100
AcDbVertex
100
AcDb2dVertex
 10
389.5062037739477
 20
102.0425710018463
 30
0.0
  0
VERTEX
  5
252
330
14F
100
AcDbEntity
  8
Make2D$可见线$普通线
100
AcDbVertex
100
AcDb2dVertex
 10
389.7889673034681
 20
101.937020521216
 30
0.0
  0
VERTEX
  5
253
330
14F
100
AcDbEntity
  8
Make2D$可见线$普通线
100
AcDbVertex
100
AcDb2dVertex
 10
390.0462421099766
 20
101.8544327598548
 30
0.0
  0
VERTEX
  5
254
330
14F
100
AcDbEntity
  8
Make2D$可见线$普通线
100
AcDbVertex
100
AcDb2dVertex
 10
390.2420051955087
 20
101.7493721901929
 30
0.0
  0
VERTEX
  5
255
330
14F
100
AcDbEntity
  8
Make2D$可见线$普通线
100
AcDbVertex
100
AcDb2dVertex
 10
390.4972636877791
 20
101.6371503488987
 30
0.0
  0
VERTEX
  5
256
330
14F
100
AcDbEntity
  8
Make2D$可见线$普通线
100
AcDbVertex
100
AcDb2dVertex
 10
390.7068313153786
 20
101.4782713385843
 30
0.0
  0
VERTEX
  5
257
330
14F
100
AcDbEntity
  8
Make2D$可见线$普通线
100
AcDbVertex
100
AcDb2dVertex
 10
390.8633738832821
 20
101.4270355192691
 30
0.0
  0
VERTEX
  5
258
330
14F
100
AcDbEntity
  8
Make2D$可见线$普通线
100
AcDbVertex
100
AcDb2dVertex
 10
391.1820154645322
 20
101.2252098722082
 30
0.0
  0
VERTEX
  5
259
330
14F
100
AcDbEntity
  8
Make2D$可见线$普通线
100
AcDbVertex
100
AcDb2dVertex
 10
391.5854871854809
 20
100.9274214686876
 30
0.0
  0
VERTEX
  5
25A
330
14F
100
AcDbEntity
  8
Make2D$可见线$普通线
100
AcDbVertex
100
AcDb2dVertex
 10
391.676640652259
 20
100.8768635319098
 30
0.0
  0
VERTEX
  5
25B
330
14F
100
AcDbEntity
  8
Make2D$可见线$普通线
100
AcDbVertex
100
AcDb2dVertex
 10
391.754367866223
 20
100.8413828840687
 30
0.0
  0
VERTEX
  5
25C
330
14F
100
AcDbEntity
  8
Make2D$可见线$普通线
100
AcDbVertex
100
AcDb2dVertex
 10
392.1751305699577
 20
100.4850921777502
 30
0.0
  0
VERTEX
  5
25D
330
14F
100
AcDbEntity
  8
Make2D$可见线$普通线
100
AcDbVertex
100
AcDb2dVertex
 10
392.5908511614617
 20
100.049422267239
 30
0.0
  0
VERTEX
  5
25E
330
14F
100
AcDbEntity
  8
Make2D$可见线$普通线
100
AcDbVertex
100
AcDb2dVertex
 10
392.7503510154748
 20
99.78580733704392
 30
0.0
  0
VERTEX
  5
25F
330
14F
100
AcDbEntity
  8
Make2D$可见线$普通线
100
AcDbVertex
100
AcDb2dVertex
 10
392.8151483417445
 20
99.61195055128472
 30
0.0
  0
VERTEX
  5
260
330
14F
100
AcDbEntity
  8
Make2D$可见线$普通线
100
AcDbVertex
100
AcDb2dVertex
 10
392.8138928184966
 20
99.47338896769132
 30
0.0
  0
VERTEX
  5
261
330
14F
100
AcDbEntity
  8
Make2D$可见线$普通线
100
AcDbVertex
100
AcDb2dVertex
 10
392.7343324253384
 20
99.36499232817879
 30
0.0
  0
VERTEX
  5
262
330
14F
100
AcDbEntity
  8
Make2D$可见线$普通线
100
AcDbVertex
100
AcDb2dVertex
 10
392.5693107987623
 20
99.26449839969688
 30
0.0
  0
VERTEX
  5
263
330
14F
100
AcDbEntity
  8
Make2D$可见线$普通线
100
AcDbVertex
100
AcDb2dVertex
 10
392.3687624698151
 20
99.24070774590426
 30
0.0
  0
VERTEX
  5
264
330
14F
100
AcDbEntity
  8
Make2D$可见线$普通线
100
AcDbVertex
100
AcDb2dVertex
 10
392.3198260768286
 20
99.24503391793563
 30
0.0
  0
VERTEX
  5
265
330
14F
100
AcDbEntity
  8
Make2D$可见线$普通线
100
AcDbVertex
100
AcDb2dVertex
 10
392.2114298170436
 20
99.23162644233967
 30
0.0
  0
VERTEX
  5
266
330
14F
100
AcDbEntity
  8
Make2D$可见线$普通线
100
AcDbVertex
100
AcDb2dVertex
 10
392.0922342376026
 20
99.27146243809067
 30
0.0
  0
VERTEX
  5
267
330
14F
100
AcDbEntity
  8
Make2D$可见线$普通线
100
AcDbVertex
100
AcDb2dVertex
 10
391.6960368806605
 20
99.38332239230304
 30
0.0
  0
VERTEX
  5
268
330
14F
100
AcDbEntity
  8
Make2D$可见线$普通线
100
AcDbVertex
100
AcDb2dVertex
 10
391.6282703462837
 20
99.42435658766611
 30
0.0
  0
VERTEX
  5
269
330
14F
100
AcDbEntity
  8
Make2D$可见线$普通线
100
AcDbVertex
100
AcDb2dVertex
 10
391.5052861476001
 20
99.43060343930993
 30
0.0
  0
VERTEX
  5
26A
330
14F
100
AcDbEntity
  8
Make2D$可见线$普通线
100
AcDbVertex
100
AcDb2dVertex
 10
391.2510095757418
 20
99.57542103367551
 30
0.0
  0
VERTEX
  5
26B
330
14F
100
AcDbEntity
  8
Make2D$可见线$普通线
100
AcDbVertex
100
AcDb2dVertex
 10
391.1627696631497
 20
99.5988261183354
 30
0.0
  0
VERTEX
  5
26C
330
14F
100
AcDbEntity
  8
Make2D$可见线$普通线
100
AcDbVertex
100
AcDb2dVertex
 10
390.9414174292306
 20
99.78686604748655
 30
0.0
  0
VERTEX
  5
26D
330
14F
100
AcDbEntity
  8
Make2D$可见线$普通线
100
AcDbVertex
100
AcDb2dVertex
 10
390.7648884152787
 20
99.87680015669967
 30
0.0
  0
VERTEX
  5
26E
330
14F
100
AcDbEntity
  8
Make2D$可见线$普通线
100
AcDbVertex
100
AcDb2dVertex
 10
390.4490268868765
 20
100.0797748655909
 30
0.0
  0
VERTEX
  5
26F
330
14F
100
AcDbEntity
  8
Make2D$可见线$普通线
100
AcDbVertex
100
AcDb2dVertex
 10
390.3196815358626
 20
100.1425498879711
 30
0.0
  0
VERTEX
  5
270
330
14F
100
AcDbEntity
  8
Make2D$可见线$普通线
100
AcDbVertex
100
AcDb2dVertex
 10
389.6857365652368
 20
100.6323577220434
 30
0.0
  0
VERTEX
  5
271
330
14F
100
AcDbEntity
  8
Make2D$可见线$普通线
100
AcDbVertex
100
AcDb2dVertex
 10
389.4127933527395
 20
100.7909890381958
 30
0.0
  0
VERTEX
  5
272
330
14F
100
AcDbEntity
  8
Make2D$可见线$普通线
100
AcDbVertex
100
AcDb2dVertex
 10
389.201879299624
 20
100.9888323892844
 30
0.0
  0
VERTEX
  5
273
330
14F
100
AcDbEntity
  8
Make2D$可见线$普通线
100
AcDbVertex
100
AcDb2dVertex
 10
388.9593724596709
 20
101.124147555679
 30
0.0
  0
VERTEX
  5
274
330
14F
100
AcDbEntity
  8
Make2D$可见线$普通线
100
AcDbVertex
100
AcDb2dVertex
 10
388.6542230650454
 20
101.3738193391683
 30
0.0
  0
VERTEX
  5
275
330
14F
100
AcDbEntity
  8
Make2D$可见线$普通线
100
AcDbVertex
100
AcDb2dVertex
 10
388.4020745375607
 20
101.5365337171141
 30
0.0
  0
VERTEX
  5
276
330
14F
100
AcDbEntity
  8
Make2D$可见线$普通线
100
AcDbVertex
100
AcDb2dVertex
 10
388.1021272418579
 20
101.809719700043
 30
0.0
  0
VERTEX
  5
277
330
14F
100
AcDbEntity
  8
Make2D$可见线$普通线
100
AcDbVertex
100
AcDb2dVertex
 10
387.9935012902163
 20
101.8726645162642
 30
0.0
  0
VERTEX
  5
278
330
14F
100
AcDbEntity
  8
Make2D$可见线$普通线
100
AcDbVertex
100
AcDb2dVertex
 10
387.8670209262567
 20
101.8731159153553
 30
0.0
  0
VERTEX
  5
279
330
14F
100
AcDbEntity
  8
Make2D$可见线$普通线
100
AcDbVertex
100
AcDb2dVertex
 10
387.7754270299308
 20
101.8149198602067
 30
0.0
  0
VERTEX
  5
27A
330
14F
100
AcDbEntity
  8
Make2D$可见线$普通线
100
AcDbVertex
100
AcDb2dVertex
 10
387.6838051074527
 20
101.7994208619814
 30
0.0
  0
VERTEX
  5
27B
330
14F
100
AcDbEntity
  8
Make2D$可见线$普通线
100
AcDbVertex
100
AcDb2dVertex
 10
387.6134558322289
 20
101.8141405478508
 30
0.0
  0
VERTEX
  5
27C
330
14F
100
AcDbEntity
  8
Make2D$可见线$普通线
100
AcDbVertex
100
AcDb2dVertex
 10
387.5619988074193
 20
101.8643919964381
 30
0.0
  0
VERTEX
  5
27D
330
14F
100
AcDbEntity
  8
Make2D$可见线$普通线
100
AcDbVertex
100
AcDb2dVertex
 10
387.5523067764619
 20
101.98999621023
 30
0.0
  0
VERTEX
  5
27E
330
14F
100
AcDbEntity
  8
Make2D$可见线$普通线
100
AcDbVertex
100
AcDb2dVertex
 10
387.5568761121086
 20
102.1337419240925
 30
0.0
  0
VERTEX
  5
27F
330
14F
100
AcDbEntity
  8
Make2D$可见线$普通线
100
AcDbVertex
100
AcDb2dVertex
 10
387.499720701413
 20
102.2422190343747
 30
0.0
  0
VERTEX
  5
280
330
14F
100
AcDbEntity
  8
Make2D$可见线$普通线
100
AcDbVertex
100
AcDb2dVertex
 10
387.3468397695793
 20
102.349630154258
 30
0.0
  0
VERTEX
  5
281
330
14F
100
AcDbEntity
  8
Make2D$可见线$普通线
100
AcDbVertex
100
AcDb2dVertex
 10
386.9188386058334
 20
102.6276586442361
 30
0.0
  0
VERTEX
  5
282
330
14F
100
AcDbEntity
  8
Make2D$可见线$普通线
100
AcDbVertex
100
AcDb2dVertex
 10
386.7459421133091
 20
102.8072826770976
 30
0.0
  0
VERTEX
  5
283
330
14F
100
AcDbEntity
  8
Make2D$可见线$普通线
100
AcDbVertex
100
AcDb2dVertex
 10
386.6548173137573
 20
102.8080266163104
 30
0.0
  0
VERTEX
  5
284
330
14F
100
AcDbEntity
  8
Make2D$可见线$普通线
100
AcDbVertex
100
AcDb2dVertex
 10
386.6464624883695
 20
102.7308206501606
 30
0.0
  0
VERTEX
  5
285
330
14F
100
AcDbEntity
  8
Make2D$可见线$普通线
100
AcDbVertex
100
AcDb2dVertex
 10
386.7422604033179
 20
102.5492741828918
 30
0.0
  0
VERTEX
  5
286
330
14F
100
AcDbEntity
  8
Make2D$可见线$普通线
100
AcDbVertex
100
AcDb2dVertex
 10
386.9551225055959
 20
102.2755002195579
 30
0.0
  0
VERTEX
  5
287
330
14F
100
AcDbEntity
  8
Make2D$可见线$普通线
100
AcDbVertex
100
AcDb2dVertex
 10
387.1966939697031
 20
101.9881043621556
 30
0.0
  0
VERTEX
  5
288
330
14F
100
AcDbEntity
  8
Make2D$可见线$普通线
100
AcDbVertex
100
AcDb2dVertex
 10
387.3702644739558
 20
101.6765100056993
 30
0.0
  0
VERTEX
  5
289
330
14F
100
AcDbEntity
  8
Make2D$可见线$普通线
100
AcDbVertex
100
AcDb2dVertex
 10
387.5666579275931
 20
101.3948601551369
 30
0.0
  0
VERTEX
  5
28A
330
14F
100
AcDbEntity
  8
Make2D$可见线$普通线
100
AcDbVertex
100
AcDb2dVertex
 10
387.885714196554
 20
100.8146767997892
 30
0.0
  0
VERTEX
  5
28B
330
14F
100
AcDbEntity
  8
Make2D$可见线$普通线
100
AcDbVertex
100
AcDb2dVertex
 10
387.9656212226906
 20
100.5215567689787
 30
0.0
  0
VERTEX
  5
28C
330
14F
100
AcDbEntity
  8
Make2D$可见线$普通线
100
AcDbVertex
100
AcDb2dVertex
 10
387.9989163583954
 20
100.2532560712739
 30
0.0
  0
VERTEX
  5
28D
330
14F
100
AcDbEntity
  8
Make2D$可见线$普通线
100
AcDbVertex
100
AcDb2dVertex
 10
387.9305784769212
 20
100.0703131613605
 30
0.0
  0
VERTEX
  5
28E
330
14F
100
AcDbEntity
  8
Make2D$可见线$普通线
100
AcDbVertex
100
AcDb2dVertex
 10
387.832582687224
 20
99.95988029037038
 30
0.0
  0
VERTEX
  5
28F
330
14F
100
AcDbEntity
  8
Make2D$可见线$普通线
100
AcDbVertex
100
AcDb2dVertex
 10
387.8028827908451
 20
99.88078198756953
 30
0.0
  0
VERTEX
  5
290
330
14F
100
AcDbEntity
  8
Make2D$可见线$普通线
100
AcDbVertex
100
AcDb2dVertex
 10
387.8336465731565
 20
99.75523975850159
 30
0.0
  0
VERTEX
  5
291
330
14F
100
AcDbEntity
  8
Make2D$可见线$普通线
100
AcDbVertex
100
AcDb2dVertex
 10
388.0460544100719
 20
99.51523283414836
 30
0.0
  0
VERTEX
  5
292
330
14F
100
AcDbEntity
  8
Make2D$可见线$普通线
100
AcDbVertex
100
AcDb2dVertex
 10
388.1027416306479
 20
99.40889124310876
 30
0.0
  0
VERTEX
  5
293
330
14F
100
AcDbEntity
  8
Make2D$可见线$普通线
100
AcDbVertex
100
AcDb2dVertex
 10
388.1106440148592
 20
99.2834128428725
 30
0.0
  0
VERTEX
  5
294
330
14F
100
AcDbEntity
  8
Make2D$可见线$普通线
100
AcDbVertex
100
AcDb2dVertex
 10
388.0427309326803
 20
99.06574575048306
 30
0.0
  0
VERTEX
  5
295
330
14F
100
AcDbEntity
  8
Make2D$可见线$普通线
100
AcDbVertex
100
AcDb2dVertex
 10
388.0494274846762
 20
98.9633445476861
 30
0.0
  0
VERTEX
  5
296
330
14F
100
AcDbEntity
  8
Make2D$可见线$普通线
100
AcDbVertex
100
AcDb2dVertex
 10
388.1598148169638
 20
98.60521955186424
 30
0.0
  0
VERTEX
  5
297
330
14F
100
AcDbEntity
  8
Make2D$可见线$普通线
100
AcDbVertex
100
AcDb2dVertex
 10
388.144129111194
 20
98.44823048162208
 30
0.0
  0
VERTEX
  5
298
330
14F
100
AcDbEntity
  8
Make2D$可见线$普通线
100
AcDbVertex
100
AcDb2dVertex
 10
388.0873947906676
 20
98.26076975179477
 30
0.0
  0
VERTEX
  5
299
330
14F
100
AcDbEntity
  8
Make2D$可见线$普通线
100
AcDbVertex
100
AcDb2dVertex
 10
387.960898113207
 20
98.10875688435566
 30
0.0
  0
VERTEX
  5
29A
330
14F
100
AcDbEntity
  8
Make2D$可见线$普通线
100
AcDbVertex
100
AcDb2dVertex
 10
387.8744940235744
 20
98.02345659556782
 30
0.0
  0
VERTEX
  5
29B
330
14F
100
AcDbEntity
  8
Make2D$可见线$普通线
100
AcDbVertex
100
AcDb2dVertex
 10
387.7284053436838
 20
97.93885322363813
 30
0.0
  0
VERTEX
  5
29C
330
14F
100
AcDbEntity
  8
Make2D$可见线$普通线
100
AcDbVertex
100
AcDb2dVertex
 10
387.6605775312901
 20
97.87070178015436
 30
0.0
  0
VERTEX
  5
29D
330
14F
100
AcDbEntity
  8
Make2D$可见线$普通线
100
AcDbVertex
100
AcDb2dVertex
 10
387.6431212762616
 20
97.79768151094855
 30
0.0
  0
VERTEX
  5
29E
330
14F
100
AcDbEntity
  8
Make2D$可见线$普通线
100
AcDbVertex
100
AcDb2dVertex
 10
387.6562291107479
 20
97.73733088723996
 30
0.0
  0
VERTEX
  5
29F
330
14F
100
AcDbEntity
  8
Make2D$可见线$普通线
100
AcDbVertex
100
AcDb2dVertex
 10
387.7552644186948
 20
97.56789867786334
 30
0.0
  0
VERTEX
  5
2A0
330
14F
100
AcDbEntity
  8
Make2D$可见线$普通线
100
AcDbVertex
100
AcDb2dVertex
 10
387.949890524534
 20
97.32268687663269
 30
0.0
  0
VERTEX
  5
2A1
330
14F
100
AcDbEntity
  8
Make2D$可见线$普通线
100
AcDbVertex
100
AcDb2dVertex
 10
388.1753376677332
 20
96.88094967519201
 30
0.0
  0
VERTEX
  5
2A2
330
14F
100
AcDbEntity
  8
Make2D$可见线$普通线
100
AcDbVertex
100
AcDb2dVertex
 10
388.3237105337139
 20
96.52240374627614
 30
0.0
  0
VERTEX
  5
2A3
330
14F
100
AcDbEntity
  8
Make2D$可见线$普通线
100
AcDbVertex
100
AcDb2dVertex
 10
388.3200774102959
 20
96.36951893222373
 30
0.0
  0
VERTEX
  5
2A4
330
14F
100
AcDbEntity
  8
Make2D$可见线$普通线
100
AcDbVertex
100
AcDb2dVertex
 10
388.2752460047413
 20
96.18267973816738
 30
0.0
  0
VERTEX
  5
2A5
330
14F
100
AcDbEntity
  8
Make2D$可见线$普通线
100
AcDbVertex
100
AcDb2dVertex
 10
388.1849619580357
 20
95.9293077986324
 30
0.0
  0
VERTEX
  5
2A6
330
14F
100
AcDbEntity
  8
Make2D$可见线$普通线
100
AcDbVertex
100
AcDb2dVertex
 10
388.2480142436877
 20
95.7357517788141
 30
0.0
  0
VERTEX
  5
2A7
330
14F
100
AcDbEntity
  8
Make2D$可见线$普通线
100
AcDbVertex
100
AcDb2dVertex
 10
388.5665498619717
 20
95.0729606054408
 30
0.0
  0
VERTEX
  5
2A8
330
14F
100
AcDbEntity
  8
Make2D$可见线$普通线
100
AcDbVertex
100
AcDb2dVertex
 10
388.5917250129575
 20
94.81977505650478
 30
0.0
  0
VERTEX
  5
2A9
330
14F
100
AcDbEntity
  8
Make2D$可见线$普通线
100
AcDbVertex
100
AcDb2dVertex
 10
388.5231791923563
 20
94.6588014536254
 30
0.0
  0
VERTEX
  5
2AA
330
14F
100
AcDbEntity
  8
Make2D$可见线$普通线
100
AcDbVertex
100
AcDb2dVertex
 10
388.4077636451
 20
94.62515553885667
 30
0.0
  0
VERTEX
  5
2AB
330
14F
100
AcDbEntity
  8
Make2D$可见线$普通线
100
AcDbVertex
100
AcDb2dVertex
 10
388.1813175489899
 20
94.84263214693657
 30
0.0
  0
VERTEX
  5
2AC
330
14F
100
AcDbEntity
  8
Make2D$可见线$普通线
100
AcDbVertex
100
AcDb2dVertex
 10
388.0531221793995
 20
95.05367985223528
 30
0.0
  0
VERTEX
  5
2AD
330
14F
100
AcDbEntity
  8
Make2D$可见线$普通线
100
AcDbVertex
100
AcDb2dVertex
 10
388.0590310971601
 20
95.12369229127306
 30
0.0
  0
VERTEX
  5
2AE
330
14F
100
AcDbEntity
  8
Make2D$可见线$普通线
100
AcDbVertex
100
AcDb2dVertex
 10
388.1547064665883
 20
95.19373407947613
 30
0.0
  0
VERTEX
  5
2AF
330
14F
100
AcDbEntity
  8
Make2D$可见线$普通线
100
AcDbVertex
100
AcDb2dVertex
 10
388.1861576713635
 20
95.25742606564232
 30
0.0
  0
VERTEX
  5
2B0
330
14F
100
AcDbEntity
  8
Make2D$可见线$普通线
100
AcDbVertex
100
AcDb2dVertex
 10
388.164045762295
 20
95.37592225543277
 30
0.0
  0
VERTEX
  5
2B1
330
14F
100
AcDbEntity
  8
Make2D$可见线$普通线
100
AcDbVertex
100
AcDb2dVertex
 10
387.9930465592598
 20
95.65409686449742
 30
0.0
  0
VERTEX
  5
2B2
330
14F
100
AcDbEntity
  8
Make2D$可见线$普通线
100
AcDbVertex
100
AcDb2dVertex
 10
387.8665865449373
 20
95.89203583849734
 30
0.0
  0
VERTEX
  5
2B3
330
14F
100
AcDbEntity
  8
Make2D$可见线$普通线
100
AcDbVertex
100
AcDb2dVertex
 10
387.7327115349746
 20
95.96751872971377
 30
0.0
  0
VERTEX
  5
2B4
330
14F
100
AcDbEntity
  8
Make2D$可见线$普通线
100
AcDbVertex
100
AcDb2dVertex
 10
387.5899136587087
 20
96.01205135580481
 30
0.0
  0
VERTEX
  5
2B5
330
14F
100
AcDbEntity
  8
Make2D$可见线$普通线
100
AcDbVertex
100
AcDb2dVertex
 10
387.4235339254798
 20
96.11119096059325
 30
0.0
  0
VERTEX
  5
2B6
330
14F
100
AcDbEntity
  8
Make2D$可见线$普通线
100
AcDbVertex
100
AcDb2dVertex
 10
387.3317785165677
 20
96.19475492907394
 30
0.0
  0
VERTEX
  5
2B7
330
14F
100
AcDbEntity
  8
Make2D$可见线$普通线
100
AcDbVertex
100
AcDb2dVertex
 10
387.2268169250622
 20
96.19796066528589
 30
0.0
  0
VERTEX
  5
2B8
330
14F
100
AcDbEntity
  8
Make2D$可见线$普通线
100
AcDbVertex
100
AcDb2dVertex
 10
387.20715411061
 20
96.08624961871247
 30
0.0
  0
VERTEX
  5
2B9
330
14F
100
AcDbEntity
  8
Make2D$可见线$普通线
100
AcDbVertex
100
AcDb2dVertex
 10
387.2878379635049
 20
95.84800838617171
 30
0.0
  0
VERTEX
  5
2BA
330
14F
100
AcDbEntity
  8
Make2D$可见线$普通线
100
AcDbVertex
100
AcDb2dVertex
 10
387.3261719707687
 20
95.77503641496195
 30
0.0
  0
VERTEX
  5
2BB
330
14F
100
AcDbEntity
  8
Make2D$可见线$普通线
100
AcDbVertex
100
AcDb2dVertex
 10
387.4136592014836
 20
95.67826149195263
 30
0.0
  0
VERTEX
  5
2BC
330
14F
100
AcDbEntity
  8
Make2D$可见线$普通线
100
AcDbVertex
100
AcDb2dVertex
 10
388.0090203050472
 20
94.5366731849874
 30
0.0
 42
-0.01470105940861
  0
VERTEX
  5
2BD
330
14F
100
AcDbEntity
  8
Make2D$可见线$普通线
100
AcDbVertex
100
AcDb2dVertex
 10
388.797005508051
 20
92.22208685214581
 30
0.0
  0
VERTEX
  5
2BE
330
14F
100
AcDbEntity
  8
Make2D$可见线$普通线
100
AcDbVertex
100
AcDb2dVertex
 10
388.9229652894514
 20
91.52924987225627
 30
0.0
  0
VERTEX
  5
2BF
330
14F
100
AcDbEntity
  8
Make2D$可见线$普通线
100
AcDbVertex
100
AcDb2dVertex
 10
389.0030824263458
 20
90.68275881299017
 30
0.0
  0
VERTEX
  5
2C0
330
14F
100
AcDbEntity
  8
Make2D$可见线$普通线
100
AcDbVertex
100
AcDb2dVertex
 10
389.0083402523364
 20
90.23599983829034
 30
0.0
  0
VERTEX
  5
2C1
330
14F
100
AcDbEntity
  8
Make2D$可见线$普通线
100
AcDbVertex
100
AcDb2dVertex
 10
388.9175856152673
 20
89.97235067865596
 30
0.0
  0
VERTEX
  5
2C2
330
14F
100
AcDbEntity
  8
Make2D$可见线$普通线
100
AcDbVertex
100
AcDb2dVertex
 10
388.7209718298859
 20
89.77791404179526
 30
0.0
  0
VERTEX
  5
2C3
330
14F
100
AcDbEntity
  8
Make2D$可见线$普通线
100
AcDbVertex
100
AcDb2dVertex
 10
388.6074080140275
 20
89.73881240451554
 30
0.0
  0
VERTEX
  5
2C4
330
14F
100
AcDbEntity
  8
Make2D$可见线$普通线
100
AcDbVertex
100
AcDb2dVertex
 10
388.4288995957613
 20
89.80038447833316
 30
0.0
  0
VERTEX
  5
2C5
330
14F
100
AcDbEntity
  8
Make2D$可见线$普通线
100
AcDbVertex
100
AcDb2dVertex
 10
388.2618821767149
 20
89.94916194898893
 30
0.0
  0
VERTEX
  5
2C6
330
14F
100
AcDbEntity
  8
Make2D$可见线$普通线
100
AcDbVertex
100
AcDb2dVertex
 10
387.96347794922
 20
90.40893736162126
 30
0.0
  0
VERTEX
  5
2C7
330
14F
100
AcDbEntity
  8
Make2D$可见线$普通线
100
AcDbVertex
100
AcDb2dVertex
 10
387.7655990151714
 20
90.850124799167
 30
0.0
  0
VERTEX
  5
2C8
330
14F
100
AcDbEntity
  8
Make2D$可见线$普通线
100
AcDbVertex
100
AcDb2dVertex
 10
387.6653856312752
 20
91.03025524949804
 30
0.0
  0
VERTEX
  5
2C9
330
14F
100
AcDbEntity
  8
Make2D$可见线$普通线
100
AcDbVertex
100
AcDb2dVertex
 10
387.5079852101455
 20
91.58325782691462
 30
0.0
  0
VERTEX
  5
2CA
330
14F
100
AcDbEntity
  8
Make2D$可见线$普通线
100
AcDbVertex
100
AcDb2dVertex
 10
387.372971718953
 20
91.86629998779993
 30
0.0
  0
VERTEX
  5
2CB
330
14F
100
AcDbEntity
  8
Make2D$可见线$普通线
100
AcDbVertex
100
AcDb2dVertex
 10
387.2292524463429
 20
91.90390653586836
 30
0.0
  0
VERTEX
  5
2CC
330
14F
100
AcDbEntity
  8
Make2D$可见线$普通线
100
AcDbVertex
100
AcDb2dVertex
 10
386.7369051820816
 20
92.00442462388035
 30
0.0
  0
VERTEX
  5
2CD
330
14F
100
AcDbEntity
  8
Make2D$可见线$普通线
100
AcDbVertex
100
AcDb2dVertex
 10
385.9250015202542
 20
92.41814866278547
 30
0.0
  0
VERTEX
  5
2CE
330
14F
100
AcDbEntity
  8
Make2D$可见线$普通线
100
AcDbVertex
100
AcDb2dVertex
 10
385.0575699122001
 20
92.96846301105369
 30
0.0
  0
VERTEX
  5
2CF
330
14F
100
AcDbEntity
  8
Make2D$可见线$普通线
100
AcDbVertex
100
AcDb2dVertex
 10
384.5139437129226
 20
93.339014851275
 30
0.0
  0
VERTEX
  5
2D0
330
14F
100
AcDbEntity
  8
Make2D$可见线$普通线
100
AcDbVertex
100
AcDb2dVertex
 10
384.3575589714285
 20
93.51686612994796
 30
0.0
  0
VERTEX
  5
2D1
330
14F
100
AcDbEntity
  8
Make2D$可见线$普通线
100
AcDbVertex
100
AcDb2dVertex
 10
384.3614811752497
 20
93.65071404020203
 30
0.0
  0
VERTEX
  5
2D2
330
14F
100
AcDbEntity
  8
Make2D$可见线$普通线
100
AcDbVertex
100
AcDb2dVertex
 10
384.4848943987691
 20
93.69220212139645
 30
0.0
  0
VERTEX
  5
2D3
330
14F
100
AcDbEntity
  8
Make2D$可见线$普通线
100
AcDbVertex
100
AcDb2dVertex
 10
384.64092427852
 20
93.6233105627101
 30
0.0
  0
VERTEX
  5
2D4
330
14F
100
AcDbEntity
  8
Make2D$可见线$普通线
100
AcDbVertex
100
AcDb2dVertex
 10
384.8229658885002
 20
93.45408006404226
 30
0.0
  0
VERTEX
  5
2D5
330
14F
100
AcDbEntity
  8
Make2D$可见线$普通线
100
AcDbVertex
100
AcDb2dVertex
 10
385.0161040985006
 20
93.29530437885863
 30
0.0
  0
VERTEX
  5
2D6
330
14F
100
AcDbEntity
  8
Make2D$可见线$普通线
100
AcDbVertex
100
AcDb2dVertex
 10
385.203332898463
 20
93.20255350093144
 30
0.0
  0
VERTEX
  5
2D7
330
14F
100
AcDbEntity
  8
Make2D$可见线$普通线
100
AcDbVertex
100
AcDb2dVertex
 10
385.3976377554995
 20
93.02995055497637
 30
0.0
  0
VERTEX
  5
2D8
330
14F
100
AcDbEntity
  8
Make2D$可见线$普通线
100
AcDbVertex
100
AcDb2dVertex
 10
385.8600769646832
 20
92.77417039578403
 30
0.0
  0
VERTEX
  5
2D9
330
14F
100
AcDbEntity
  8
Make2D$可见线$普通线
100
AcDbVertex
100
AcDb2dVertex
 10
386.0331530220083
 20
92.68808682872235
 30
0.0
  0
VERTEX
  5
2DA
330
14F
100
AcDbEntity
  8
Make2D$可见线$普通线
100
AcDbVertex
100
AcDb2dVertex
 10
386.3341638732037
 20
92.50935749001279
 30
0.0
  0
VERTEX
  5
2DB
330
14F
100
AcDbEntity
  8
Make2D$可见线$普通线
100
AcDbVertex
100
AcDb2dVertex
 10
386.5999473758149
 20
92.37534112918205
 30
0.0
  0
VERTEX
  5
2DC
330
14F
100
AcDbEntity
  8
Make2D$可见线$普通线
100
AcDbVertex
100
AcDb2dVertex
 10
386.757487022294
 20
92.27905141905806
 30
0.0
  0
VERTEX
  5
2DD
330
14F
100
AcDbEntity
  8
Make2D$可见线$普通线
100
AcDbVertex
100
AcDb2dVertex
 10
386.9180807178551
 20
92.23015673949509
 30
0.0
  0
VERTEX
  5
2DE
330
14F
100
AcDbEntity
  8
Make2D$可见线$普通线
100
AcDbVertex
100
AcDb2dVertex
 10
387.0364616603133
 20
92.15596666442967
 30
0.0
  0
VERTEX
  5
2DF
330
14F
100
AcDbEntity
  8
Make2D$可见线$普通线
100
AcDbVertex
100
AcDb2dVertex
 10
387.2106115873193
 20
92.14378431786893
 30
0.0
  0
VERTEX
  5
2E0
330
14F
100
AcDbEntity
  8
Make2D$可见线$普通线
100
AcDbVertex
100
AcDb2dVertex
 10
387.2941664826684
 20
92.16519538651617
 30
0.0
  0
VERTEX
  5
2E1
330
14F
100
AcDbEntity
  8
Make2D$可见线$普通线
100
AcDbVertex
100
AcDb2dVertex
 10
387.3153819670123
 20
92.27851749449779
 30
0.0
  0
VERTEX
  5
2E2
330
14F
100
AcDbEntity
  8
Make2D$可见线$普通线
100
AcDbVertex
100
AcDb2dVertex
 10
387.26809762145
 20
92.58642714145877
 30
0.0
  0
VERTEX
  5
2E3
330
14F
100
AcDbEntity
  8
Make2D$可见线$普通线
100
AcDbVertex
100
AcDb2dVertex
 10
387.2097998793651
 20
92.71881137050592
 30
0.0
  0
VERTEX
  5
2E4
330
14F
100
AcDbEntity
  8
Make2D$可见线$普通线
100
AcDbVertex
100
AcDb2dVertex
 10
387.183243188187
 20
92.978558562452
 30
0.0
  0
VERTEX
  5
2E5
330
14F
100
AcDbEntity
  8
Make2D$可见线$普通线
100
AcDbVertex
100
AcDb2dVertex
 10
387.1368343702845
 20
93.15615562627339
 30
0.0
 42
-0.0144205334514062
  0
VERTEX
  5
2E6
330
14F
100
AcDbEntity
  8
Make2D$可见线$普通线
100
AcDbVertex
100
AcDb2dVertex
 10
387.1090385613006
 20
95.34543465505725
 30
0.0
  0
VERTEX
  5
2E7
330
14F
100
AcDbEntity
  8
Make2D$可见线$普通线
100
AcDbVertex
100
AcDb2dVertex
 10
387.0438121023494
 20
95.70345150877755
 30
0.0
  0
VERTEX
  5
2E8
330
14F
100
AcDbEntity
  8
Make2D$可见线$普通线
100
AcDbVertex
100
AcDb2dVertex
 10
386.9508724149092
 20
95.96811944282409
 30
0.0
  0
VERTEX
  5
2E9
330
14F
100
AcDbEntity
  8
Make2D$可见线$普通线
100
AcDbVertex
100
AcDb2dVertex
 10
386.8067609904573
 20
96.18123691019308
 30
0.0
  0
VERTEX
  5
2EA
330
14F
100
AcDbEntity
  8
Make2D$可见线$普通线
100
AcDbVertex
100
AcDb2dVertex
 10
386.4254723731522
 20
96.50026020274855
 30
0.0
  0
VERTEX
  5
2EB
330
14F
100
AcDbEntity
  8
Make2D$可见线$普通线
100
AcDbVertex
100
AcDb2dVertex
 10
385.9547847699169
 20
96.73677171821667
 30
0.0
  0
VERTEX
  5
2EC
330
14F
100
AcDbEntity
  8
Make2D$可见线$普通线
100
AcDbVertex
100
AcDb2dVertex
 10
385.0635608169133
 20
96.73808515119775
 30
0.0
  0
VERTEX
  5
2ED
330
14F
100
AcDbEntity
  8
Make2D$可见线$普通线
100
AcDbVertex
100
AcDb2dVertex
 10
384.5588164615865
 20
96.50777798803448
 30
0.0
  0
VERTEX
  5
2EE
330
14F
100
AcDbEntity
  8
Make2D$可见线$普通线
100
AcDbVertex
100
AcDb2dVertex
 10
383.8983026076892
 20
95.99893619127111
 30
0.0
  0
VERTEX
  5
2EF
330
14F
100
AcDbEntity
  8
Make2D$可见线$普通线
100
AcDbVertex
100
AcDb2dVertex
 10
383.4184881342406
 20
95.3936104664051
 30
0.0
  0
VERTEX
  5
2F0
330
14F
100
AcDbEntity
  8
Make2D$可见线$普通线
100
AcDbVertex
100
AcDb2dVertex
 10
383.1308948723387
 20
94.54762059673281
 30
0.0
  0
VERTEX
  5
2F1
330
14F
100
AcDbEntity
  8
Make2D$可见线$普通线
100
AcDbVertex
100
AcDb2dVertex
 10
383.0334888603212
 20
93.82561818718396
 30
0.0
  0
VERTEX
  5
2F2
330
14F
100
AcDbEntity
  8
Make2D$可见线$普通线
100
AcDbVertex
100
AcDb2dVertex
 10
383.104208561557
 20
92.65384791469067
 30
0.0
  0
VERTEX
  5
2F3
330
14F
100
AcDbEntity
  8
Make2D$可见线$普通线
100
AcDbVertex
100
AcDb2dVertex
 10
383.2575461883692
 20
91.63997450579289
 30
0.0
  0
VERTEX
  5
2F4
330
14F
100
AcDbEntity
  8
Make2D$可见线$普通线
100
AcDbVertex
100
AcDb2dVertex
 10
383.4740453011274
 20
91.02578589944868
 30
0.0
  0
VERTEX
  5
2F5
330
14F
100
AcDbEntity
  8
Make2D$可见线$普通线
100
AcDbVertex
100
AcDb2dVertex
 10
383.6167439919807
 20
90.85600917465432
 30
0.0
  0
VERTEX
  5
2F6
330
14F
100
AcDbEntity
  8
Make2D$可见线$普通线
100
AcDbVertex
100
AcDb2dVertex
 10
383.7219528552077
 20
90.84548853901923
 30
0.0
  0
VERTEX
  5
2F7
330
14F
100
AcDbEntity
  8
Make2D$可见线$普通线
100
AcDbVertex
100
AcDb2dVertex
 10
383.8348712966317
 20
90.87914605288971
 30
0.0
  0
SEQEND
  5
2F8
330
14F
100
AcDbEntity
  8
Make2D$可见线$普通线
  0
POLYLINE
  5
2F9
330
1F
100
AcDbEntity
  8
Make2D$可见线$普通线
100
AcDb2dPolyline
 66
     1
 10
0.0
 20
0.0
 30
0.0
  0
VERTEX
  5
2FA
330
2F9
100
AcDbEntity
  8
Make2D$可见线$普通线
100
AcDbVertex
100
AcDb2dVertex
 10
390.5119448533856
 20
91.01977189317459
 30
0.0
  0
VERTEX
  5
2FB
330
2F9
100
AcDbEntity
  8
Make2D$可见线$普通线
100
AcDbVertex
100
AcDb2dVertex
 10
390.074632145847
 20
90.8045000317919
 30
0.0
  0
VERTEX
  5
2FC
330
2F9
100
AcDbEntity
  8
Make2D$可见线$普通线
100
AcDbVertex
100
AcDb2dVertex
 10
390.5122350509106
 20
90.59476218416602
 30
0.0
  0
VERTEX
  5
2FD
330
2F9
100
AcDbEntity
  8
Make2D$可见线$普通线
100
AcDbVertex
100
AcDb2dVertex
 10
390.5119448533856
 20
91.01977189317459
 30
0.0
  0
SEQEND
  5
2FE
330
2F9
100
AcDbEntity
  8
Make2D$可见线$普通线
  0
POLYLINE
  5
2FF
330
1F
100
AcDbEntity
  8
Make2D$可见线$普通线
100
AcDb2dPolyline
 66
     1
 10
0.0
 20
0.0
 30
0.0
  0
VERTEX
  5
300
330
2FF
100
AcDbEntity
  8
Make2D$可见线$普通线
100
AcDbVertex
100
AcDb2dVertex
 10
390.9082329935637
 20
90.40820221460386
 30
0.0
  0
VERTEX
  5
301
330
2FF
100
AcDbEntity
  8
Make2D$可见线$普通线
100
AcDbVertex
100
AcDb2dVertex
 10
390.9084100332597
 20
90.2551432855149
 30
0.0
  0
VERTEX
  5
302
330
2FF
100
AcDbEntity
  8
Make2D$可见线$普通线
100
AcDbVertex
100
AcDb2dVertex
 10
389.7991107319199
 20
90.7859171591799
 30
0.0
  0
VERTEX
  5
303
330
2FF
100
AcDbEntity
  8
Make2D$可见线$普通线
100
AcDbVertex
100
AcDb2dVertex
 10
389.7991175847808
 20
90.82597618064311
 30
0.0
  0
VERTEX
  5
304
330
2FF
100
AcDbEntity
  8
Make2D$可见线$普通线
100
AcDbVertex
100
AcDb2dVertex
 10
390.9071202005807
 20
91.37026273641708
 30
0.0
  0
VERTEX
  5
305
330
2FF
100
AcDbEntity
  8
Make2D$可见线$普通线
100
AcDbVertex
100
AcDb2dVertex
 10
390.9073020107117
 20
91.21307954756092
 30
0.0
  0
VERTEX
  5
306
330
2FF
100
AcDbEntity
  8
Make2D$可见线$普通线
100
AcDbVertex
100
AcDb2dVertex
 10
390.6253646009627
 20
91.0754592147707
 30
0.0
  0
VERTEX
  5
307
330
2FF
100
AcDbEntity
  8
Make2D$可见线$普通线
100
AcDbVertex
100
AcDb2dVertex
 10
390.6258083317274
 20
90.5334811940463
 30
0.0
  0
VERTEX
  5
308
330
2FF
100
AcDbEntity
  8
Make2D$可见线$普通线
100
AcDbVertex
100
AcDb2dVertex
 10
390.9082329935637
 20
90.40820221460386
 30
0.0
  0
SEQEND
  5
309
330
2FF
100
AcDbEntity
  8
Make2D$可见线$普通线
  0
POLYLINE
  5
30A
330
1F
100
AcDbEntity
  8
Make2D$可见线$普通线
100
AcDb2dPolyline
 66
     1
 10
0.0
 20
0.0
 30
0.0
  0
VERTEX
  5
30B
330
30A
100
AcDbEntity
  8
Make2D$可见线$普通线
100
AcDbVertex
100
AcDb2dVertex
 10
387.6868960184057
 20
88.41782587314502
 30
0.0
  0
VERTEX
  5
30C
330
30A
100
AcDbEntity
  8
Make2D$可见线$普通线
100
AcDbVertex
100
AcDb2dVertex
 10
387.6643403071965
 20
88.2017355454178
 30
0.0
  0
VERTEX
  5
30D
330
30A
100
AcDbEntity
  8
Make2D$可见线$普通线
100
AcDbVertex
100
AcDb2dVertex
 10
387.7564602702714
 20
88.07719880047487
 30
0.0
  0
VERTEX
  5
30E
330
30A
100
AcDbEntity
  8
Make2D$可见线$普通线
100
AcDbVertex
100
AcDb2dVertex
 10
387.8369342062663
 20
88.00863385497438
 30
0.0
  0
VERTEX
  5
30F
330
30A
100
AcDbEntity
  8
Make2D$可见线$普通线
100
AcDbVertex
100
AcDb2dVertex
 10
388.1393898542633
 20
87.86653268659471
 30
0.0
  0
VERTEX
  5
310
330
30A
100
AcDbEntity
  8
Make2D$可见线$普通线
100
AcDbVertex
100
AcDb2dVertex
 10
388.4294678042947
 20
87.74029590028543
 30
0.0
  0
VERTEX
  5
311
330
30A
100
AcDbEntity
  8
Make2D$可见线$普通线
100
AcDbVertex
100
AcDb2dVertex
 10
388.6388662286478
 20
87.74444112742002
 30
0.0
  0
VERTEX
  5
312
330
30A
100
AcDbEntity
  8
Make2D$可见线$普通线
100
AcDbVertex
100
AcDb2dVertex
 10
388.7470750620228
 20
87.7743504389084
 30
0.0
  0
VERTEX
  5
313
330
30A
100
AcDbEntity
  8
Make2D$可见线$普通线
100
AcDbVertex
100
AcDb2dVertex
 10
388.7917509672426
 20
87.83390728363712
 30
0.0
  0
VERTEX
  5
314
330
30A
100
AcDbEntity
  8
Make2D$可见线$普通线
100
AcDbVertex
100
AcDb2dVertex
 10
388.8212920745866
 20
87.94930995349101
 30
0.0
  0
VERTEX
  5
315
330
30A
100
AcDbEntity
  8
Make2D$可见线$普通线
100
AcDbVertex
100
AcDb2dVertex
 10
388.7358064537341
 20
88.12105429840368
 30
0.0
  0
VERTEX
  5
316
330
30A
100
AcDbEntity
  8
Make2D$可见线$普通线
100
AcDbVertex
100
AcDb2dVertex
 10
388.5154825562331
 20
88.40850064071184
 30
0.0
  0
VERTEX
  5
317
330
30A
100
AcDbEntity
  8
Make2D$可见线$普通线
100
AcDbVertex
100
AcDb2dVertex
 10
388.2728801926529
 20
88.53906387676828
 30
0.0
  0
VERTEX
  5
318
330
30A
100
AcDbEntity
  8
Make2D$可见线$普通线
100
AcDbVertex
100
AcDb2dVertex
 10
387.99854776825
 20
88.56460054625403
 30
0.0
  0
VERTEX
  5
319
330
30A
100
AcDbEntity
  8
Make2D$可见线$普通线
100
AcDbVertex
100
AcDb2dVertex
 10
387.8280645043778
 20
88.54493337201494
 30
0.0
  0
VERTEX
  5
31A
330
30A
100
AcDbEntity
  8
Make2D$可见线$普通线
100
AcDbVertex
100
AcDb2dVertex
 10
387.6868960184057
 20
88.41782587314502
 30
0.0
  0
SEQEND
  5
31B
330
30A
100
AcDbEntity
  8
Make2D$可见线$普通线
  0
POLYLINE
  5
31C
330
1F
100
AcDbEntity
  8
Make2D$可见线$普通线
100
AcDb2dPolyline
 66
     1
 10
0.0
 20
0.0
 30
0.0
  0
VERTEX
  5
31D
330
31C
100
AcDbEntity
  8
Make2D$可见线$普通线
100
AcDbVertex
100
AcDb2dVertex
 10
388.0957822321917
 20
86.60504518891388
 30
0.0
  0
VERTEX
  5
31E
330
31C
100
AcDbEntity
  8
Make2D$可见线$普通线
100
AcDbVertex
100
AcDb2dVertex
 10
388.0771565516268
 20
86.50768428403829
 30
0.0
  0
VERTEX
  5
31F
330
31C
100
AcDbEntity
  8
Make2D$可见线$普通线
100
AcDbVertex
100
AcDb2dVertex
 10
388.2122183772389
 20
86.31600225163264
 30
0.0
  0
VERTEX
  5
320
330
31C
100
AcDbEntity
  8
Make2D$可见线$普通线
100
AcDbVertex
100
AcDb2dVertex
 10
388.3134378020345
 20
86.21085115088805
 30
0.0
  0
VERTEX
  5
321
330
31C
100
AcDbEntity
  8
Make2D$可见线$普通线
100
AcDbVertex
100
AcDb2dVertex
 10
388.587652938548
 20
85.97207446073502
 30
0.0
  0
VERTEX
  5
322
330
31C
100
AcDbEntity
  8
Make2D$可见线$普通线
100
AcDbVertex
100
AcDb2dVertex
 10
388.6601726151672
 20
85.95483850997492
 30
0.0
  0
VERTEX
  5
323
330
31C
100
AcDbEntity
  8
Make2D$可见线$普通线
100
AcDbVertex
100
AcDb2dVertex
 10
388.7209918139384
 20
85.99200371124822
 30
0.0
  0
VERTEX
  5
324
330
31C
100
AcDbEntity
  8
Make2D$可见线$普通线
100
AcDbVertex
100
AcDb2dVertex
 10
388.7336377936471
 20
86.0586922841279
 30
0.0
  0
VERTEX
  5
325
330
31C
100
AcDbEntity
  8
Make2D$可见线$普通线
100
AcDbVertex
100
AcDb2dVertex
 10
388.7031869667524
 20
86.16915050588874
 30
0.0
  0
VERTEX
  5
326
330
31C
100
AcDbEntity
  8
Make2D$可见线$普通线
100
AcDbVertex
100
AcDb2dVertex
 10
388.5962129940328
 20
86.32333469278011
 30
0.0
  0
VERTEX
  5
327
330
31C
100
AcDbEntity
  8
Make2D$可见线$普通线
100
AcDbVertex
100
AcDb2dVertex
 10
388.5044856150685
 20
86.48134349868415
 30
0.0
  0
VERTEX
  5
328
330
31C
100
AcDbEntity
  8
Make2D$可见线$普通线
100
AcDbVertex
100
AcDb2dVertex
 10
388.268271488892
 20
86.64230534732063
 30
0.0
  0
VERTEX
  5
329
330
31C
100
AcDbEntity
  8
Make2D$可见线$普通线
100
AcDbVertex
100
AcDb2dVertex
 10
388.1821327410279
 20
86.6532170357542
 30
0.0
  0
VERTEX
  5
32A
330
31C
100
AcDbEntity
  8
Make2D$可见线$普通线
100
AcDbVertex
100
AcDb2dVertex
 10
388.0957822321917
 20
86.60504518891388
 30
0.0
  0
SEQEND
  5
32B
330
31C
100
AcDbEntity
  8
Make2D$可见线$普通线
  0
POLYLINE
  5
32C
330
1F
100
AcDbEntity
  8
Make2D$可见线$普通线
100
AcDb2dPolyline
 66
     1
 10
0.0
 20
0.0
 30
0.0
  0
VERTEX
  5
32D
330
32C
100
AcDbEntity
  8
Make2D$可见线$普通线
100
AcDbVertex
100
AcDb2dVertex
 10
388.5317430632229
 20
83.07924646134869
 30
0.0
  0
VERTEX
  5
32E
330
32C
100
AcDbEntity
  8
Make2D$可见线$普通线
100
AcDbVertex
100
AcDb2dVertex
 10
388.7257889070912
 20
82.92685703646542
 30
0.0
  0
VERTEX
  5
32F
330
32C
100
AcDbEntity
  8
Make2D$可见线$普通线
100
AcDbVertex
100
AcDb2dVertex
 10
388.8469593557836
 20
82.89619575238554
 30
0.0
  0
VERTEX
  5
330
330
32C
100
AcDbEntity
  8
Make2D$可见线$普通线
100
AcDbVertex
100
AcDb2dVertex
 10
388.8765219233281
 20
82.90245186740582
 30
0.0
  0
VERTEX
  5
331
330
32C
100
AcDbEntity
  8
Make2D$可见线$普通线
100
AcDbVertex
100
AcDb2dVertex
 10
388.9075871226831
 20
82.96416487323323
 30
0.0
  0
VERTEX
  5
332
330
32C
100
AcDbEntity
  8
Make2D$可见线$普通线
100
AcDbVertex
100
AcDb2dVertex
 10
388.8834567573932
 20
83.02806600507084
 30
0.0
  0
VERTEX
  5
333
330
32C
100
AcDbEntity
  8
Make2D$可见线$普通线
100
AcDbVertex
100
AcDb2dVertex
 10
388.7988040547439
 20
83.12558553002405
 30
0.0
  0
VERTEX
  5
334
330
32C
100
AcDbEntity
  8
Make2D$可见线$普通线
100
AcDbVertex
100
AcDb2dVertex
 10
388.6461730349972
 20
83.23828304830691
 30
0.0
  0
VERTEX
  5
335
330
32C
100
AcDbEntity
  8
Make2D$可见线$普通线
100
AcDbVertex
100
AcDb2dVertex
 10
388.4862950965255
 20
83.27722451977
 30
0.0
  0
VERTEX
  5
336
330
32C
100
AcDbEntity
  8
Make2D$可见线$普通线
100
AcDbVertex
100
AcDb2dVertex
 10
388.423259260538
 20
83.22084537010242
 30
0.0
  0
VERTEX
  5
337
330
32C
100
AcDbEntity
  8
Make2D$可见线$普通线
100
AcDbVertex
100
AcDb2dVertex
 10
388.5317430632229
 20
83.07924646134869
 30
0.0
  0
SEQEND
  5
338
330
32C
100
AcDbEntity
  8
Make2D$可见线$普通线
  0
POLYLINE
  5
339
330
1F
100
AcDbEntity
  8
Make2D$可见线$普通线
100
AcDb2dPolyline
 66
     1
 10
0.0
 20
0.0
 30
0.0
  0
VERTEX
  5
33A
330
339
100
AcDbEntity
  8
Make2D$可见线$普通线
100
AcDbVertex
100
AcDb2dVertex
 10
390.6996549043674
 20
79.64816933519079
 30
0.0
  0
VERTEX
  5
33B
330
339
100
AcDbEntity
  8
Make2D$可见线$普通线
100
AcDbVertex
100
AcDb2dVertex
 10
390.6336765166413
 20
79.6433325584312
 30
0.0
  0
VERTEX
  5
33C
330
339
100
AcDbEntity
  8
Make2D$可见线$普通线
100
AcDbVertex
100
AcDb2dVertex
 10
390.6181538288315
 20
79.60524168972152
 30
0.0
  0
VERTEX
  5
33D
330
339
100
AcDbEntity
  8
Make2D$可见线$普通线
100
AcDbVertex
100
AcDb2dVertex
 10
390.6167103529959
 20
79.52801403028762
 30
0.0
  0
VERTEX
  5
33E
330
339
100
AcDbEntity
  8
Make2D$可见线$普通线
100
AcDbVertex
100
AcDb2dVertex
 10
390.6498406743487
 20
79.49747606717936
 30
0.0
  0
VERTEX
  5
33F
330
339
100
AcDbEntity
  8
Make2D$可见线$普通线
100
AcDbVertex
100
AcDb2dVertex
 10
390.7176605036271
 20
79.34465485353188
 30
0.0
  0
VERTEX
  5
340
330
339
100
AcDbEntity
  8
Make2D$可见线$普通线
100
AcDbVertex
100
AcDb2dVertex
 10
390.8966470141311
 20
79.13417477448773
 30
0.0
  0
VERTEX
  5
341
330
339
100
AcDbEntity
  8
Make2D$可见线$普通线
100
AcDbVertex
100
AcDb2dVertex
 10
391.1735559893344
 20
78.7630601108982
 30
0.0
  0
VERTEX
  5
342
330
339
100
AcDbEntity
  8
Make2D$可见线$普通线
100
AcDbVertex
100
AcDb2dVertex
 10
391.5355433809898
 20
78.39388183389495
 30
0.0
  0
VERTEX
  5
343
330
339
100
AcDbEntity
  8
Make2D$可见线$普通线
100
AcDbVertex
100
AcDb2dVertex
 10
392.1711066621575
 20
77.83974829453255
 30
0.0
  0
VERTEX
  5
344
330
339
100
AcDbEntity
  8
Make2D$可见线$普通线
100
AcDbVertex
100
AcDb2dVertex
 10
392.3342956307943
 20
77.72592678508987
 30
0.0
  0
VERTEX
  5
345
330
339
100
AcDbEntity
  8
Make2D$可见线$普通线
100
AcDbVertex
100
AcDb2dVertex
 10
392.4581418879554
 20
77.6164643609428
 30
0.0
  0
VERTEX
  5
346
330
339
100
AcDbEntity
  8
Make2D$可见线$普通线
100
AcDbVertex
100
AcDb2dVertex
 10
392.9517216068459
 20
77.34799931260919
 30
0.0
  0
VERTEX
  5
347
330
339
100
AcDbEntity
  8
Make2D$可见线$普通线
100
AcDbVertex
100
AcDb2dVertex
 10
393.1392485588718
 20
77.26715974644479
 30
0.0
  0
VERTEX
  5
348
330
339
100
AcDbEntity
  8
Make2D$可见线$普通线
100
AcDbVertex
100
AcDb2dVertex
 10
393.2597054147417
 20
77.18829622020904
 30
0.0
  0
VERTEX
  5
349
330
339
100
AcDbEntity
  8
Make2D$可见线$普通线
100
AcDbVertex
100
AcDb2dVertex
 10
393.4595942977637
 20
77.18659207625
 30
0.0
  0
VERTEX
  5
34A
330
339
100
AcDbEntity
  8
Make2D$可见线$普通线
100
AcDbVertex
100
AcDb2dVertex
 10
393.6195292026108
 20
77.1002006941428
 30
0.0
  0
VERTEX
  5
34B
330
339
100
AcDbEntity
  8
Make2D$可见线$普通线
100
AcDbVertex
100
AcDb2dVertex
 10
393.7439356377806
 20
77.07401156530749
 30
0.0
  0
VERTEX
  5
34C
330
339
100
AcDbEntity
  8
Make2D$可见线$普通线
100
AcDbVertex
100
AcDb2dVertex
 10
393.7911941264888
 20
77.08574433040609
 30
0.0
  0
VERTEX
  5
34D
330
339
100
AcDbEntity
  8
Make2D$可见线$普通线
100
AcDbVertex
100
AcDb2dVertex
 10
393.8116172220532
 20
77.16075947347427
 30
0.0
  0
VERTEX
  5
34E
330
339
100
AcDbEntity
  8
Make2D$可见线$普通线
100
AcDbVertex
100
AcDb2dVertex
 10
393.8019538237269
 20
77.2563563703146
 30
0.0
  0
VERTEX
  5
34F
330
339
100
AcDbEntity
  8
Make2D$可见线$普通线
100
AcDbVertex
100
AcDb2dVertex
 10
393.7057068239049
 20
77.36272585664209
 30
0.0
  0
VERTEX
  5
350
330
339
100
AcDbEntity
  8
Make2D$可见线$普通线
100
AcDbVertex
100
AcDb2dVertex
 10
393.481680075238
 20
77.52990324034077
 30
0.0
  0
VERTEX
  5
351
330
339
100
AcDbEntity
  8
Make2D$可见线$普通线
100
AcDbVertex
100
AcDb2dVertex
 10
392.7619990782474
 20
78.15732827049474
 30
0.0
  0
VERTEX
  5
352
330
339
100
AcDbEntity
  8
Make2D$可见线$普通线
100
AcDbVertex
100
AcDb2dVertex
 10
392.5906140683917
 20
78.26584200559454
 30
0.0
  0
VERTEX
  5
353
330
339
100
AcDbEntity
  8
Make2D$可见线$普通线
100
AcDbVertex
100
AcDb2dVertex
 10
392.53381022308
 20
78.34417819157112
 30
0.0
  0
VERTEX
  5
354
330
339
100
AcDbEntity
  8
Make2D$可见线$普通线
100
AcDbVertex
100
AcDb2dVertex
 10
392.3282768280505
 20
78.45350429218557
 30
0.0
  0
VERTEX
  5
355
330
339
100
AcDbEntity
  8
Make2D$可见线$普通线
100
AcDbVertex
100
AcDb2dVertex
 10
392.1323529993716
 20
78.64420818867414
 30
0.0
  0
VERTEX
  5
356
330
339
100
AcDbEntity
  8
Make2D$可见线$普通线
100
AcDbVertex
100
AcDb2dVertex
 10
391.9785275877948
 20
78.72892895683866
 30
0.0
  0
VERTEX
  5
357
330
339
100
AcDbEntity
  8
Make2D$可见线$普通线
100
AcDbVertex
100
AcDb2dVertex
 10
391.7274335072647
 20
78.96938171296152
 30
0.0
  0
VERTEX
  5
358
330
339
100
AcDbEntity
  8
Make2D$可见线$普通线
100
AcDbVertex
100
AcDb2dVertex
 10
391.4151181390159
 20
79.18124251002824
 30
0.0
  0
VERTEX
  5
359
330
339
100
AcDbEntity
  8
Make2D$可见线$普通线
100
AcDbVertex
100
AcDb2dVertex
 10
391.2586423662082
 20
79.26967576658295
 30
0.0
  0
VERTEX
  5
35A
330
339
100
AcDbEntity
  8
Make2D$可见线$普通线
100
AcDbVertex
100
AcDb2dVertex
 10
390.8457082531514
 20
79.58203420636072
 30
0.0
  0
VERTEX
  5
35B
330
339
100
AcDbEntity
  8
Make2D$可见线$普通线
100
AcDbVertex
100
AcDb2dVertex
 10
390.7844146351642
 20
79.57225801196476
 30
0.0
  0
VERTEX
  5
35C
330
339
100
AcDbEntity
  8
Make2D$可见线$普通线
100
AcDbVertex
100
AcDb2dVertex
 10
390.7093715076103
 20
79.63035623927566
 30
0.0
  0
VERTEX
  5
35D
330
339
100
AcDbEntity
  8
Make2D$可见线$普通线
100
AcDbVertex
100
AcDb2dVertex
 10
390.6996549043674
 20
79.64816933519079
 30
0.0
  0
SEQEND
  5
35E
330
339
100
AcDbEntity
  8
Make2D$可见线$普通线
  0
POLYLINE
  5
35F
330
1F
100
AcDbEntity
  8
Make2D$可见线$普通线
100
AcDb2dPolyline
 66
     1
 10
0.0
 20
0.0
 30
0.0
  0
VERTEX
  5
360
330
35F
100
AcDbEntity
  8
Make2D$可见线$普通线
100
AcDbVertex
100
AcDb2dVertex
 10
394.2490802720046
 20
77.10996142283396
 30
0.0
  0
VERTEX
  5
361
330
35F
100
AcDbEntity
  8
Make2D$可见线$普通线
100
AcDbVertex
100
AcDb2dVertex
 10
394.2444369383924
 20
76.93989788238433
 30
0.0
  0
VERTEX
  5
362
330
35F
100
AcDbEntity
  8
Make2D$可见线$普通线
100
AcDbVertex
100
AcDb2dVertex
 10
394.2075927475042
 20
76.86554502783018
 30
0.0
  0
VERTEX
  5
363
330
35F
100
AcDbEntity
  8
Make2D$可见线$普通线
100
AcDbVertex
100
AcDb2dVertex
 10
394.1173356795835
 20
76.79875012295928
 30
0.0
  0
VERTEX
  5
364
330
35F
100
AcDbEntity
  8
Make2D$可见线$普通线
100
AcDbVertex
100
AcDb2dVertex
 10
393.9528197301848
 20
76.77194509619186
 30
0.0
  0
VERTEX
  5
365
330
35F
100
AcDbEntity
  8
Make2D$可见线$普通线
100
AcDbVertex
100
AcDb2dVertex
 10
393.3742703192343
 20
76.9208919752483
 30
0.0
  0
VERTEX
  5
366
330
35F
100
AcDbEntity
  8
Make2D$可见线$普通线
100
AcDbVertex
100
AcDb2dVertex
 10
393.1812461454086
 20
77.02264133028983
 30
0.0
  0
VERTEX
  5
367
330
35F
100
AcDbEntity
  8
Make2D$可见线$普通线
100
AcDbVertex
100
AcDb2dVertex
 10
393.0890884988593
 20
77.02440555591407
 30
0.0
  0
VERTEX
  5
368
330
35F
100
AcDbEntity
  8
Make2D$可见线$普通线
100
AcDbVertex
100
AcDb2dVertex
 10
392.3194874139233
 20
77.47781195125047
 30
0.0
  0
VERTEX
  5
369
330
35F
100
AcDbEntity
  8
Make2D$可见线$普通线
100
AcDbVertex
100
AcDb2dVertex
 10
392.1982232582781
 20
77.5149020262031
 30
0.0
  0
VERTEX
  5
36A
330
35F
100
AcDbEntity
  8
Make2D$可见线$普通线
100
AcDbVertex
100
AcDb2dVertex
 10
391.8988610130106
 20
77.78741868220025
 30
0.0
  0
VERTEX
  5
36B
330
35F
100
AcDbEntity
  8
Make2D$可见线$普通线
100
AcDbVertex
100
AcDb2dVertex
 10
391.4313664343159
 20
78.16851568153787
 30
0.0
  0
VERTEX
  5
36C
330
35F
100
AcDbEntity
  8
Make2D$可见线$普通线
100
AcDbVertex
100
AcDb2dVertex
 10
390.4402881371087
 20
79.35196683815273
 30
0.0
  0
VERTEX
  5
36D
330
35F
100
AcDbEntity
  8
Make2D$可见线$普通线
100
AcDbVertex
100
AcDb2dVertex
 10
389.7850241595822
 20
80.40754646106232
 30
0.0
  0
VERTEX
  5
36E
330
35F
100
AcDbEntity
  8
Make2D$可见线$普通线
100
AcDbVertex
100
AcDb2dVertex
 10
388.2666044608356
 20
81.29586016925178
 30
0.0
  0
VERTEX
  5
36F
330
35F
100
AcDbEntity
  8
Make2D$可见线$普通线
100
AcDbVertex
100
AcDb2dVertex
 10
388.1244309399219
 20
81.44545421476879
 30
0.0
  0
VERTEX
  5
370
330
35F
100
AcDbEntity
  8
Make2D$可见线$普通线
100
AcDbVertex
100
AcDb2dVertex
 10
387.7061505821469
 20
81.71504074653238
 30
0.0
  0
VERTEX
  5
371
330
35F
100
AcDbEntity
  8
Make2D$可见线$普通线
100
AcDbVertex
100
AcDb2dVertex
 10
387.3772005981532
 20
81.87627293606702
 30
0.0
  0
VERTEX
  5
372
330
35F
100
AcDbEntity
  8
Make2D$可见线$普通线
100
AcDbVertex
100
AcDb2dVertex
 10
387.1389126644536
 20
82.0662873476965
 30
0.0
  0
VERTEX
  5
373
330
35F
100
AcDbEntity
  8
Make2D$可见线$普通线
100
AcDbVertex
100
AcDb2dVertex
 10
386.9510901586241
 20
82.15791421651635
 30
0.0
  0
VERTEX
  5
374
330
35F
100
AcDbEntity
  8
Make2D$可见线$普通线
100
AcDbVertex
100
AcDb2dVertex
 10
386.5399136329193
 20
82.4576044494912
 30
0.0
  0
VERTEX
  5
375
330
35F
100
AcDbEntity
  8
Make2D$可见线$普通线
100
AcDbVertex
100
AcDb2dVertex
 10
386.3267851167011
 20
82.55091353268573
 30
0.0
  0
VERTEX
  5
376
330
35F
100
AcDbEntity
  8
Make2D$可见线$普通线
100
AcDbVertex
100
AcDb2dVertex
 10
385.4941429626816
 20
83.08597896882678
 30
0.0
  0
VERTEX
  5
377
330
35F
100
AcDbEntity
  8
Make2D$可见线$普通线
100
AcDbVertex
100
AcDb2dVertex
 10
385.3693007747335
 20
83.11932526556232
 30
0.0
  0
VERTEX
  5
378
330
35F
100
AcDbEntity
  8
Make2D$可见线$普通线
100
AcDbVertex
100
AcDb2dVertex
 10
385.1884499194288
 20
83.29046861191794
 30
0.0
  0
VERTEX
  5
379
330
35F
100
AcDbEntity
  8
Make2D$可见线$普通线
100
AcDbVertex
100
AcDb2dVertex
 10
384.8485476677732
 20
83.46593694326076
 30
0.0
  0
VERTEX
  5
37A
330
35F
100
AcDbEntity
  8
Make2D$可见线$普通线
100
AcDbVertex
100
AcDb2dVertex
 10
384.7158128239458
 20
83.56338348505754
 30
0.0
  0
VERTEX
  5
37B
330
35F
100
AcDbEntity
  8
Make2D$可见线$普通线
100
AcDbVertex
100
AcDb2dVertex
 10
384.4318458024305
 20
83.72494238022601
 30
0.0
  0
VERTEX
  5
37C
330
35F
100
AcDbEntity
  8
Make2D$可见线$普通线
100
AcDbVertex
100
AcDb2dVertex
 10
384.2421322436238
 20
83.85934271397774
 30
0.0
  0
VERTEX
  5
37D
330
35F
100
AcDbEntity
  8
Make2D$可见线$普通线
100
AcDbVertex
100
AcDb2dVertex
 10
383.9629646380413
 20
83.95609502591945
 30
0.0
  0
VERTEX
  5
37E
330
35F
100
AcDbEntity
  8
Make2D$可见线$普通线
100
AcDbVertex
100
AcDb2dVertex
 10
383.8054061607197
 20
84.04161934979503
 30
0.0
  0
VERTEX
  5
37F
330
35F
100
AcDbEntity
  8
Make2D$可见线$普通线
100
AcDbVertex
100
AcDb2dVertex
 10
383.656450013998
 20
84.08123014155784
 30
0.0
  0
VERTEX
  5
380
330
35F
100
AcDbEntity
  8
Make2D$可见线$普通线
100
AcDbVertex
100
AcDb2dVertex
 10
383.5141613799525
 20
84.15745743469004
 30
0.0
  0
VERTEX
  5
381
330
35F
100
AcDbEntity
  8
Make2D$可见线$普通线
100
AcDbVertex
100
AcDb2dVertex
 10
383.4375378383837
 20
84.16940921166496
 30
0.0
  0
VERTEX
  5
382
330
35F
100
AcDbEntity
  8
Make2D$可见线$普通线
100
AcDbVertex
100
AcDb2dVertex
 10
383.3178674944568
 20
84.21129387056781
 30
0.0
  0
VERTEX
  5
383
330
35F
100
AcDbEntity
  8
Make2D$可见线$普通线
100
AcDbVertex
100
AcDb2dVertex
 10
382.99597258046
 20
84.19859031212467
 30
0.0
  0
VERTEX
  5
384
330
35F
100
AcDbEntity
  8
Make2D$可见线$普通线
100
AcDbVertex
100
AcDb2dVertex
 10
382.924414693084
 20
84.12226358403778
 30
0.0
  0
VERTEX
  5
385
330
35F
100
AcDbEntity
  8
Make2D$可见线$普通线
100
AcDbVertex
100
AcDb2dVertex
 10
382.9180948847239
 20
84.00338485044641
 30
0.0
  0
VERTEX
  5
386
330
35F
100
AcDbEntity
  8
Make2D$可见线$普通线
100
AcDbVertex
100
AcDb2dVertex
 10
383.0516702416756
 20
83.73375976017927
 30
0.0
  0
VERTEX
  5
387
330
35F
100
AcDbEntity
  8
Make2D$可见线$普通线
100
AcDbVertex
100
AcDb2dVertex
 10
383.1585433161738
 20
83.58597235912417
 30
0.0
  0
VERTEX
  5
388
330
35F
100
AcDbEntity
  8
Make2D$可见线$普通线
100
AcDbVertex
100
AcDb2dVertex
 10
383.2599024021688
 20
83.4258831252166
 30
0.0
  0
VERTEX
  5
389
330
35F
100
AcDbEntity
  8
Make2D$可见线$普通线
100
AcDbVertex
100
AcDb2dVertex
 10
383.4102143554135
 20
83.22152131541306
 30
0.0
 42
-0.0091604693026188
  0
VERTEX
  5
38A
330
35F
100
AcDbEntity
  8
Make2D$可见线$普通线
100
AcDbVertex
100
AcDb2dVertex
 10
384.9610685671593
 20
81.46931248461513
 30
0.0
 42
0.0133038887993764
  0
VERTEX
  5
38B
330
35F
100
AcDbEntity
  8
Make2D$可见线$普通线
100
AcDbVertex
100
AcDb2dVertex
 10
386.5322455109544
 20
79.8781468011123
 30
0.0
  0
VERTEX
  5
38C
330
35F
100
AcDbEntity
  8
Make2D$可见线$普通线
100
AcDbVertex
100
AcDb2dVertex
 10
386.7797351690475
 20
79.60970620172405
 30
0.0
  0
VERTEX
  5
38D
330
35F
100
AcDbEntity
  8
Make2D$可见线$普通线
100
AcDbVertex
100
AcDb2dVertex
 10
386.91407015317
 20
79.42456197401042
 30
0.0
  0
VERTEX
  5
38E
330
35F
100
AcDbEntity
  8
Make2D$可见线$普通线
100
AcDbVertex
100
AcDb2dVertex
 10
387.0702935353787
 20
79.27125114078682
 30
0.0
  0
VERTEX
  5
38F
330
35F
100
AcDbEntity
  8
Make2D$可见线$普通线
100
AcDbVertex
100
AcDb2dVertex
 10
387.2666342579494
 20
79.0206698316134
 30
0.0
  0
VERTEX
  5
390
330
35F
100
AcDbEntity
  8
Make2D$可见线$普通线
100
AcDbVertex
100
AcDb2dVertex
 10
387.6226685650045
 20
78.66616566467984
 30
0.0
  0
VERTEX
  5
391
330
35F
100
AcDbEntity
  8
Make2D$可见线$普通线
100
AcDbVertex
100
AcDb2dVertex
 10
388.6785974963114
 20
77.74026978511777
 30
0.0
  0
VERTEX
  5
392
330
35F
100
AcDbEntity
  8
Make2D$可见线$普通线
100
AcDbVertex
100
AcDb2dVertex
 10
388.8842729879005
 20
77.67128488075365
 30
0.0
  0
VERTEX
  5
393
330
35F
100
AcDbEntity
  8
Make2D$可见线$普通线
100
AcDbVertex
100
AcDb2dVertex
 10
389.116620241347
 20
77.64993029166179
 30
0.0
  0
VERTEX
  5
394
330
35F
100
AcDbEntity
  8
Make2D$可见线$普通线
100
AcDbVertex
100
AcDb2dVertex
 10
389.2544956340818
 20
77.47616632892321
 30
0.0
  0
VERTEX
  5
395
330
35F
100
AcDbEntity
  8
Make2D$可见线$普通线
100
AcDbVertex
100
AcDb2dVertex
 10
389.2624698565743
 20
77.32493610785399
 30
0.0
  0
VERTEX
  5
396
330
35F
100
AcDbEntity
  8
Make2D$可见线$普通线
100
AcDbVertex
100
AcDb2dVertex
 10
389.1908081854395
 20
77.19841089581153
 30
0.0
  0
VERTEX
  5
397
330
35F
100
AcDbEntity
  8
Make2D$可见线$普通线
100
AcDbVertex
100
AcDb2dVertex
 10
389.0813159953406
 20
77.14845083263911
 30
0.0
  0
VERTEX
  5
398
330
35F
100
AcDbEntity
  8
Make2D$可见线$普通线
100
AcDbVertex
100
AcDb2dVertex
 10
388.9836794181705
 20
77.14042736368945
 30
0.0
  0
VERTEX
  5
399
330
35F
100
AcDbEntity
  8
Make2D$可见线$普通线
100
AcDbVertex
100
AcDb2dVertex
 10
388.4383961954099
 20
77.51544126864643
 30
0.0
  0
VERTEX
  5
39A
330
35F
100
AcDbEntity
  8
Make2D$可见线$普通线
100
AcDbVertex
100
AcDb2dVertex
 10
388.2524407043321
 20
77.72938134018658
 30
0.0
  0
VERTEX
  5
39B
330
35F
100
AcDbEntity
  8
Make2D$可见线$普通线
100
AcDbVertex
100
AcDb2dVertex
 10
388.1334927544566
 20
77.79287171822396
 30
0.0
  0
VERTEX
  5
39C
330
35F
100
AcDbEntity
  8
Make2D$可见线$普通线
100
AcDbVertex
100
AcDb2dVertex
 10
388.0145825090922
 20
77.93623378121366
 30
0.0
  0
VERTEX
  5
39D
330
35F
100
AcDbEntity
  8
Make2D$可见线$普通线
100
AcDbVertex
100
AcDb2dVertex
 10
387.8342279802013
 20
78.09589739279703
 30
0.0
  0
VERTEX
  5
39E
330
35F
100
AcDbEntity
  8
Make2D$可见线$普通线
100
AcDbVertex
100
AcDb2dVertex
 10
387.6279654307571
 20
78.36505687729992
 30
0.0
  0
VERTEX
  5
39F
330
35F
100
AcDbEntity
  8
Make2D$可见线$普通线
100
AcDbVertex
100
AcDb2dVertex
 10
387.4340886645743
 20
78.55917444343457
 30
0.0
  0
VERTEX
  5
3A0
330
35F
100
AcDbEntity
  8
Make2D$可见线$普通线
100
AcDbVertex
100
AcDb2dVertex
 10
386.91191302038
 20
79.14035175279206
 30
0.0
  0
VERTEX
  5
3A1
330
35F
100
AcDbEntity
  8
Make2D$可见线$普通线
100
AcDbVertex
100
AcDb2dVertex
 10
386.7150045053836
 20
79.4248455503956
 30
0.0
  0
VERTEX
  5
3A2
330
35F
100
AcDbEntity
  8
Make2D$可见线$普通线
100
AcDbVertex
100
AcDb2dVertex
 10
385.9741649851047
 20
80.15362479868223
 30
0.0
  0
VERTEX
  5
3A3
330
35F
100
AcDbEntity
  8
Make2D$可见线$普通线
100
AcDbVertex
100
AcDb2dVertex
 10
385.7496744538656
 20
80.42282952970412
 30
0.0
  0
VERTEX
  5
3A4
330
35F
100
AcDbEntity
  8
Make2D$可见线$普通线
100
AcDbVertex
100
AcDb2dVertex
 10
385.7007854210099
 20
80.5041049500014
 30
0.0
  0
VERTEX
  5
3A5
330
35F
100
AcDbEntity
  8
Make2D$可见线$普通线
100
AcDbVertex
100
AcDb2dVertex
 10
385.4117616768224
 20
80.73638031946994
 30
0.0
  0
VERTEX
  5
3A6
330
35F
100
AcDbEntity
  8
Make2D$可见线$普通线
100
AcDbVertex
100
AcDb2dVertex
 10
385.1863688773351
 20
81.06400471305243
 30
0.0
  0
VERTEX
  5
3A7
330
35F
100
AcDbEntity
  8
Make2D$可见线$普通线
100
AcDbVertex
100
AcDb2dVertex
 10
385.0678011431582
 20
81.14300230875868
 30
0.0
  0
VERTEX
  5
3A8
330
35F
100
AcDbEntity
  8
Make2D$可见线$普通线
100
AcDbVertex
100
AcDb2dVertex
 10
384.8393657805341
 20
81.42292648901376
 30
0.0
  0
VERTEX
  5
3A9
330
35F
100
AcDbEntity
  8
Make2D$可见线$普通线
100
AcDbVertex
100
AcDb2dVertex
 10
384.6531924413412
 20
81.62734743735062
 30
0.0
  0
VERTEX
  5
3AA
330
35F
100
AcDbEntity
  8
Make2D$可见线$普通线
100
AcDbVertex
100
AcDb2dVertex
 10
384.5276621377325
 20
81.7194150726334
 30
0.0
  0
VERTEX
  5
3AB
330
35F
100
AcDbEntity
  8
Make2D$可见线$普通线
100
AcDbVertex
100
AcDb2dVertex
 10
384.3685849084017
 20
81.946025545898
 30
0.0
  0
VERTEX
  5
3AC
330
35F
100
AcDbEntity
  8
Make2D$可见线$普通线
100
AcDbVertex
100
AcDb2dVertex
 10
384.1695052344441
 20
82.11918597890484
 30
0.0
  0
VERTEX
  5
3AD
330
35F
100
AcDbEntity
  8
Make2D$可见线$普通线
100
AcDbVertex
100
AcDb2dVertex
 10
384.0208008111813
 20
82.30591789608012
 30
0.0
  0
VERTEX
  5
3AE
330
35F
100
AcDbEntity
  8
Make2D$可见线$普通线
100
AcDbVertex
100
AcDb2dVertex
 10
383.8690563801998
 20
82.42794247012033
 30
0.0
  0
VERTEX
  5
3AF
330
35F
100
AcDbEntity
  8
Make2D$可见线$普通线
100
AcDbVertex
100
AcDb2dVertex
 10
383.2761576671265
 20
83.15832693394907
 30
0.0
  0
VERTEX
  5
3B0
330
35F
100
AcDbEntity
  8
Make2D$可见线$普通线
100
AcDbVertex
100
AcDb2dVertex
 10
383.1672859012776
 20
83.33669067446577
 30
0.0
  0
VERTEX
  5
3B1
330
35F
100
AcDbEntity
  8
Make2D$可见线$普通线
100
AcDbVertex
100
AcDb2dVertex
 10
382.9182971666493
 20
83.59624755096534
 30
0.0
  0
VERTEX
  5
3B2
330
35F
100
AcDbEntity
  8
Make2D$可见线$普通线
100
AcDbVertex
100
AcDb2dVertex
 10
382.7805805316717
 20
83.81244932641947
 30
0.0
  0
VERTEX
  5
3B3
330
35F
100
AcDbEntity
  8
Make2D$可见线$普通线
100
AcDbVertex
100
AcDb2dVertex
 10
382.750823018551
 20
83.91232054816327
 30
0.0
  0
VERTEX
  5
3B4
330
35F
100
AcDbEntity
  8
Make2D$可见线$普通线
100
AcDbVertex
100
AcDb2dVertex
 10
382.7052126281695
 20
83.99717204550721
 30
0.0
  0
VERTEX
  5
3B5
330
35F
100
AcDbEntity
  8
Make2D$可见线$普通线
100
AcDbVertex
100
AcDb2dVertex
 10
382.6851991132862
 20
84.12251654351256
 30
0.0
  0
VERTEX
  5
3B6
330
35F
100
AcDbEntity
  8
Make2D$可见线$普通线
100
AcDbVertex
100
AcDb2dVertex
 10
382.6940907134343
 20
84.29431632725401
 30
0.0
  0
VERTEX
  5
3B7
330
35F
100
AcDbEntity
  8
Make2D$可见线$普通线
100
AcDbVertex
100
AcDb2dVertex
 10
382.7652056578096
 20
84.41846613528286
 30
0.0
  0
VERTEX
  5
3B8
330
35F
100
AcDbEntity
  8
Make2D$可见线$普通线
100
AcDbVertex
100
AcDb2dVertex
 10
382.8806596244032
 20
84.47981917600917
 30
0.0
  0
VERTEX
  5
3B9
330
35F
100
AcDbEntity
  8
Make2D$可见线$普通线
100
AcDbVertex
100
AcDb2dVertex
 10
383.1248615838062
 20
84.48440237659712
 30
0.0
  0
VERTEX
  5
3BA
330
35F
100
AcDbEntity
  8
Make2D$可见线$普通线
100
AcDbVertex
100
AcDb2dVertex
 10
383.2508760195062
 20
84.43634117879445
 30
0.0
  0
VERTEX
  5
3BB
330
35F
100
AcDbEntity
  8
Make2D$可见线$普通线
100
AcDbVertex
100
AcDb2dVertex
 10
383.4297897235364
 20
84.4231980898869
 30
0.0
  0
VERTEX
  5
3BC
330
35F
100
AcDbEntity
  8
Make2D$可见线$普通线
100
AcDbVertex
100
AcDb2dVertex
 10
383.7843659687659
 20
84.30978378003509
 30
0.0
  0
VERTEX
  5
3BD
330
35F
100
AcDbEntity
  8
Make2D$可见线$普通线
100
AcDbVertex
100
AcDb2dVertex
 10
383.8647488292297
 20
84.26862747077347
 30
0.0
  0
VERTEX
  5
3BE
330
35F
100
AcDbEntity
  8
Make2D$可见线$普通线
100
AcDbVertex
100
AcDb2dVertex
 10
384.0597635770862
 20
84.20101175361889
 30
0.0
  0
VERTEX
  5
3BF
330
35F
100
AcDbEntity
  8
Make2D$可见线$普通线
100
AcDbVertex
100
AcDb2dVertex
 10
385.1487421980113
 20
83.58392514910052
 30
0.0
  0
VERTEX
  5
3C0
330
35F
100
AcDbEntity
  8
Make2D$可见线$普通线
100
AcDbVertex
100
AcDb2dVertex
 10
385.3551878101804
 20
83.48347508677237
 30
0.0
  0
VERTEX
  5
3C1
330
35F
100
AcDbEntity
  8
Make2D$可见线$普通线
100
AcDbVertex
100
AcDb2dVertex
 10
385.4850376806103
 20
83.35176443280271
 30
0.0
  0
VERTEX
  5
3C2
330
35F
100
AcDbEntity
  8
Make2D$可见线$普通线
100
AcDbVertex
100
AcDb2dVertex
 10
385.7280322762852
 20
83.19878057282504
 30
0.0
  0
VERTEX
  5
3C3
330
35F
100
AcDbEntity
  8
Make2D$可见线$普通线
100
AcDbVertex
100
AcDb2dVertex
 10
385.7989510767556
 20
83.11568869745587
 30
0.0
  0
VERTEX
  5
3C4
330
35F
100
AcDbEntity
  8
Make2D$可见线$普通线
100
AcDbVertex
100
AcDb2dVertex
 10
385.9045257489315
 20
83.09628832247914
 30
0.0
  0
VERTEX
  5
3C5
330
35F
100
AcDbEntity
  8
Make2D$可见线$普通线
100
AcDbVertex
100
AcDb2dVertex
 10
386.3981122099286
 20
82.80102176613217
 30
0.0
  0
VERTEX
  5
3C6
330
35F
100
AcDbEntity
  8
Make2D$可见线$普通线
100
AcDbVertex
100
AcDb2dVertex
 10
386.7113604373235
 20
82.58474261613854
 30
0.0
  0
VERTEX
  5
3C7
330
35F
100
AcDbEntity
  8
Make2D$可见线$普通线
100
AcDbVertex
100
AcDb2dVertex
 10
386.83325362494
 20
82.51179684194754
 30
0.0
  0
VERTEX
  5
3C8
330
35F
100
AcDbEntity
  8
Make2D$可见线$普通线
100
AcDbVertex
100
AcDb2dVertex
 10
387.0502267967448
 20
82.39597947608068
 30
0.0
  0
VERTEX
  5
3C9
330
35F
100
AcDbEntity
  8
Make2D$可见线$普通线
100
AcDbVertex
100
AcDb2dVertex
 10
387.1512378509474
 20
82.30503732642204
 30
0.0
  0
VERTEX
  5
3CA
330
35F
100
AcDbEntity
  8
Make2D$可见线$普通线
100
AcDbVertex
100
AcDb2dVertex
 10
387.3297068653523
 20
82.1691243187838
 30
0.0
  0
VERTEX
  5
3CB
330
35F
100
AcDbEntity
  8
Make2D$可见线$普通线
100
AcDbVertex
100
AcDb2dVertex
 10
387.4855657136455
 20
82.12177225036565
 30
0.0
  0
VERTEX
  5
3CC
330
35F
100
AcDbEntity
  8
Make2D$可见线$普通线
100
AcDbVertex
100
AcDb2dVertex
 10
387.7260111040799
 20
81.9563488683235
 30
0.0
  0
VERTEX
  5
3CD
330
35F
100
AcDbEntity
  8
Make2D$可见线$普通线
100
AcDbVertex
100
AcDb2dVertex
 10
387.9627861928814
 20
81.82901141077751
 30
0.0
  0
VERTEX
  5
3CE
330
35F
100
AcDbEntity
  8
Make2D$可见线$普通线
100
AcDbVertex
100
AcDb2dVertex
 10
388.1656416633833
 20
81.64628857257229
 30
0.0
  0
VERTEX
  5
3CF
330
35F
100
AcDbEntity
  8
Make2D$可见线$普通线
100
AcDbVertex
100
AcDb2dVertex
 10
388.3379278977714
 20
81.56087155731164
 30
0.0
  0
VERTEX
  5
3D0
330
35F
100
AcDbEntity
  8
Make2D$可见线$普通线
100
AcDbVertex
100
AcDb2dVertex
 10
388.5840899977915
 20
81.38494093581447
 30
0.0
  0
VERTEX
  5
3D1
330
35F
100
AcDbEntity
  8
Make2D$可见线$普通线
100
AcDbVertex
100
AcDb2dVertex
 10
389.2913646230223
 20
80.94768833982583
 30
0.0
  0
VERTEX
  5
3D2
330
35F
100
AcDbEntity
  8
Make2D$可见线$普通线
100
AcDbVertex
100
AcDb2dVertex
 10
389.4248701847185
 20
80.90095592901524
 30
0.0
  0
VERTEX
  5
3D3
330
35F
100
AcDbEntity
  8
Make2D$可见线$普通线
100
AcDbVertex
100
AcDb2dVertex
 10
389.5043383995595
 20
80.9155029108865
 30
0.0
  0
VERTEX
  5
3D4
330
35F
100
AcDbEntity
  8
Make2D$可见线$普通线
100
AcDbVertex
100
AcDb2dVertex
 10
389.5336341064508
 20
80.99634684000601
 30
0.0
  0
VERTEX
  5
3D5
330
35F
100
AcDbEntity
  8
Make2D$可见线$普通线
100
AcDbVertex
100
AcDb2dVertex
 10
389.507828460998
 20
81.13349877371284
 30
0.0
  0
VERTEX
  5
3D6
330
35F
100
AcDbEntity
  8
Make2D$可见线$普通线
100
AcDbVertex
100
AcDb2dVertex
 10
389.407416242811
 20
81.34253118971843
 30
0.0
  0
VERTEX
  5
3D7
330
35F
100
AcDbEntity
  8
Make2D$可见线$普通线
100
AcDbVertex
100
AcDb2dVertex
 10
389.2760484645543
 20
82.01175126661677
 30
0.0
  0
VERTEX
  5
3D8
330
35F
100
AcDbEntity
  8
Make2D$可见线$普通线
100
AcDbVertex
100
AcDb2dVertex
 10
389.2152854141737
 20
82.16610072307252
 30
0.0
  0
VERTEX
  5
3D9
330
35F
100
AcDbEntity
  8
Make2D$可见线$普通线
100
AcDbVertex
100
AcDb2dVertex
 10
389.209257253129
 20
82.24017825375869
 30
0.0
  0
VERTEX
  5
3DA
330
35F
100
AcDbEntity
  8
Make2D$可见线$普通线
100
AcDbVertex
100
AcDb2dVertex
 10
389.126133907097
 20
82.40001364391502
 30
0.0
  0
VERTEX
  5
3DB
330
35F
100
AcDbEntity
  8
Make2D$可见线$普通线
100
AcDbVertex
100
AcDb2dVertex
 10
388.9496502132426
 20
82.47446862401306
 30
0.0
  0
VERTEX
  5
3DC
330
35F
100
AcDbEntity
  8
Make2D$可见线$普通线
100
AcDbVertex
100
AcDb2dVertex
 10
388.5125199404319
 20
82.8669336338887
 30
0.0
  0
VERTEX
  5
3DD
330
35F
100
AcDbEntity
  8
Make2D$可见线$普通线
100
AcDbVertex
100
AcDb2dVertex
 10
388.2342101512278
 20
83.08210739580362
 30
0.0
  0
VERTEX
  5
3DE
330
35F
100
AcDbEntity
  8
Make2D$可见线$普通线
100
AcDbVertex
100
AcDb2dVertex
 10
387.9836023730845
 20
83.42079396839584
 30
0.0
  0
VERTEX
  5
3DF
330
35F
100
AcDbEntity
  8
Make2D$可见线$普通线
100
AcDbVertex
100
AcDb2dVertex
 10
387.8874978518202
 20
83.68266813587978
 30
0.0
  0
VERTEX
  5
3E0
330
35F
100
AcDbEntity
  8
Make2D$可见线$普通线
100
AcDbVertex
100
AcDb2dVertex
 10
387.8877574965568
 20
83.78909578679223
 30
0.0
  0
VERTEX
  5
3E1
330
35F
100
AcDbEntity
  8
Make2D$可见线$普通线
100
AcDbVertex
100
AcDb2dVertex
 10
388.0198275712033
 20
83.89163870314961
 30
0.0
  0
VERTEX
  5
3E2
330
35F
100
AcDbEntity
  8
Make2D$可见线$普通线
100
AcDbVertex
100
AcDb2dVertex
 10
388.1427636731076
 20
83.93115697667746
 30
0.0
  0
VERTEX
  5
3E3
330
35F
100
AcDbEntity
  8
Make2D$可见线$普通线
100
AcDbVertex
100
AcDb2dVertex
 10
388.2770161059496
 20
83.88680437201184
 30
0.0
  0
VERTEX
  5
3E4
330
35F
100
AcDbEntity
  8
Make2D$可见线$普通线
100
AcDbVertex
100
AcDb2dVertex
 10
388.4807082968915
 20
83.68639591942177
 30
0.0
  0
VERTEX
  5
3E5
330
35F
100
AcDbEntity
  8
Make2D$可见线$普通线
100
AcDbVertex
100
AcDb2dVertex
 10
388.5562851945885
 20
83.62417158354752
 30
0.0
  0
VERTEX
  5
3E6
330
35F
100
AcDbEntity
  8
Make2D$可见线$普通线
100
AcDbVertex
100
AcDb2dVertex
 10
388.626132041831
 20
83.6521577118957
 30
0.0
  0
VERTEX
  5
3E7
330
35F
100
AcDbEntity
  8
Make2D$可见线$普通线
100
AcDbVertex
100
AcDb2dVertex
 10
388.6553354673715
 20
83.74068676761907
 30
0.0
  0
VERTEX
  5
3E8
330
35F
100
AcDbEntity
  8
Make2D$可见线$普通线
100
AcDbVertex
100
AcDb2dVertex
 10
388.3746941036027
 20
84.25976913921293
 30
0.0
  0
VERTEX
  5
3E9
330
35F
100
AcDbEntity
  8
Make2D$可见线$普通线
100
AcDbVertex
100
AcDb2dVertex
 10
388.1267859787505
 20
84.65469405806549
 30
0.0
  0
VERTEX
  5
3EA
330
35F
100
AcDbEntity
  8
Make2D$可见线$普通线
100
AcDbVertex
100
AcDb2dVertex
 10
387.8890745284509
 20
84.93779341814785
 30
0.0
  0
VERTEX
  5
3EB
330
35F
100
AcDbEntity
  8
Make2D$可见线$普通线
100
AcDbVertex
100
AcDb2dVertex
 10
387.7062548112382
 20
85.1932903056181
 30
0.0
  0
VERTEX
  5
3EC
330
35F
100
AcDbEntity
  8
Make2D$可见线$普通线
100
AcDbVertex
100
AcDb2dVertex
 10
387.5914027887708
 20
85.52178473743469
 30
0.0
  0
VERTEX
  5
3ED
330
35F
100
AcDbEntity
  8
Make2D$可见线$普通线
100
AcDbVertex
100
AcDb2dVertex
 10
387.5761211577628
 20
85.69930595451272
 30
0.0
  0
VERTEX
  5
3EE
330
35F
100
AcDbEntity
  8
Make2D$可见线$普通线
100
AcDbVertex
100
AcDb2dVertex
 10
387.6418154984396
 20
85.8180822977357
 30
0.0
  0
VERTEX
  5
3EF
330
35F
100
AcDbEntity
  8
Make2D$可见线$普通线
100
AcDbVertex
100
AcDb2dVertex
 10
387.7542411312742
 20
85.86593595322107
 30
0.0
  0
VERTEX
  5
3F0
330
35F
100
AcDbEntity
  8
Make2D$可见线$普通线
100
AcDbVertex
100
AcDb2dVertex
 10
387.8717049637958
 20
85.83509255068564
 30
0.0
  0
VERTEX
  5
3F1
330
35F
100
AcDbEntity
  8
Make2D$可见线$普通线
100
AcDbVertex
100
AcDb2dVertex
 10
388.0363273005143
 20
85.69340737192884
 30
0.0
  0
VERTEX
  5
3F2
330
35F
100
AcDbEntity
  8
Make2D$可见线$普通线
100
AcDbVertex
100
AcDb2dVertex
 10
388.0886543092329
 20
85.61301011441763
 30
0.0
  0
VERTEX
  5
3F3
330
35F
100
AcDbEntity
  8
Make2D$可见线$普通线
100
AcDbVertex
100
AcDb2dVertex
 10
388.0612318354059
 20
85.49338942072562
 30
0.0
  0
VERTEX
  5
3F4
330
35F
100
AcDbEntity
  8
Make2D$可见线$普通线
100
AcDbVertex
100
AcDb2dVertex
 10
387.9977330212048
 20
85.45559431671153
 30
0.0
  0
VERTEX
  5
3F5
330
35F
100
AcDbEntity
  8
Make2D$可见线$普通线
100
AcDbVertex
100
AcDb2dVertex
 10
387.906999388357
 20
85.4294318091704
 30
0.0
  0
VERTEX
  5
3F6
330
35F
100
AcDbEntity
  8
Make2D$可见线$普通线
100
AcDbVertex
100
AcDb2dVertex
 10
387.8859936310852
 20
85.37267071004304
 30
0.0
  0
VERTEX
  5
3F7
330
35F
100
AcDbEntity
  8
Make2D$可见线$普通线
100
AcDbVertex
100
AcDb2dVertex
 10
387.9229155039355
 20
85.25787742986516
 30
0.0
  0
VERTEX
  5
3F8
330
35F
100
AcDbEntity
  8
Make2D$可见线$普通线
100
AcDbVertex
100
AcDb2dVertex
 10
388.1593730446743
 20
84.97617746335514
 30
0.0
  0
VERTEX
  5
3F9
330
35F
100
AcDbEntity
  8
Make2D$可见线$普通线
100
AcDbVertex
100
AcDb2dVertex
 10
388.5832964749051
 20
84.6364444882531
 30
0.0
  0
VERTEX
  5
3FA
330
35F
100
AcDbEntity
  8
Make2D$可见线$普通线
100
AcDbVertex
100
AcDb2dVertex
 10
388.7056391933531
 20
84.61163841777442
 30
0.0
  0
VERTEX
  5
3FB
330
35F
100
AcDbEntity
  8
Make2D$可见线$普通线
100
AcDbVertex
100
AcDb2dVertex
 10
388.810598132978
 20
84.64576398237487
 30
0.0
  0
VERTEX
  5
3FC
330
35F
100
AcDbEntity
  8
Make2D$可见线$普通线
100
AcDbVertex
100
AcDb2dVertex
 10
388.8630770038538
 20
84.7039207453348
 30
0.0
  0
VERTEX
  5
3FD
330
35F
100
AcDbEntity
  8
Make2D$可见线$普通线
100
AcDbVertex
100
AcDb2dVertex
 10
388.8748512596176
 20
84.91941264811088
 30
0.0
  0
VERTEX
  5
3FE
330
35F
100
AcDbEntity
  8
Make2D$可见线$普通线
100
AcDbVertex
100
AcDb2dVertex
 10
388.8558230513143
 20
85.02280633834583
 30
0.0
  0
VERTEX
  5
3FF
330
35F
100
AcDbEntity
  8
Make2D$可见线$普通线
100
AcDbVertex
100
AcDb2dVertex
 10
388.5380342483049
 20
85.59708534339164
 30
0.0
  0
VERTEX
  5
400
330
35F
100
AcDbEntity
  8
Make2D$可见线$普通线
100
AcDbVertex
100
AcDb2dVertex
 10
388.1343277789637
 20
86.08411025243218
 30
0.0
  0
VERTEX
  5
401
330
35F
100
AcDbEntity
  8
Make2D$可见线$普通线
100
AcDbVertex
100
AcDb2dVertex
 10
388.0381650586783
 20
86.13756940698305
 30
0.0
  0
VERTEX
  5
402
330
35F
100
AcDbEntity
  8
Make2D$可见线$普通线
100
AcDbVertex
100
AcDb2dVertex
 10
387.8618027611627
 20
86.39671227063705
 30
0.0
  0
VERTEX
  5
403
330
35F
100
AcDbEntity
  8
Make2D$可见线$普通线
100
AcDbVertex
100
AcDb2dVertex
 10
387.7302211554424
 20
86.54867831558452
 30
0.0
  0
VERTEX
  5
404
330
35F
100
AcDbEntity
  8
Make2D$可见线$普通线
100
AcDbVertex
100
AcDb2dVertex
 10
387.6683607758987
 20
86.66130868410686
 30
0.0
  0
VERTEX
  5
405
330
35F
100
AcDbEntity
  8
Make2D$可见线$普通线
100
AcDbVertex
100
AcDb2dVertex
 10
387.6694082006357
 20
87.04789196052398
 30
0.0
  0
VERTEX
  5
406
330
35F
100
AcDbEntity
  8
Make2D$可见线$普通线
100
AcDbVertex
100
AcDb2dVertex
 10
387.5944045918153
 20
87.1497967553638
 30
0.0
  0
VERTEX
  5
407
330
35F
100
AcDbEntity
  8
Make2D$可见线$普通线
100
AcDbVertex
100
AcDb2dVertex
 10
387.5770332658227
 20
87.32606894210618
 30
0.0
  0
VERTEX
  5
408
330
35F
100
AcDbEntity
  8
Make2D$可见线$普通线
100
AcDbVertex
100
AcDb2dVertex
 10
387.3589383755702
 20
87.8552351837286
 30
0.0
  0
VERTEX
  5
409
330
35F
100
AcDbEntity
  8
Make2D$可见线$普通线
100
AcDbVertex
100
AcDb2dVertex
 10
386.9105703340377
 20
88.45605781181347
 30
0.0
  0
VERTEX
  5
40A
330
35F
100
AcDbEntity
  8
Make2D$可见线$普通线
100
AcDbVertex
100
AcDb2dVertex
 10
385.7466083061059
 20
89.62026683075361
 30
0.0
  0
VERTEX
  5
40B
330
35F
100
AcDbEntity
  8
Make2D$可见线$普通线
100
AcDbVertex
100
AcDb2dVertex
 10
385.6971404046732
 20
89.73085854746124
 30
0.0
  0
VERTEX
  5
40C
330
35F
100
AcDbEntity
  8
Make2D$可见线$普通线
100
AcDbVertex
100
AcDb2dVertex
 10
385.7019181844052
 20
89.79233051729396
 30
0.0
  0
VERTEX
  5
40D
330
35F
100
AcDbEntity
  8
Make2D$可见线$普通线
100
AcDbVertex
100
AcDb2dVertex
 10
385.746093619055
 20
89.85349850074384
 30
0.0
  0
VERTEX
  5
40E
330
35F
100
AcDbEntity
  8
Make2D$可见线$普通线
100
AcDbVertex
100
AcDb2dVertex
 10
385.8638851516384
 20
89.84800533044061
 30
0.0
  0
VERTEX
  5
40F
330
35F
100
AcDbEntity
  8
Make2D$可见线$普通线
100
AcDbVertex
100
AcDb2dVertex
 10
386.0670794220395
 20
89.6814069571221
 30
0.0
 42
-0.0170467204981604
  0
VERTEX
  5
410
330
35F
100
AcDbEntity
  8
Make2D$可见线$普通线
100
AcDbVertex
100
AcDb2dVertex
 10
387.1320220271883
 20
88.55926404857028
 30
0.0
  0
VERTEX
  5
411
330
35F
100
AcDbEntity
  8
Make2D$可见线$普通线
100
AcDbVertex
100
AcDb2dVertex
 10
387.238402141028
 20
88.4736685764875
 30
0.0
  0
VERTEX
  5
412
330
35F
100
AcDbEntity
  8
Make2D$可见线$普通线
100
AcDbVertex
100
AcDb2dVertex
 10
387.3129305836201
 20
88.45176588698824
 30
0.0
  0
VERTEX
  5
413
330
35F
100
AcDbEntity
  8
Make2D$可见线$普通线
100
AcDbVertex
100
AcDb2dVertex
 10
387.4010089493486
 20
88.48264854279522
 30
0.0
  0
VERTEX
  5
414
330
35F
100
AcDbEntity
  8
Make2D$可见线$普通线
100
AcDbVertex
100
AcDb2dVertex
 10
387.5363396048641
 20
88.61561539445812
 30
0.0
  0
VERTEX
  5
415
330
35F
100
AcDbEntity
  8
Make2D$可见线$普通线
100
AcDbVertex
100
AcDb2dVertex
 10
387.7315356680695
 20
88.75505797229185
 30
0.0
  0
VERTEX
  5
416
330
35F
100
AcDbEntity
  8
Make2D$可见线$普通线
100
AcDbVertex
100
AcDb2dVertex
 10
387.8558260579212
 20
88.8088469000512
 30
0.0
  0
VERTEX
  5
417
330
35F
100
AcDbEntity
  8
Make2D$可见线$普通线
100
AcDbVertex
100
AcDb2dVertex
 10
388.2281734316111
 20
88.78708363119573
 30
0.0
  0
VERTEX
  5
418
330
35F
100
AcDbEntity
  8
Make2D$可见线$普通线
100
AcDbVertex
100
AcDb2dVertex
 10
388.5995545899009
 20
88.61182012915377
 30
0.0
  0
VERTEX
  5
419
330
35F
100
AcDbEntity
  8
Make2D$可见线$普通线
100
AcDbVertex
100
AcDb2dVertex
 10
388.9271727194786
 20
88.27169110576732
 30
0.0
  0
VERTEX
  5
41A
330
35F
100
AcDbEntity
  8
Make2D$可见线$普通线
100
AcDbVertex
100
AcDb2dVertex
 10
389.0682284748951
 20
88.07123270536032
 30
0.0
  0
VERTEX
  5
41B
330
35F
100
AcDbEntity
  8
Make2D$可见线$普通线
100
AcDbVertex
100
AcDb2dVertex
 10
389.0714609867178
 20
87.87674511019019
 30
0.0
  0
VERTEX
  5
41C
330
35F
100
AcDbEntity
  8
Make2D$可见线$普通线
100
AcDbVertex
100
AcDb2dVertex
 10
389.0148072144241
 20
87.63979630638276
 30
0.0
  0
VERTEX
  5
41D
330
35F
100
AcDbEntity
  8
Make2D$可见线$普通线
100
AcDbVertex
100
AcDb2dVertex
 10
388.886223624462
 20
87.50770341656015
 30
0.0
  0
VERTEX
  5
41E
330
35F
100
AcDbEntity
  8
Make2D$可见线$普通线
100
AcDbVertex
100
AcDb2dVertex
 10
388.7133953765476
 20
87.4766197497239
 30
0.0
  0
VERTEX
  5
41F
330
35F
100
AcDbEntity
  8
Make2D$可见线$普通线
100
AcDbVertex
100
AcDb2dVertex
 10
388.4922893545858
 20
87.47004632080562
 30
0.0
  0
VERTEX
  5
420
330
35F
100
AcDbEntity
  8
Make2D$可见线$普通线
100
AcDbVertex
100
AcDb2dVertex
 10
388.2284979830474
 20
87.57003552723062
 30
0.0
  0
VERTEX
  5
421
330
35F
100
AcDbEntity
  8
Make2D$可见线$普通线
100
AcDbVertex
100
AcDb2dVertex
 10
387.9624597693868
 20
87.71346682398176
 30
0.0
  0
VERTEX
  5
422
330
35F
100
AcDbEntity
  8
Make2D$可见线$普通线
100
AcDbVertex
100
AcDb2dVertex
 10
387.8040481448054
 20
87.79187559471721
 30
0.0
  0
VERTEX
  5
423
330
35F
100
AcDbEntity
  8
Make2D$可见线$普通线
100
AcDbVertex
100
AcDb2dVertex
 10
387.6927943735504
 20
87.77010019721841
 30
0.0
  0
VERTEX
  5
424
330
35F
100
AcDbEntity
  8
Make2D$可见线$普通线
100
AcDbVertex
100
AcDb2dVertex
 10
387.665948566475
 20
87.67233803755038
 30
0.0
  0
VERTEX
  5
425
330
35F
100
AcDbEntity
  8
Make2D$可见线$普通线
100
AcDbVertex
100
AcDb2dVertex
 10
387.7960902729413
 20
87.37841537355108
 30
0.0
  0
VERTEX
  5
426
330
35F
100
AcDbEntity
  8
Make2D$可见线$普通线
100
AcDbVertex
100
AcDb2dVertex
 10
387.9008225612366
 20
87.0651778038583
 30
0.0
  0
VERTEX
  5
427
330
35F
100
AcDbEntity
  8
Make2D$可见线$普通线
100
AcDbVertex
100
AcDb2dVertex
 10
388.001794124799
 20
86.9397837028233
 30
0.0
  0
VERTEX
  5
428
330
35F
100
AcDbEntity
  8
Make2D$可见线$普通线
100
AcDbVertex
100
AcDb2dVertex
 10
388.1828162067486
 20
86.92159854372913
 30
0.0
  0
VERTEX
  5
429
330
35F
100
AcDbEntity
  8
Make2D$可见线$普通线
100
AcDbVertex
100
AcDb2dVertex
 10
388.5271532051396
 20
86.76752287591226
 30
0.0
  0
VERTEX
  5
42A
330
35F
100
AcDbEntity
  8
Make2D$可见线$普通线
100
AcDbVertex
100
AcDb2dVertex
 10
388.944474192943
 20
86.28891536654997
 30
0.0
  0
VERTEX
  5
42B
330
35F
100
AcDbEntity
  8
Make2D$可见线$普通线
100
AcDbVertex
100
AcDb2dVertex
 10
389.0224311025383
 20
86.07170835504233
 30
0.0
  0
VERTEX
  5
42C
330
35F
100
AcDbEntity
  8
Make2D$可见线$普通线
100
AcDbVertex
100
AcDb2dVertex
 10
389.023865363148
 20
85.83480122510444
 30
0.0
  0
VERTEX
  5
42D
330
35F
100
AcDbEntity
  8
Make2D$可见线$普通线
100
AcDbVertex
100
AcDb2dVertex
 10
388.9167128108954
 20
85.657559225128
 30
0.0
  0
VERTEX
  5
42E
330
35F
100
AcDbEntity
  8
Make2D$可见线$普通线
100
AcDbVertex
100
AcDb2dVertex
 10
388.8815000546891
 20
85.54172604348888
 30
0.0
  0
VERTEX
  5
42F
330
35F
100
AcDbEntity
  8
Make2D$可见线$普通线
100
AcDbVertex
100
AcDb2dVertex
 10
388.9145557253827
 20
85.4023414676012
 30
0.0
  0
VERTEX
  5
430
330
35F
100
AcDbEntity
  8
Make2D$可见线$普通线
100
AcDbVertex
100
AcDb2dVertex
 10
389.1101835514719
 20
84.95824542083766
 30
0.0
  0
VERTEX
  5
431
330
35F
100
AcDbEntity
  8
Make2D$可见线$普通线
100
AcDbVertex
100
AcDb2dVertex
 10
389.1388439125998
 20
84.7706362119361
 30
0.0
  0
VERTEX
  5
432
330
35F
100
AcDbEntity
  8
Make2D$可见线$普通线
100
AcDbVertex
100
AcDb2dVertex
 10
389.0730464571752
 20
84.55404847581461
 30
0.0
  0
VERTEX
  5
433
330
35F
100
AcDbEntity
  8
Make2D$可见线$普通线
100
AcDbVertex
100
AcDb2dVertex
 10
388.9178533385481
 20
84.3872757261697
 30
0.0
  0
VERTEX
  5
434
330
35F
100
AcDbEntity
  8
Make2D$可见线$普通线
100
AcDbVertex
100
AcDb2dVertex
 10
388.7229222243803
 20
84.32029511752397
 30
0.0
  0
VERTEX
  5
435
330
35F
100
AcDbEntity
  8
Make2D$可见线$普通线
100
AcDbVertex
100
AcDb2dVertex
 10
388.6835853850001
 20
84.27251926028428
 30
0.0
  0
VERTEX
  5
436
330
35F
100
AcDbEntity
  8
Make2D$可见线$普通线
100
AcDbVertex
100
AcDb2dVertex
 10
388.6879675660439
 20
84.17856026552066
 30
0.0
  0
VERTEX
  5
437
330
35F
100
AcDbEntity
  8
Make2D$可见线$普通线
100
AcDbVertex
100
AcDb2dVertex
 10
388.9685821208028
 20
83.7463758438174
 30
0.0
  0
VERTEX
  5
438
330
35F
100
AcDbEntity
  8
Make2D$可见线$普通线
100
AcDbVertex
100
AcDb2dVertex
 10
389.0503113799182
 20
83.59272584469248
 30
0.0
  0
VERTEX
  5
439
330
35F
100
AcDbEntity
  8
Make2D$可见线$普通线
100
AcDbVertex
100
AcDb2dVertex
 10
389.0663744848268
 20
83.44521614978406
 30
0.0
  0
VERTEX
  5
43A
330
35F
100
AcDbEntity
  8
Make2D$可见线$普通线
100
AcDbVertex
100
AcDb2dVertex
 10
389.0430220076511
 20
83.2771796960718
 30
0.0
  0
VERTEX
  5
43B
330
35F
100
AcDbEntity
  8
Make2D$可见线$普通线
100
AcDbVertex
100
AcDb2dVertex
 10
389.1043134364834
 20
83.15661087752834
 30
0.0
  0
VERTEX
  5
43C
330
35F
100
AcDbEntity
  8
Make2D$可见线$普通线
100
AcDbVertex
100
AcDb2dVertex
 10
389.3680193506704
 20
82.83160191626608
 30
0.0
  0
VERTEX
  5
43D
330
35F
100
AcDbEntity
  8
Make2D$可见线$普通线
100
AcDbVertex
100
AcDb2dVertex
 10
389.4426843598906
 20
82.67149692856502
 30
0.0
  0
VERTEX
  5
43E
330
35F
100
AcDbEntity
  8
Make2D$可见线$普通线
100
AcDbVertex
100
AcDb2dVertex
 10
389.4151849451155
 20
82.21168912418885
 30
0.0
  0
VERTEX
  5
43F
330
35F
100
AcDbEntity
  8
Make2D$可见线$普通线
100
AcDbVertex
100
AcDb2dVertex
 10
389.487213640463
 20
81.94176543852767
 30
0.0
  0
VERTEX
  5
440
330
35F
100
AcDbEntity
  8
Make2D$可见线$普通线
100
AcDbVertex
100
AcDb2dVertex
 10
389.5056461403214
 20
81.80686704735602
 30
0.0
  0
VERTEX
  5
441
330
35F
100
AcDbEntity
  8
Make2D$可见线$普通线
100
AcDbVertex
100
AcDb2dVertex
 10
389.5758274217692
 20
81.5648827545525
 30
0.0
  0
VERTEX
  5
442
330
35F
100
AcDbEntity
  8
Make2D$可见线$普通线
100
AcDbVertex
100
AcDb2dVertex
 10
389.6182623367072
 20
81.33336490966995
 30
0.0
  0
VERTEX
  5
443
330
35F
100
AcDbEntity
  8
Make2D$可见线$普通线
100
AcDbVertex
100
AcDb2dVertex
 10
389.9342480314351
 20
80.60059810247036
 30
0.0
  0
VERTEX
  5
444
330
35F
100
AcDbEntity
  8
Make2D$可见线$普通线
100
AcDbVertex
100
AcDb2dVertex
 10
390.3287275023138
 20
80.23624881687657
 30
0.0
  0
VERTEX
  5
445
330
35F
100
AcDbEntity
  8
Make2D$可见线$普通线
100
AcDbVertex
100
AcDb2dVertex
 10
390.6048881855691
 20
80.00541466843832
 30
0.0
  0
VERTEX
  5
446
330
35F
100
AcDbEntity
  8
Make2D$可见线$普通线
100
AcDbVertex
100
AcDb2dVertex
 10
391.9943533971989
 20
79.06337912298896
 30
0.0
  0
VERTEX
  5
447
330
35F
100
AcDbEntity
  8
Make2D$可见线$普通线
100
AcDbVertex
100
AcDb2dVertex
 10
392.3976031213988
 20
78.70753362624576
 30
0.0
 42
-0.0146547290407461
  0
VERTEX
  5
448
330
35F
100
AcDbEntity
  8
Make2D$可见线$普通线
100
AcDbVertex
100
AcDb2dVertex
 10
394.0745642954873
 20
77.33971478034833
 30
0.0
  0
VERTEX
  5
449
330
35F
100
AcDbEntity
  8
Make2D$可见线$普通线
100
AcDbVertex
100
AcDb2dVertex
 10
394.2166679145229
 20
77.1700630370659
 30
0.0
  0
VERTEX
  5
44A
330
35F
100
AcDbEntity
  8
Make2D$可见线$普通线
100
AcDbVertex
100
AcDb2dVertex
 10
394.2490802720046
 20
77.10996142283396
 30
0.0
  0
SEQEND
  5
44B
330
35F
100
AcDbEntity
  8
Make2D$可见线$普通线
  0
POLYLINE
  5
44C
330
1F
100
AcDbEntity
  8
Make2D$可见线$普通线
100
AcDb2dPolyline
 66
     1
 10
0.0
 20
0.0
 30
0.0
  0
VERTEX
  5
44D
330
44C
100
AcDbEntity
  8
Make2D$可见线$普通线
100
AcDbVertex
100
AcDb2dVertex
 10
390.7654734500069
 20
96.26486023906169
 30
0.0
  0
VERTEX
  5
44E
330
44C
100
AcDbEntity
  8
Make2D$可见线$普通线
100
AcDbVertex
100
AcDb2dVertex
 10
390.6917501839962
 20
96.22718170033384
 30
0.0
  0
VERTEX
  5
44F
330
44C
100
AcDbEntity
  8
Make2D$可见线$普通线
100
AcDbVertex
100
AcDb2dVertex
 10
390.6233917027004
 20
96.22039532521613
 30
0.0
  0
VERTEX
  5
450
330
44C
100
AcDbEntity
  8
Make2D$可见线$普通线
100
AcDbVertex
100
AcDb2dVertex
 10
390.5938558580169
 20
96.35498483131504
 30
0.0
  0
VERTEX
  5
451
330
44C
100
AcDbEntity
  8
Make2D$可见线$普通线
100
AcDbVertex
100
AcDb2dVertex
 10
390.6698203531855
 20
96.36571213161811
 30
0.0
  0
VERTEX
  5
452
330
44C
100
AcDbEntity
  8
Make2D$可见线$普通线
100
AcDbVertex
100
AcDb2dVertex
 10
390.7388503100734
 20
96.41498152156906
 30
0.0
  0
VERTEX
  5
453
330
44C
100
AcDbEntity
  8
Make2D$可见线$普通线
100
AcDbVertex
100
AcDb2dVertex
 10
390.7775434784776
 20
96.47919928912528
 30
0.0
  0
VERTEX
  5
454
330
44C
100
AcDbEntity
  8
Make2D$可见线$普通线
100
AcDbVertex
100
AcDb2dVertex
 10
390.8001857558392
 20
96.55426467243056
 30
0.0
  0
VERTEX
  5
455
330
44C
100
AcDbEntity
  8
Make2D$可见线$普通线
100
AcDbVertex
100
AcDb2dVertex
 10
390.7891894680971
 20
96.64500451468562
 30
0.0
  0
VERTEX
  5
456
330
44C
100
AcDbEntity
  8
Make2D$可见线$普通线
100
AcDbVertex
100
AcDb2dVertex
 10
390.7372945511866
 20
96.7361751570836
 30
0.0
  0
VERTEX
  5
457
330
44C
100
AcDbEntity
  8
Make2D$可见线$普通线
100
AcDbVertex
100
AcDb2dVertex
 10
390.6435543648051
 20
96.79579297084648
 30
0.0
  0
VERTEX
  5
458
330
44C
100
AcDbEntity
  8
Make2D$可见线$普通线
100
AcDbVertex
100
AcDb2dVertex
 10
390.5488509460052
 20
96.80394906692207
 30
0.0
  0
VERTEX
  5
459
330
44C
100
AcDbEntity
  8
Make2D$可见线$普通线
100
AcDbVertex
100
AcDb2dVertex
 10
390.4654062873572
 20
96.76637569090802
 30
0.0
  0
VERTEX
  5
45A
330
44C
100
AcDbEntity
  8
Make2D$可见线$普通线
100
AcDbVertex
100
AcDb2dVertex
 10
390.3875534594324
 20
96.65541543089533
 30
0.0
  0
VERTEX
  5
45B
330
44C
100
AcDbEntity
  8
Make2D$可见线$普通线
100
AcDbVertex
100
AcDb2dVertex
 10
390.2966476478324
 20
96.43653789277504
 30
0.0
  0
VERTEX
  5
45C
330
44C
100
AcDbEntity
  8
Make2D$可见线$普通线
100
AcDbVertex
100
AcDb2dVertex
 10
390.2355040048287
 20
96.35384972203495
 30
0.0
  0
VERTEX
  5
45D
330
44C
100
AcDbEntity
  8
Make2D$可见线$普通线
100
AcDbVertex
100
AcDb2dVertex
 10
390.1443166076392
 20
96.29147426281382
 30
0.0
  0
VERTEX
  5
45E
330
44C
100
AcDbEntity
  8
Make2D$可见线$普通线
100
AcDbVertex
100
AcDb2dVertex
 10
390.0305089581953
 20
96.2876195718528
 30
0.0
  0
VERTEX
  5
45F
330
44C
100
AcDbEntity
  8
Make2D$可见线$普通线
100
AcDbVertex
100
AcDb2dVertex
 10
389.9226884372315
 20
96.32666240279251
 30
0.0
  0
VERTEX
  5
460
330
44C
100
AcDbEntity
  8
Make2D$可见线$普通线
100
AcDbVertex
100
AcDb2dVertex
 10
389.8352285870503
 20
96.41262272905384
 30
0.0
  0
VERTEX
  5
461
330
44C
100
AcDbEntity
  8
Make2D$可见线$普通线
100
AcDbVertex
100
AcDb2dVertex
 10
389.7865348095895
 20
96.53530269132465
 30
0.0
  0
VERTEX
  5
462
330
44C
100
AcDbEntity
  8
Make2D$可见线$普通线
100
AcDbVertex
100
AcDb2dVertex
 10
389.7756102905153
 20
96.62633160101016
 30
0.0
  0
VERTEX
  5
463
330
44C
100
AcDbEntity
  8
Make2D$可见线$普通线
100
AcDbVertex
100
AcDb2dVertex
 10
389.7916352519121
 20
96.74223725671787
 30
0.0
  0
VERTEX
  5
464
330
44C
100
AcDbEntity
  8
Make2D$可见线$普通线
100
AcDbVertex
100
AcDb2dVertex
 10
389.8351500129719
 20
96.83322114111898
 30
0.0
  0
VERTEX
  5
465
330
44C
100
AcDbEntity
  8
Make2D$可见线$普通线
100
AcDbVertex
100
AcDb2dVertex
 10
389.9162890966103
 20
96.91171372259394
 30
0.0
  0
VERTEX
  5
466
330
44C
100
AcDbEntity
  8
Make2D$可见线$普通线
100
AcDbVertex
100
AcDb2dVertex
 10
389.9365993117544
 20
96.92563501084486
 30
0.0
  0
VERTEX
  5
467
330
44C
100
AcDbEntity
  8
Make2D$可见线$普通线
100
AcDbVertex
100
AcDb2dVertex
 10
390.0057080099702
 20
96.81348599417434
 30
0.0
  0
VERTEX
  5
468
330
44C
100
AcDbEntity
  8
Make2D$可见线$普通线
100
AcDbVertex
100
AcDb2dVertex
 10
389.9328551113736
 20
96.74633972460764
 30
0.0
  0
VERTEX
  5
469
330
44C
100
AcDbEntity
  8
Make2D$可见线$普通线
100
AcDbVertex
100
AcDb2dVertex
 10
389.9042467387713
 20
96.681541616221
 30
0.0
  0
VERTEX
  5
46A
330
44C
100
AcDbEntity
  8
Make2D$可见线$普通线
100
AcDbVertex
100
AcDb2dVertex
 10
389.905164474118
 20
96.58626388908543
 30
0.0
  0
VERTEX
  5
46B
330
44C
100
AcDbEntity
  8
Make2D$可见线$普通线
100
AcDbVertex
100
AcDb2dVertex
 10
389.9337774979722
 20
96.50871202030156
 30
0.0
  0
VERTEX
  5
46C
330
44C
100
AcDbEntity
  8
Make2D$可见线$普通线
100
AcDbVertex
100
AcDb2dVertex
 10
389.9808342752844
 20
96.44628764012838
 30
0.0
  0
VERTEX
  5
46D
330
44C
100
AcDbEntity
  8
Make2D$可见线$普通线
100
AcDbVertex
100
AcDb2dVertex
 10
390.0472261292247
 20
96.42155663734023
 30
0.0
  0
VERTEX
  5
46E
330
44C
100
AcDbEntity
  8
Make2D$可见线$普通线
100
AcDbVertex
100
AcDb2dVertex
 10
390.1172484962629
 20
96.42812051184443
 30
0.0
  0
VERTEX
  5
46F
330
44C
100
AcDbEntity
  8
Make2D$可见线$普通线
100
AcDbVertex
100
AcDb2dVertex
 10
390.1618669727226
 20
96.46409613365391
 30
0.0
  0
VERTEX
  5
470
330
44C
100
AcDbEntity
  8
Make2D$可见线$普通线
100
AcDbVertex
100
AcDb2dVertex
 10
390.2126103912528
 20
96.5444610493871
 30
0.0
  0
VERTEX
  5
471
330
44C
100
AcDbEntity
  8
Make2D$可见线$普通线
100
AcDbVertex
100
AcDb2dVertex
 10
390.2690114120698
 20
96.70042057064528
 30
0.0
  0
VERTEX
  5
472
330
44C
100
AcDbEntity
  8
Make2D$可见线$普通线
100
AcDbVertex
100
AcDb2dVertex
 10
390.3302480768677
 20
96.81865427434592
 30
0.0
  0
VERTEX
  5
473
330
44C
100
AcDbEntity
  8
Make2D$可见线$普通线
100
AcDbVertex
100
AcDb2dVertex
 10
390.4045965151162
 20
96.89932623202036
 30
0.0
  0
VERTEX
  5
474
330
44C
100
AcDbEntity
  8
Make2D$可见线$普通线
100
AcDbVertex
100
AcDb2dVertex
 10
390.4897622219499
 20
96.93688723082697
 30
0.0
  0
VERTEX
  5
475
330
44C
100
AcDbEntity
  8
Make2D$可见线$普通线
100
AcDbVertex
100
AcDb2dVertex
 10
390.5724313005751
 20
96.94570834751367
 30
0.0
  0
VERTEX
  5
476
330
44C
100
AcDbEntity
  8
Make2D$可见线$普通线
100
AcDbVertex
100
AcDb2dVertex
 10
390.6532006064307
 20
96.93793781812768
 30
0.0
  0
VERTEX
  5
477
330
44C
100
AcDbEntity
  8
Make2D$可见线$普通线
100
AcDbVertex
100
AcDb2dVertex
 10
390.7222032695394
 20
96.91113138390652
 30
0.0
  0
VERTEX
  5
478
330
44C
100
AcDbEntity
  8
Make2D$可见线$普通线
100
AcDbVertex
100
AcDb2dVertex
 10
390.8031993015965
 20
96.85297773632281
 30
0.0
  0
VERTEX
  5
479
330
44C
100
AcDbEntity
  8
Make2D$可见线$普通线
100
AcDbVertex
100
AcDb2dVertex
 10
390.8642938125224
 20
96.77054572311009
 30
0.0
  0
VERTEX
  5
47A
330
44C
100
AcDbEntity
  8
Make2D$可见线$普通线
100
AcDbVertex
100
AcDb2dVertex
 10
390.8957878629135
 20
96.70648112149819
 30
0.0
  0
VERTEX
  5
47B
330
44C
100
AcDbEntity
  8
Make2D$可见线$普通线
100
AcDbVertex
100
AcDb2dVertex
 10
390.9136515107025
 20
96.63079540837724
 30
0.0
  0
VERTEX
  5
47C
330
44C
100
AcDbEntity
  8
Make2D$可见线$普通线
100
AcDbVertex
100
AcDb2dVertex
 10
390.9221362768803
 20
96.56986829955564
 30
0.0
  0
VERTEX
  5
47D
330
44C
100
AcDbEntity
  8
Make2D$可见线$普通线
100
AcDbVertex
100
AcDb2dVertex
 10
390.918300251357
 20
96.50022254171778
 30
0.0
  0
VERTEX
  5
47E
330
44C
100
AcDbEntity
  8
Make2D$可见线$普通线
100
AcDbVertex
100
AcDb2dVertex
 10
390.9043727393548
 20
96.44883021413294
 30
0.0
  0
VERTEX
  5
47F
330
44C
100
AcDbEntity
  8
Make2D$可见线$普通线
100
AcDbVertex
100
AcDb2dVertex
 10
390.8525568896716
 20
96.34869135074005
 30
0.0
  0
VERTEX
  5
480
330
44C
100
AcDbEntity
  8
Make2D$可见线$普通线
100
AcDbVertex
100
AcDb2dVertex
 10
390.7654734500069
 20
96.26486023906169
 30
0.0
  0
SEQEND
  5
481
330
44C
100
AcDbEntity
  8
Make2D$可见线$普通线
  0
POLYLINE
  5
482
330
1F
100
AcDbEntity
  8
Make2D$可见线$普通线
100
AcDb2dPolyline
 66
     1
 10
0.0
 20
0.0
 30
0.0
  0
VERTEX
  5
483
330
482
100
AcDbEntity
  8
Make2D$可见线$普通线
100
AcDbVertex
100
AcDb2dVertex
 10
389.7998105132033
 20
94.87655224923286
 30
0.0
  0
VERTEX
  5
484
330
482
100
AcDbEntity
  8
Make2D$可见线$普通线
100
AcDbVertex
100
AcDb2dVertex
 10
390.9030940801318
 20
94.85102834068094
 30
0.0
  0
VERTEX
  5
485
330
482
100
AcDbEntity
  8
Make2D$可见线$普通线
100
AcDbVertex
100
AcDb2dVertex
 10
390.9032564128303
 20
94.7106842845502
 30
0.0
  0
VERTEX
  5
486
330
482
100
AcDbEntity
  8
Make2D$可见线$普通线
100
AcDbVertex
100
AcDb2dVertex
 10
389.799786346466
 20
94.73528339040921
 30
0.0
  0
VERTEX
  5
487
330
482
100
AcDbEntity
  8
Make2D$可见线$普通线
100
AcDbVertex
100
AcDb2dVertex
 10
389.7998105132033
 20
94.87655224923286
 30
0.0
  0
SEQEND
  5
488
330
482
100
AcDbEntity
  8
Make2D$可见线$普通线
  0
ENDSEC
  0
SECTION
  2
OBJECTS
  0
DICTIONARY
  5
C
330
0
100
AcDbDictionary
281
     1
  3
ACAD_GROUP
350
D
  3
ACAD_LAYOUT
350
1A
  3
ACAD_MATERIAL
350
3B
  3
ACAD_MLEADERSTYLE
350
4B3
  3
ACAD_MLINESTYLE
350
17
  3
ACAD_PLOTSETTINGS
350
19
  3
ACAD_PLOTSTYLENAME
350
E
  3
ACAD_SCALELIST
350
3F
  3
ACAD_TABLESTYLE
350
4B2
  3
ACAD_VISUALSTYLE
350
2A
  3
AcDbVariableDictionary
350
489
  0
DICTIONARY
  5
D
102
{ACAD_REACTORS
330
C
102
}
330
C
100
AcDbDictionary
281
     1
  0
DICTIONARY
  5
1A
102
{ACAD_REACTORS
330
C
102
}
330
C
100
AcDbDictionary
281
     1
  3
Layout1
350
1E
  3
Layout2
350
26
  3
Model
350
22
  0
DICTIONARY
  5
3B
102
{ACAD_REACTORS
330
C
102
}
330
C
100
AcDbDictionary
281
     1
  3
ByBlock
350
3D
  3
ByLayer
350
3C
  3
Global
350
3E
  0
DICTIONARY
  5
4B3
102
{ACAD_REACTORS
330
C
102
}
330
C
100
AcDbDictionary
281
     1
  0
DICTIONARY
  5
17
102
{ACAD_REACTORS
330
C
102
}
330
C
100
AcDbDictionary
281
     1
  3
Standard
350
18
  0
DICTIONARY
  5
19
102
{ACAD_REACTORS
330
C
102
}
330
C
100
AcDbDictionary
281
     1
  0
ACDBDICTIONARYWDFLT
  5
E
102
{ACAD_REACTORS
330
C
102
}
330
C
100
AcDbDictionary
281
     1
  3
Normal
350
F
100
AcDbDictionaryWithDefault
340
F
  0
DICTIONARY
  5
3F
102
{ACAD_REACTORS
330
C
102
}
330
C
100
AcDbDictionary
281
     1
  3
A0
350
40
  3
A1
350
41
  3
A2
350
42
  3
A3
350
43
  3
A4
350
44
  3
A5
350
45
  3
A6
350
46
  3
A7
350
47
  3
A8
350
48
  3
A9
350
49
  3
B0
350
4A
  3
B1
350
4B
  3
B2
350
4C
  3
B3
350
4D
  3
B4
350
4E
  3
B5
350
4F
  3
B6
350
50
  3
B7
350
51
  3
B8
350
52
  3
B9
350
53
  3
C0
350
54
  3
C1
350
55
  3
C2
350
56
  3
C3
350
57
  3
C4
350
58
  3
C5
350
59
  3
C6
350
5A
  3
C7
350
5B
  3
C8
350
5C
  3
C9
350
5D
  3
D0
350
5E
  3
D1
350
5F
  3
D2
350
60
  0
DICTIONARY
  5
4B2
102
{ACAD_REACTORS
330
C
102
}
330
C
100
AcDbDictionary
281
     1
  0
DICTIONARY
  5
2A
102
{ACAD_REACTORS
330
C
102
}
330
C
100
AcDbDictionary
281
     1
  3
2dWireframe
350
2F
  3
3D Hidden
350
31
  3
3dWireframe
350
30
  3
Basic
350
32
  3
Brighten
350
36
  3
ColorChange
350
3A
  3
Conceptual
350
34
  3
Dim
350
35
  3
Facepattern
350
39
  3
Flat
350
2B
  3
FlatWithEdges
350
2C
  3
Gouraud
350
2D
  3
GouraudWithEdges
350
2E
  3
Linepattern
350
38
  3
Realistic
350
33
  3
Thicken
350
37
  0
DICTIONARY
  5
489
102
{ACAD_REACTORS
330
C
102
}
330
C
100
AcDbDictionary
281
     1
  3
CANNOSCALE
350
48A
  3
MSLTSCALE
350
48B
  0
LAYOUT
  5
1E
102
{ACAD_REACTORS
330
1A
102
}
330
1A
100
AcDbPlotSettings
  1

  2
none_device
  4

  6

 40
0.0
 41
0.0
 42
0.0
 43
0.0
 44
0.0
 45
0.0
 46
0.0
 47
0.0
 48
0.0
 49
0.0
140
0.0
141
0.0
142
1.0
143
1.0
 70
   688
 72
     0
 73
     0
 74
     5
  7

 75
    16
 76
     0
 77
     2
 78
   300
147
1.0
148
0.0
149
0.0
100
AcDbLayout
  1
Layout1
 70
     1
 71
     1
 10
0.0
 20
0.0
 11
12.0
 21
9.0
 12
0.0
 22
0.0
 32
0.0
 14
1.000000000000000E+20
 24
1.000000000000000E+20
 34
1.000000000000000E+20
 15
-1.000000000000000E+20
 25
-1.000000000000000E+20
 35
-1.000000000000000E+20
146
0.0
 13
0.0
 23
0.0
 33
0.0
 16
1.0
 26
0.0
 36
0.0
 17
0.0
 27
1.0
 37
0.0
 76
     0
330
1B
  0
LAYOUT
  5
26
102
{ACAD_REACTORS
330
1A
102
}
330
1A
100
AcDbPlotSettings
  1

  2
none_device
  4

  6

 40
0.0
 41
0.0
 42
0.0
 43
0.0
 44
0.0
 45
0.0
 46
0.0
 47
0.0
 48
0.0
 49
0.0
140
0.0
141
0.0
142
1.0
143
1.0
 70
   688
 72
     0
 73
     0
 74
     5
  7

 75
    16
 76
     0
 77
     2
 78
   300
147
1.0
148
0.0
149
0.0
100
AcDbLayout
  1
Layout2
 70
     1
 71
     2
 10
0.0
 20
0.0
 11
0.0
 21
0.0
 12
0.0
 22
0.0
 32
0.0
 14
0.0
 24
0.0
 34
0.0
 15
0.0
 25
0.0
 35
0.0
146
0.0
 13
0.0
 23
0.0
 33
0.0
 16
1.0
 26
0.0
 36
0.0
 17
0.0
 27
1.0
 37
0.0
 76
     0
330
23
  0
LAYOUT
  5
22
102
{ACAD_REACTORS
330
1A
102
}
330
1A
100
AcDbPlotSettings
  1

  2
none_device
  4
Letter_(8.50_x_11.00_Inches)
  6

 40
6.35
 41
6.35
 42
6.35000508
 43
6.35000508
 44
215.9
 45
279.4
 46
0.0
 47
0.0
 48
0.0
 49
0.0
140
0.0
141
0.0
142
1.0
143
1.0
 70
  1712
 72
     0
 73
     0
 74
     0
  7

 75
     0
 76
     0
 77
     2
 78
   300
147
1.0
148
0.0
149
0.0
100
AcDbLayout
  1
Model
 70
     1
 71
     0
 10
0.0
 20
0.0
 11
12.0
 21
9.0
 12
0.0
 22
0.0
 32
0.0
 14
350.5350335305492
 24
65.99999999999987
 34
0.0
 15
567.1773214569109
 25
126.6916961341364
 35
0.0
146
0.0
 13
0.0
 23
0.0
 33
0.0
 16
1.0
 26
0.0
 36
0.0
 17
0.0
 27
1.0
 37
0.0
 76
     0
330
1F
331
29
  0
MATERIAL
  5
3D
102
{ACAD_REACTORS
330
3B
102
}
102
{ACAD_XDICTIONARY
360
4AE
102
}
330
3B
100
AcDbMaterial
  1
ByBlock
  0
MATERIAL
  5
3C
102
{ACAD_REACTORS
330
3B
102
}
102
{ACAD_XDICTIONARY
360
4AC
102
}
330
3B
100
AcDbMaterial
  1
ByLayer
  0
MATERIAL
  5
3E
102
{ACAD_REACTORS
330
3B
102
}
102
{ACAD_XDICTIONARY
360
4B0
102
}
330
3B
100
AcDbMaterial
  1
Global
  0
MLINESTYLE
  5
18
102
{ACAD_REACTORS
330
17
102
}
330
17
100
AcDbMlineStyle
  2
Standard
 70
     0
  3

 62
   256
 51
90.0
 52
90.0
 71
     2
 49
0.5
 62
   256
  6
BYLAYER
 49
-0.5
 62
   256
  6
BYLAYER
  0
ACDBPLACEHOLDER
  5
F
102
{ACAD_REACTORS
330
E
102
}
330
E
  0
SCALE
  5
40
102
{ACAD_REACTORS
330
3F
102
}
330
3F
100
AcDbScale
 70
     0
300
1:1
140
1.0
141
1.0
290
     1
  0
SCALE
  5
41
102
{ACAD_REACTORS
330
3F
102
}
330
3F
100
AcDbScale
 70
     0
300
1:2
140
1.0
141
2.0
290
     0
  0
SCALE
  5
42
102
{ACAD_REACTORS
330
3F
102
}
330
3F
100
AcDbScale
 70
     0
300
1:4
140
1.0
141
4.0
290
     0
  0
SCALE
  5
43
102
{ACAD_REACTORS
330
3F
102
}
330
3F
100
AcDbScale
 70
     0
300
1:5
140
1.0
141
5.0
290
     0
  0
SCALE
  5
44
102
{ACAD_REACTORS
330
3F
102
}
330
3F
100
AcDbScale
 70
     0
300
1:8
140
1.0
141
8.0
290
     0
  0
SCALE
  5
45
102
{ACAD_REACTORS
330
3F
102
}
330
3F
100
AcDbScale
 70
     0
300
1:10
140
1.0
141
10.0
290
     0
  0
SCALE
  5
46
102
{ACAD_REACTORS
330
3F
102
}
330
3F
100
AcDbScale
 70
     0
300
1:16
140
1.0
141
16.0
290
     0
  0
SCALE
  5
47
102
{ACAD_REACTORS
330
3F
102
}
330
3F
100
AcDbScale
 70
     0
300
1:20
140
1.0
141
20.0
290
     0
  0
SCALE
  5
48
102
{ACAD_REACTORS
330
3F
102
}
330
3F
100
AcDbScale
 70
     0
300
1:30
140
1.0
141
30.0
290
     0
  0
SCALE
  5
49
102
{ACAD_REACTORS
330
3F
102
}
330
3F
100
AcDbScale
 70
     0
300
1:40
140
1.0
141
40.0
290
     0
  0
SCALE
  5
4A
102
{ACAD_REACTORS
330
3F
102
}
330
3F
100
AcDbScale
 70
     0
300
1:50
140
1.0
141
50.0
290
     0
  0
SCALE
  5
4B
102
{ACAD_REACTORS
330
3F
102
}
330
3F
100
AcDbScale
 70
     0
300
1:100
140
1.0
141
100.0
290
     0
  0
SCALE
  5
4C
102
{ACAD_REACTORS
330
3F
102
}
330
3F
100
AcDbScale
 70
     0
300
2:1
140
2.0
141
1.0
290
     0
  0
SCALE
  5
4D
102
{ACAD_REACTORS
330
3F
102
}
330
3F
100
AcDbScale
 70
     0
300
4:1
140
4.0
141
1.0
290
     0
  0
SCALE
  5
4E
102
{ACAD_REACTORS
330
3F
102
}
330
3F
100
AcDbScale
 70
     0
300
8:1
140
8.0
141
1.0
290
     0
  0
SCALE
  5
4F
102
{ACAD_REACTORS
330
3F
102
}
330
3F
100
AcDbScale
 70
     0
300
10:1
140
10.0
141
1.0
290
     0
  0
SCALE
  5
50
102
{ACAD_REACTORS
330
3F
102
}
330
3F
100
AcDbScale
 70
     0
300
100:1
140
100.0
141
1.0
290
     0
  0
SCALE
  5
51
102
{ACAD_REACTORS
330
3F
102
}
330
3F
100
AcDbScale
 70
     0
300
1/128" = 1'-0"
140
0.0078125
141
12.0
290
     0
  0
SCALE
  5
52
102
{ACAD_REACTORS
330
3F
102
}
330
3F
100
AcDbScale
 70
     0
300
1/64" = 1'-0"
140
0.015625
141
12.0
290
     0
  0
SCALE
  5
53
102
{ACAD_REACTORS
330
3F
102
}
330
3F
100
AcDbScale
 70
     0
300
1/32" = 1'-0"
140
0.03125
141
12.0
290
     0
  0
SCALE
  5
54
102
{ACAD_REACTORS
330
3F
102
}
330
3F
100
AcDbScale
 70
     0
300
1/16" = 1'-0"
140
0.0625
141
12.0
290
     0
  0
SCALE
  5
55
102
{ACAD_REACTORS
330
3F
102
}
330
3F
100
AcDbScale
 70
     0
300
3/32" = 1'-0"
140
0.09375
141
12.0
290
     0
  0
SCALE
  5
56
102
{ACAD_REACTORS
330
3F
102
}
330
3F
100
AcDbScale
 70
     0
300
1/8" = 1'-0"
140
0.125
141
12.0
290
     0
  0
SCALE
  5
57
102
{ACAD_REACTORS
330
3F
102
}
330
3F
100
AcDbScale
 70
     0
300
3/16" = 1'-0"
140
0.1875
141
12.0
290
     0
  0
SCALE
  5
58
102
{ACAD_REACTORS
330
3F
102
}
330
3F
100
AcDbScale
 70
     0
300
1/4" = 1'-0"
140
0.25
141
12.0
290
     0
  0
SCALE
  5
59
102
{ACAD_REACTORS
330
3F
102
}
330
3F
100
AcDbScale
 70
     0
300
3/8" = 1'-0"
140
0.375
141
12.0
290
     0
  0
SCALE
  5
5A
102
{ACAD_REACTORS
330
3F
102
}
330
3F
100
AcDbScale
 70
     0
300
1/2" = 1'-0"
140
0.5
141
12.0
290
     0
  0
SCALE
  5
5B
102
{ACAD_REACTORS
330
3F
102
}
330
3F
100
AcDbScale
 70
     0
300
3/4" = 1'-0"
140
0.75
141
12.0
290
     0
  0
SCALE
  5
5C
102
{ACAD_REACTORS
330
3F
102
}
330
3F
100
AcDbScale
 70
     0
300
1" = 1'-0"
140
1.0
141
12.0
290
     0
  0
SCALE
  5
5D
102
{ACAD_REACTORS
330
3F
102
}
330
3F
100
AcDbScale
 70
     0
300
1-1/2" = 1'-0"
140
1.5
141
12.0
290
     0
  0
SCALE
  5
5E
102
{ACAD_REACTORS
330
3F
102
}
330
3F
100
AcDbScale
 70
     0
300
3" = 1'-0"
140
3.0
141
12.0
290
     0
  0
SCALE
  5
5F
102
{ACAD_REACTORS
330
3F
102
}
330
3F
100
AcDbScale
 70
     0
300
6" = 1'-0"
140
6.0
141
12.0
290
     0
  0
SCALE
  5
60
102
{ACAD_REACTORS
330
3F
102
}
330
3F
100
AcDbScale
 70
     0
300
1'-0" = 1'-0"
140
12.0
141
12.0
290
     0
  0
VISUALSTYLE
  5
2F
102
{ACAD_REACTORS
330
2A
102
}
102
{ACAD_XDICTIONARY
360
494
102
}
330
2A
100
AcDbVisualStyle
  2
2dWireframe
 70
     4
 71
     0
 72
     2
 73
     0
 90
        0
 40
0.6
 41
30.0
 62
     5
 63
     7
421
 16777215
 74
     1
 91
        4
 64
     7
 65
   257
 75
     1
175
     1
 42
1.0
 92
        0
 66
   257
 43
1.0
 76
     1
 77
     6
 78
     2
 67
     7
 79
     5
170
     0
171
     0
290
     0
174
     0
 93
        1
 44
0.0
173
     0
291
     0
 45
0.0
1001
ACAD
1000
AcDbSavedByObjectVersion
1070
     0
  0
VISUALSTYLE
  5
31
102
{ACAD_REACTORS
330
2A
102
}
102
{ACAD_XDICTIONARY
360
498
102
}
330
2A
100
AcDbVisualStyle
  2
3D Hidden
 70
     6
 71
     1
 72
     2
 73
     2
 90
        0
 40
0.6
 41
30.0
 62
     5
 63
     7
421
 16777215
 74
     2
 91
        2
 64
     7
 65
   257
 75
     2
175
     1
 42
40.0
 92
        0
 66
   257
 43
1.0
 76
     1
 77
     6
 78
     2
 67
     7
 79
     3
170
     0
171
     0
290
     0
174
     0
 93
        1
 44
0.0
173
     0
291
     0
 45
0.0
1001
ACAD
1000
AcDbSavedByObjectVersion
1070
     0
  0
VISUALSTYLE
  5
30
102
{ACAD_REACTORS
330
2A
102
}
102
{ACAD_XDICTIONARY
360
496
102
}
330
2A
100
AcDbVisualStyle
  2
3dWireframe
 70
     5
 71
     0
 72
     2
 73
     0
 90
        0
 40
0.6
 41
30.0
 62
     5
 63
     7
421
 16777215
 74
     1
 91
        4
 64
     7
 65
   257
 75
     1
175
     1
 42
1.0
 92
        0
 66
   257
 43
1.0
 76
     1
 77
     6
 78
     2
 67
     7
 79
     5
170
     0
171
     0
290
     0
174
     0
 93
        1
 44
0.0
173
     0
291
     0
 45
0.0
1001
ACAD
1000
AcDbSavedByObjectVersion
1070
     0
  0
VISUALSTYLE
  5
32
102
{ACAD_REACTORS
330
2A
102
}
102
{ACAD_XDICTIONARY
360
49A
102
}
330
2A
100
AcDbVisualStyle
  2
Basic
 70
     7
 71
     1
 72
     0
 73
     1
 90
        0
 40
0.6
 41
30.0
 62
     5
 63
     7
421
 16777215
 74
     0
 91
        4
 64
     7
 65
   257
 75
     1
175
     1
 42
1.0
 92
        8
 66
     7
 43
1.0
 76
     1
 77
     6
 78
     2
 67
     7
 79
     5
170
     0
171
     0
290
     0
174
     0
 93
        1
 44
0.0
173
     0
291
     1
 45
0.0
1001
ACAD
1000
AcDbSavedByObjectVersion
1070
     0
  0
VISUALSTYLE
  5
36
102
{ACAD_REACTORS
330
2A
102
}
102
{ACAD_XDICTIONARY
360
4A2
102
}
330
2A
100
AcDbVisualStyle
  2
Brighten
 70
    12
 71
     2
 72
     2
 73
     0
 90
        0
 40
0.6
 41
30.0
 62
     5
 63
     7
421
 16777215
 74
     1
 91
        4
 64
     7
 65
   257
 75
     1
175
     1
 42
1.0
 92
        8
 66
     7
 43
1.0
 76
     1
 77
     6
 78
     2
 67
     7
 79
     5
170
     0
171
     0
290
     0
174
     0
 93
        1
 44
50.0
173
     0
291
     1
 45
0.0
1001
ACAD
1000
AcDbSavedByObjectVersion
1070
     0
  0
VISUALSTYLE
  5
3A
102
{ACAD_REACTORS
330
2A
102
}
102
{ACAD_XDICTIONARY
360
4AA
102
}
330
2A
100
AcDbVisualStyle
  2
ColorChange
 70
    16
 71
     2
 72
     2
 73
     3
 90
        0
 40
0.6
 41
30.0
 62
     5
 63
     8
421
  8421504
 74
     1
 91
        4
 64
     7
 65
   257
 75
     1
175
     1
 42
1.0
 92
        8
 66
     8
424
  8421504
 43
1.0
 76
     1
 77
     6
 78
     2
 67
     7
 79
     5
170
     0
171
     0
290
     0
174
     0
 93
        1
 44
0.0
173
     0
291
     1
 45
0.0
1001
ACAD
1000
AcDbSavedByObjectVersion
1070
     0
  0
VISUALSTYLE
  5
34
102
{ACAD_REACTORS
330
2A
102
}
102
{ACAD_XDICTIONARY
360
49E
102
}
330
2A
100
AcDbVisualStyle
  2
Conceptual
 70
     9
 71
     3
 72
     2
 73
     0
 90
        0
 40
0.6
 41
30.0
 62
     5
 63
     7
421
 16777215
 74
     2
 91
        2
 64
     7
 65
   257
 75
     1
175
     1
 42
40.0
 92
        8
 66
     7
 43
1.0
 76
     1
 77
     6
 78
     2
 67
     7
 79
     3
170
     0
171
     0
290
     0
174
     0
 93
        1
 44
0.0
173
     0
291
     0
 45
0.0
1001
ACAD
1000
AcDbSavedByObjectVersion
1070
     0
  0
VISUALSTYLE
  5
35
102
{ACAD_REACTORS
330
2A
102
}
102
{ACAD_XDICTIONARY
360
4A0
102
}
330
2A
100
AcDbVisualStyle
  2
Dim
 70
    11
 71
     2
 72
     2
 73
     0
 90
        0
 40
0.6
 41
30.0
 62
     5
 63
     7
421
 16777215
 74
     1
 91
        4
 64
     7
 65
   257
 75
     1
175
     1
 42
1.0
 92
        8
 66
     7
 43
1.0
 76
     1
 77
     6
 78
     2
 67
     7
 79
     5
170
     0
171
     0
290
     0
174
     0
 93
        1
 44
-50.0
173
     0
291
     1
 45
0.0
1001
ACAD
1000
AcDbSavedByObjectVersion
1070
     0
  0
VISUALSTYLE
  5
39
102
{ACAD_REACTORS
330
2A
102
}
102
{ACAD_XDICTIONARY
360
4A8
102
}
330
2A
100
AcDbVisualStyle
  2
Facepattern
 70
    15
 71
     2
 72
     2
 73
     0
 90
        0
 40
0.6
 41
30.0
 62
     5
 63
     7
421
 16777215
 74
     1
 91
        4
 64
     7
 65
   257
 75
     1
175
     1
 42
1.0
 92
        8
 66
     7
 43
1.0
 76
     1
 77
     6
 78
     2
 67
     7
 79
     5
170
     0
171
     0
290
     0
174
     0
 93
        1
 44
0.0
173
     0
291
     1
 45
0.0
1001
ACAD
1000
AcDbSavedByObjectVersion
1070
     0
  0
VISUALSTYLE
  5
2B
102
{ACAD_REACTORS
330
2A
102
}
102
{ACAD_XDICTIONARY
360
48C
102
}
330
2A
100
AcDbVisualStyle
  2
Flat
 70
     0
 71
     2
 72
     1
 73
     1
 90
        2
 40
0.6
 41
30.0
 62
     5
 63
     7
421
 16777215
 74
     0
 91
        4
 64
     7
 65
   257
 75
     1
175
     1
 42
1.0
 92
        8
 66
     7
 43
1.0
 76
     1
 77
     6
 78
     2
 67
     7
 79
     5
170
     0
171
     0
290
     0
174
     0
 93
       13
 44
0.0
173
     0
291
     1
 45
0.0
1001
ACAD
1000
AcDbSavedByObjectVersion
1070
     0
  0
VISUALSTYLE
  5
2C
102
{ACAD_REACTORS
330
2A
102
}
102
{ACAD_XDICTIONARY
360
48E
102
}
330
2A
100
AcDbVisualStyle
  2
FlatWithEdges
 70
     1
 71
     2
 72
     1
 73
     1
 90
        2
 40
0.6
 41
30.0
 62
     5
 63
     7
421
 16777215
 74
     1
 91
        4
 64
     7
 65
   257
 75
     1
175
     1
 42
1.0
 92
        0
 66
   257
 43
1.0
 76
     1
 77
     6
 78
     2
 67
     7
 79
     5
170
     0
171
     0
290
     0
174
     0
 93
       13
 44
0.0
173
     0
291
     1
 45
0.0
1001
ACAD
1000
AcDbSavedByObjectVersion
1070
     0
  0
VISUALSTYLE
  5
2D
102
{ACAD_REACTORS
330
2A
102
}
102
{ACAD_XDICTIONARY
360
490
102
}
330
2A
100
AcDbVisualStyle
  2
Gouraud
 70
     2
 71
     2
 72
     2
 73
     1
 90
        2
 40
0.6
 41
30.0
 62
     5
 63
     7
421
 16777215
 74
     0
 91
        4
 64
     7
 65
   257
 75
     1
175
     1
 42
1.0
 92
        0
 66
     7
 43
1.0
 76
     1
 77
     6
 78
     2
 67
     7
 79
     5
170
     0
171
     0
290
     0
174
     0
 93
       13
 44
0.0
173
     0
291
     1
 45
0.0
1001
ACAD
1000
AcDbSavedByObjectVersion
1070
     0
  0
VISUALSTYLE
  5
2E
102
{ACAD_REACTORS
330
2A
102
}
102
{ACAD_XDICTIONARY
360
492
102
}
330
2A
100
AcDbVisualStyle
  2
GouraudWithEdges
 70
     3
 71
     2
 72
     2
 73
     1
 90
        2
 40
0.6
 41
30.0
 62
     5
 63
     7
421
 16777215
 74
     1
 91
        4
 64
     7
 65
   257
 75
     1
175
     1
 42
1.0
 92
        0
 66
   257
 43
1.0
 76
     1
 77
     6
 78
     2
 67
     7
 79
     5
170
     0
171
     0
290
     0
174
     0
 93
       13
 44
0.0
173
     0
291
     1
 45
0.0
1001
ACAD
1000
AcDbSavedByObjectVersion
1070
     0
  0
VISUALSTYLE
  5
38
102
{ACAD_REACTORS
330
2A
102
}
102
{ACAD_XDICTIONARY
360
4A6
102
}
330
2A
100
AcDbVisualStyle
  2
Linepattern
 70
    14
 71
     2
 72
     2
 73
     0
 90
        0
 40
0.6
 41
30.0
 62
     5
 63
     7
421
 16777215
 74
     1
 91
        4
 64
     7
 65
   257
 75
     7
175
     7
 42
1.0
 92
        8
 66
     7
 43
1.0
 76
     1
 77
     6
 78
     2
 67
     7
 79
     5
170
     0
171
     0
290
     0
174
     0
 93
        1
 44
0.0
173
     0
291
     1
 45
0.0
1001
ACAD
1000
AcDbSavedByObjectVersion
1070
     0
  0
VISUALSTYLE
  5
33
102
{ACAD_REACTORS
330
2A
102
}
102
{ACAD_XDICTIONARY
360
49C
102
}
330
2A
100
AcDbVisualStyle
  2
Realistic
 70
     8
 71
     2
 72
     3
 73
     0
 90
        2
 40
0.6
 41
30.0
 62
     5
 63
     7
421
 16777215
 74
     0
 91
        0
 64
     7
 65
   257
 75
     1
175
     1
 42
1.0
 92
        8
 66
   257
 43
1.0
 76
     1
 77
     6
 78
     2
 67
     7
 79
     3
170
     0
171
     0
290
     0
174
     0
 93
       13
 44
0.0
173
     0
291
     0
 45
0.0
1001
ACAD
1000
AcDbSavedByObjectVersion
1070
     0
  0
VISUALSTYLE
  5
37
102
{ACAD_REACTORS
330
2A
102
}
102
{ACAD_XDICTIONARY
360
4A4
102
}
330
2A
100
AcDbVisualStyle
  2
Thicken
 70
    13
 71
     2
 72
     2
 73
     0
 90
        0
 40
0.6
 41
30.0
 62
     5
 63
     7
421
 16777215
 74
     1
 91
        4
 64
     7
 65
   257
 75
     1
175
     1
 42
1.0
 92
       12
 66
     7
 43
1.0
 76
     1
 77
     6
 78
     2
 67
     7
 79
     5
170
     0
171
     0
290
     0
174
     0
 93
        1
 44
0.0
173
     0
291
     1
 45
0.0
1001
ACAD
1000
AcDbSavedByObjectVersion
1070
     0
  0
DICTIONARYVAR
  5
48A
102
{ACAD_REACTORS
330
489
102
}
330
489
100
DictionaryVariables
280
     0
  1
1:1
  0
DICTIONARYVAR
  5
48B
102
{ACAD_REACTORS
330
489
102
}
330
489
100
DictionaryVariables
280
     0
  1
1
  0
DICTIONARY
  5
4AE
330
3D
100
AcDbDictionary
280
     1
281
     1
  3
ACAD_XREC_ROUNDTRIP
360
4AF
  0
DICTIONARY
  5
4AC
330
3C
100
AcDbDictionary
280
     1
281
     1
  3
ACAD_XREC_ROUNDTRIP
360
4AD
  0
DICTIONARY
  5
4B0
330
3E
100
AcDbDictionary
280
     1
281
     1
  3
ACAD_XREC_ROUNDTRIP
360
4B1
  0
DICTIONARY
  5
494
330
2F
100
AcDbDictionary
280
     1
281
     1
  3
ACAD_XREC_ROUNDTRIP
360
495
  0
DICTIONARY
  5
498
330
31
100
AcDbDictionary
280
     1
281
     1
  3
ACAD_XREC_ROUNDTRIP
360
499
  0
DICTIONARY
  5
496
330
30
100
AcDbDictionary
280
     1
281
     1
  3
ACAD_XREC_ROUNDTRIP
360
497
  0
DICTIONARY
  5
49A
330
32
100
AcDbDictionary
280
     1
281
     1
  3
ACAD_XREC_ROUNDTRIP
360
49B
  0
DICTIONARY
  5
4A2
330
36
100
AcDbDictionary
280
     1
281
     1
  3
ACAD_XREC_ROUNDTRIP
360
4A3
  0
DICTIONARY
  5
4AA
330
3A
100
AcDbDictionary
280
     1
281
     1
  3
ACAD_XREC_ROUNDTRIP
360
4AB
  0
DICTIONARY
  5
49E
330
34
100
AcDbDictionary
280
     1
281
     1
  3
ACAD_XREC_ROUNDTRIP
360
49F
  0
DICTIONARY
  5
4A0
330
35
100
AcDbDictionary
280
     1
281
     1
  3
ACAD_XREC_ROUNDTRIP
360
4A1
  0
DICTIONARY
  5
4A8
330
39
100
AcDbDictionary
280
     1
281
     1
  3
ACAD_XREC_ROUNDTRIP
360
4A9
  0
DICTIONARY
  5
48C
330
2B
100
AcDbDictionary
280
     1
281
     1
  3
ACAD_XREC_ROUNDTRIP
360
48D
  0
DICTIONARY
  5
48E
330
2C
100
AcDbDictionary
280
     1
281
     1
  3
ACAD_XREC_ROUNDTRIP
360
48F
  0
DICTIONARY
  5
490
330
2D
100
AcDbDictionary
280
     1
281
     1
  3
ACAD_XREC_ROUNDTRIP
360
491
  0
DICTIONARY
  5
492
330
2E
100
AcDbDictionary
280
     1
281
     1
  3
ACAD_XREC_ROUNDTRIP
360
493
  0
DICTIONARY
  5
4A6
330
38
100
AcDbDictionary
280
     1
281
     1
  3
ACAD_XREC_ROUNDTRIP
360
4A7
  0
DICTIONARY
  5
49C
330
33
100
AcDbDictionary
280
     1
281
     1
  3
ACAD_XREC_ROUNDTRIP
360
49D
  0
DICTIONARY
  5
4A4
330
37
100
AcDbDictionary
280
     1
281
     1
  3
ACAD_XREC_ROUNDTRIP
360
4A5
  0
XRECORD
  5
4AF
102
{ACAD_REACTORS
330
4AE
102
}
330
4AE
100
AcDbXrecord
280
     1
102
MATERIAL
148
0.0
149
0.0
149
0.0
 93
        0
 94
      127
282
     0
 72
     1
 77
     1
171
     1
175
     1
179
     1
273
     0
  0
XRECORD
  5
4AD
102
{ACAD_REACTORS
330
4AC
102
}
330
4AC
100
AcDbXrecord
280
     1
102
MATERIAL
148
0.0
149
0.0
149
0.0
 93
        0
 94
      127
282
     0
 72
     1
 77
     1
171
     1
175
     1
179
     1
273
     0
  0
XRECORD
  5
4B1
102
{ACAD_REACTORS
330
4B0
102
}
330
4B0
100
AcDbXrecord
280
     1
102
MATERIAL
148
0.0
149
0.0
149
0.0
 93
        0
 94
      127
282
     0
 72
     1
 77
     1
171
     1
175
     1
179
     1
273
     0
  0
XRECORD
  5
495
102
{ACAD_REACTORS
330
494
102
}
330
494
100
AcDbXrecord
280
     1
102
RTVSPropertyOp0
 70
     1
102
RTVSPropertyOp1
 70
     1
102
RTVSPropertyOp2
 70
     1
102
RTVSPropertyOp3
 70
     1
102
RTVSPropertyOp4
 70
     1
102
RTVSPropertyOp5
 70
     1
102
RTVSPropertyOp6
 70
     1
102
RTVSPropertyOp7
 70
     1
102
RTVSPropertyOp8
 70
     1
102
RTVSPropertyOp9
 70
     1
102
RTVSPropertyOp10
 70
     1
102
RTVSPropertyOp11
 70
     1
102
RTVSPropertyOp12
 70
     1
102
RTVSPropertyOp13
 70
     1
102
RTVSPropertyOp14
 70
     1
102
RTVSPropertyOp15
 70
     1
102
RTVSPropertyOp16
 70
     1
102
RTVSPropertyOp17
 70
     1
102
RTVSPropertyOp18
 70
     1
102
RTVSPropertyOp19
 70
     1
102
RTVSPropertyOp20
 70
     1
102
RTVSPropertyOp21
 70
     1
102
RTVSPropertyOp22
 70
     1
102
RTVSPropertyOp23
 70
     1
102
RTVSPropertyOp24
 70
     1
102
RTVSPropertyOp25
 70
     1
102
RTVSPropertyOp26
 70
     1
102
RTVSPropertyOp27
 70
     1
102
RTVSPropertyOp28
 70
     1
102
RTVSPropertyOp29
 70
     1
102
RTVSPropertyOp30
 70
     1
102
RTVSPropertyOp31
 70
     1
102
RTVSPropertyOp32
 70
     1
102
RTVSPropertyOp33
 70
     1
102
RTVSPropertyOp34
 70
     1
102
RTVSPropertyOp35
 70
     1
102
RTVSPropertyOp36
 70
     1
102
RTVSPropertyOp37
 70
     1
102
RTVSPropertyOp38
 70
     1
102
RTVSPropertyOp39
 70
     1
102
RTVSPropertyOp40
 70
     1
102
RTVSPropertyOp41
 70
     1
102
RTVSPropertyOp42
 70
     1
102
RTVSPropertyOp43
 70
     1
102
RTVSPropertyOp44
 70
     1
102
RTVSPropertyOp45
 70
     1
102
RTVSPropertyOp46
 70
     1
102
RTVSPropertyOp47
 70
     1
102
RTVSPropertyOp48
 70
     1
102
RTVSPropertyOp49
 70
     1
102
RTVSPropertyOp50
 70
     1
102
RTVSPropertyOp51
 70
     0
102
RTVSPropertyOp52
 70
     0
102
RTVSPropertyOp53
 70
     1
102
RTVSPropertyOp54
 70
     1
102
RTVSPropertyOp55
 70
     1
102
RTVSPropertyOp56
 70
     1
102
RTVSPropertyOp57
 70
     1
102
RTVSPost2010Prop28
280
     1
102
RTVSPost2010PropOp28
 70
     1
102
RTVSPost2010Prop29
280
     1
102
RTVSPost2010PropOp29
 70
     1
102
RTVSPost2010Prop30
280
     0
102
RTVSPost2010PropOp30
 70
     1
102
RTVSPost2010Prop31
280
     0
102
RTVSPost2010PropOp31
 70
     1
102
RTVSPost2010Prop32
280
     0
102
RTVSPost2010PropOp32
 70
     1
102
RTVSPost2010Prop33
280
     0
102
RTVSPost2010PropOp33
 70
     1
102
RTVSPost2010Prop34
280
     0
102
RTVSPost2010PropOp34
 70
     1
102
RTVSPost2010Prop35
280
     0
102
RTVSPost2010PropOp35
 70
     1
102
RTVSPost2010Prop36
280
     0
102
RTVSPost2010PropOp36
 70
     1
102
RTVSPost2010Prop37
 90
       50
102
RTVSPost2010PropOp37
 70
     1
102
RTVSPost2010Prop38
140
0.0
102
RTVSPost2010PropOp38
 70
     1
102
RTVSPost2010Prop39
140
1.0
102
RTVSPost2010PropOp39
 70
     1
102
RTVSPost2010Prop40
 90
        0
102
RTVSPost2010PropOp40
 70
     1
102
RTVSPost2010Prop41ColorIndex
 90
       18
102
RTVSPost2010Prop41ColorRGB
 90
        0
102
RTVSPost2010PropOp41
 70
     1
102
RTVSPost2010Prop42
 90
       50
102
RTVSPost2010PropOp42
 70
     1
102
RTVSPost2010Prop43
 90
        3
102
RTVSPost2010PropOp43
 70
     1
102
RTVSPost2010Prop44ColorIndex
 90
        5
102
RTVSPost2010Prop44ColorRGB
 90
      255
102
RTVSPost2010PropOp44
 70
     1
102
RTVSPost2010Prop45
280
     0
102
RTVSPost2010PropOp45
 70
     1
102
RTVSPost2010Prop46
 90
       50
102
RTVSPost2010PropOp46
 70
     1
102
RTVSPost2010Prop47
 90
       50
102
RTVSPost2010PropOp47
 70
     1
102
RTVSPost2010Prop48
 90
       50
102
RTVSPost2010PropOp48
 70
     1
102
RTVSPost2010Prop49
280
     0
102
RTVSPost2010PropOp49
 70
     1
102
RTVSPost2010Prop50
 90
       50
102
RTVSPost2010PropOp50
 70
     1
102
RTVSPost2010Prop51ColorIndex
 90
      256
102
RTVSPost2010Prop51ColorRGB
 90
-16777216
102
RTVSPost2010PropOp51
 70
     0
102
RTVSPost2010Prop52
140
1.0
102
RTVSPost2010PropOp52
 70
     0
102
RTVSPost2010Prop53
 90
        2
102
RTVSPost2010PropOp53
 70
     1
102
RTVSPost2010Prop54
  1
strokes_ogs.tif
102
RTVSPost2010PropOp54
 70
     1
102
RTVSPost2010Prop55
280
     0
102
RTVSPost2010PropOp55
 70
     1
102
RTVSPost2010Prop56
140
1.0
102
RTVSPost2010PropOp56
 70
     1
102
RTVSPost2010Prop57
140
1.0
102
RTVSPost2010PropOp57
 70
     1
  0
XRECORD
  5
499
102
{ACAD_REACTORS
330
498
102
}
330
498
100
AcDbXrecord
280
     1
102
RTVSPropertyOp0
 70
     1
102
RTVSPropertyOp1
 70
     1
102
RTVSPropertyOp2
 70
     1
102
RTVSPropertyOp3
 70
     1
102
RTVSPropertyOp4
 70
     1
102
RTVSPropertyOp5
 70
     1
102
RTVSPropertyOp6
 70
     1
102
RTVSPropertyOp7
 70
     1
102
RTVSPropertyOp8
 70
     1
102
RTVSPropertyOp9
 70
     1
102
RTVSPropertyOp10
 70
     1
102
RTVSPropertyOp11
 70
     1
102
RTVSPropertyOp12
 70
     1
102
RTVSPropertyOp13
 70
     1
102
RTVSPropertyOp14
 70
     1
102
RTVSPropertyOp15
 70
     1
102
RTVSPropertyOp16
 70
     1
102
RTVSPropertyOp17
 70
     1
102
RTVSPropertyOp18
 70
     1
102
RTVSPropertyOp19
 70
     1
102
RTVSPropertyOp20
 70
     1
102
RTVSPropertyOp21
 70
     1
102
RTVSPropertyOp22
 70
     1
102
RTVSPropertyOp23
 70
     1
102
RTVSPropertyOp24
 70
     1
102
RTVSPropertyOp25
 70
     1
102
RTVSPropertyOp26
 70
     1
102
RTVSPropertyOp27
 70
     1
102
RTVSPropertyOp28
 70
     1
102
RTVSPropertyOp29
 70
     1
102
RTVSPropertyOp30
 70
     1
102
RTVSPropertyOp31
 70
     1
102
RTVSPropertyOp32
 70
     1
102
RTVSPropertyOp33
 70
     1
102
RTVSPropertyOp34
 70
     1
102
RTVSPropertyOp35
 70
     1
102
RTVSPropertyOp36
 70
     1
102
RTVSPropertyOp37
 70
     1
102
RTVSPropertyOp38
 70
     1
102
RTVSPropertyOp39
 70
     1
102
RTVSPropertyOp40
 70
     1
102
RTVSPropertyOp41
 70
     1
102
RTVSPropertyOp42
 70
     1
102
RTVSPropertyOp43
 70
     1
102
RTVSPropertyOp44
 70
     1
102
RTVSPropertyOp45
 70
     1
102
RTVSPropertyOp46
 70
     1
102
RTVSPropertyOp47
 70
     1
102
RTVSPropertyOp48
 70
     1
102
RTVSPropertyOp49
 70
     1
102
RTVSPropertyOp50
 70
     1
102
RTVSPropertyOp51
 70
     0
102
RTVSPropertyOp52
 70
     0
102
RTVSPropertyOp53
 70
     1
102
RTVSPropertyOp54
 70
     1
102
RTVSPropertyOp55
 70
     1
102
RTVSPropertyOp56
 70
     1
102
RTVSPropertyOp57
 70
     1
102
RTVSPost2010Prop28
280
     0
102
RTVSPost2010PropOp28
 70
     1
102
RTVSPost2010Prop29
280
     1
102
RTVSPost2010PropOp29
 70
     1
102
RTVSPost2010Prop30
280
     1
102
RTVSPost2010PropOp30
 70
     1
102
RTVSPost2010Prop31
280
     0
102
RTVSPost2010PropOp31
 70
     1
102
RTVSPost2010Prop32
280
     0
102
RTVSPost2010PropOp32
 70
     1
102
RTVSPost2010Prop33
280
     0
102
RTVSPost2010PropOp33
 70
     1
102
RTVSPost2010Prop34
280
     0
102
RTVSPost2010PropOp34
 70
     1
102
RTVSPost2010Prop35
280
     0
102
RTVSPost2010PropOp35
 70
     1
102
RTVSPost2010Prop36
280
     0
102
RTVSPost2010PropOp36
 70
     1
102
RTVSPost2010Prop37
 90
       50
102
RTVSPost2010PropOp37
 70
     1
102
RTVSPost2010Prop38
140
0.0
102
RTVSPost2010PropOp38
 70
     1
102
RTVSPost2010Prop39
140
1.0
102
RTVSPost2010PropOp39
 70
     1
102
RTVSPost2010Prop40
 90
        0
102
RTVSPost2010PropOp40
 70
     1
102
RTVSPost2010Prop41ColorIndex
 90
       18
102
RTVSPost2010Prop41ColorRGB
 90
        0
102
RTVSPost2010PropOp41
 70
     1
102
RTVSPost2010Prop42
 90
       50
102
RTVSPost2010PropOp42
 70
     1
102
RTVSPost2010Prop43
 90
        3
102
RTVSPost2010PropOp43
 70
     1
102
RTVSPost2010Prop44ColorIndex
 90
        5
102
RTVSPost2010Prop44ColorRGB
 90
      255
102
RTVSPost2010PropOp44
 70
     1
102
RTVSPost2010Prop45
280
     0
102
RTVSPost2010PropOp45
 70
     1
102
RTVSPost2010Prop46
 90
       50
102
RTVSPost2010PropOp46
 70
     1
102
RTVSPost2010Prop47
 90
       50
102
RTVSPost2010PropOp47
 70
     1
102
RTVSPost2010Prop48
 90
       50
102
RTVSPost2010PropOp48
 70
     1
102
RTVSPost2010Prop49
280
     0
102
RTVSPost2010PropOp49
 70
     1
102
RTVSPost2010Prop50
 90
       50
102
RTVSPost2010PropOp50
 70
     1
102
RTVSPost2010Prop51ColorIndex
 90
      256
102
RTVSPost2010Prop51ColorRGB
 90
-16777216
102
RTVSPost2010PropOp51
 70
     0
102
RTVSPost2010Prop52
140
1.0
102
RTVSPost2010PropOp52
 70
     0
102
RTVSPost2010Prop53
 90
        2
102
RTVSPost2010PropOp53
 70
     1
102
RTVSPost2010Prop54
  1
strokes_ogs.tif
102
RTVSPost2010PropOp54
 70
     1
102
RTVSPost2010Prop55
280
     0
102
RTVSPost2010PropOp55
 70
     1
102
RTVSPost2010Prop56
140
1.0
102
RTVSPost2010PropOp56
 70
     1
102
RTVSPost2010Prop57
140
1.0
102
RTVSPost2010PropOp57
 70
     1
  0
XRECORD
  5
497
102
{ACAD_REACTORS
330
496
102
}
330
496
100
AcDbXrecord
280
     1
102
RTVSPropertyOp0
 70
     1
102
RTVSPropertyOp1
 70
     1
102
RTVSPropertyOp2
 70
     1
102
RTVSPropertyOp3
 70
     1
102
RTVSPropertyOp4
 70
     1
102
RTVSPropertyOp5
 70
     1
102
RTVSPropertyOp6
 70
     1
102
RTVSPropertyOp7
 70
     1
102
RTVSPropertyOp8
 70
     1
102
RTVSPropertyOp9
 70
     1
102
RTVSPropertyOp10
 70
     1
102
RTVSPropertyOp11
 70
     1
102
RTVSPropertyOp12
 70
     1
102
RTVSPropertyOp13
 70
     1
102
RTVSPropertyOp14
 70
     1
102
RTVSPropertyOp15
 70
     1
102
RTVSPropertyOp16
 70
     1
102
RTVSPropertyOp17
 70
     1
102
RTVSPropertyOp18
 70
     1
102
RTVSPropertyOp19
 70
     1
102
RTVSPropertyOp20
 70
     1
102
RTVSPropertyOp21
 70
     1
102
RTVSPropertyOp22
 70
     1
102
RTVSPropertyOp23
 70
     1
102
RTVSPropertyOp24
 70
     1
102
RTVSPropertyOp25
 70
     1
102
RTVSPropertyOp26
 70
     1
102
RTVSPropertyOp27
 70
     1
102
RTVSPropertyOp28
 70
     1
102
RTVSPropertyOp29
 70
     1
102
RTVSPropertyOp30
 70
     1
102
RTVSPropertyOp31
 70
     1
102
RTVSPropertyOp32
 70
     1
102
RTVSPropertyOp33
 70
     1
102
RTVSPropertyOp34
 70
     1
102
RTVSPropertyOp35
 70
     1
102
RTVSPropertyOp36
 70
     1
102
RTVSPropertyOp37
 70
     1
102
RTVSPropertyOp38
 70
     1
102
RTVSPropertyOp39
 70
     1
102
RTVSPropertyOp40
 70
     1
102
RTVSPropertyOp41
 70
     1
102
RTVSPropertyOp42
 70
     1
102
RTVSPropertyOp43
 70
     1
102
RTVSPropertyOp44
 70
     1
102
RTVSPropertyOp45
 70
     1
102
RTVSPropertyOp46
 70
     1
102
RTVSPropertyOp47
 70
     1
102
RTVSPropertyOp48
 70
     1
102
RTVSPropertyOp49
 70
     1
102
RTVSPropertyOp50
 70
     1
102
RTVSPropertyOp51
 70
     0
102
RTVSPropertyOp52
 70
     0
102
RTVSPropertyOp53
 70
     1
102
RTVSPropertyOp54
 70
     1
102
RTVSPropertyOp55
 70
     1
102
RTVSPropertyOp56
 70
     1
102
RTVSPropertyOp57
 70
     1
102
RTVSPost2010Prop28
280
     0
102
RTVSPost2010PropOp28
 70
     1
102
RTVSPost2010Prop29
280
     1
102
RTVSPost2010PropOp29
 70
     1
102
RTVSPost2010Prop30
280
     1
102
RTVSPost2010PropOp30
 70
     1
102
RTVSPost2010Prop31
280
     0
102
RTVSPost2010PropOp31
 70
     1
102
RTVSPost2010Prop32
280
     0
102
RTVSPost2010PropOp32
 70
     1
102
RTVSPost2010Prop33
280
     0
102
RTVSPost2010PropOp33
 70
     1
102
RTVSPost2010Prop34
280
     0
102
RTVSPost2010PropOp34
 70
     1
102
RTVSPost2010Prop35
280
     0
102
RTVSPost2010PropOp35
 70
     1
102
RTVSPost2010Prop36
280
     0
102
RTVSPost2010PropOp36
 70
     1
102
RTVSPost2010Prop37
 90
       50
102
RTVSPost2010PropOp37
 70
     1
102
RTVSPost2010Prop38
140
0.0
102
RTVSPost2010PropOp38
 70
     1
102
RTVSPost2010Prop39
140
1.0
102
RTVSPost2010PropOp39
 70
     1
102
RTVSPost2010Prop40
 90
        0
102
RTVSPost2010PropOp40
 70
     1
102
RTVSPost2010Prop41ColorIndex
 90
       18
102
RTVSPost2010Prop41ColorRGB
 90
        0
102
RTVSPost2010PropOp41
 70
     1
102
RTVSPost2010Prop42
 90
       50
102
RTVSPost2010PropOp42
 70
     1
102
RTVSPost2010Prop43
 90
        3
102
RTVSPost2010PropOp43
 70
     1
102
RTVSPost2010Prop44ColorIndex
 90
        5
102
RTVSPost2010Prop44ColorRGB
 90
      255
102
RTVSPost2010PropOp44
 70
     1
102
RTVSPost2010Prop45
280
     0
102
RTVSPost2010PropOp45
 70
     1
102
RTVSPost2010Prop46
 90
       50
102
RTVSPost2010PropOp46
 70
     1
102
RTVSPost2010Prop47
 90
       50
102
RTVSPost2010PropOp47
 70
     1
102
RTVSPost2010Prop48
 90
       50
102
RTVSPost2010PropOp48
 70
     1
102
RTVSPost2010Prop49
280
     0
102
RTVSPost2010PropOp49
 70
     1
102
RTVSPost2010Prop50
 90
       50
102
RTVSPost2010PropOp50
 70
     1
102
RTVSPost2010Prop51ColorIndex
 90
      256
102
RTVSPost2010Prop51ColorRGB
 90
-16777216
102
RTVSPost2010PropOp51
 70
     0
102
RTVSPost2010Prop52
140
1.0
102
RTVSPost2010PropOp52
 70
     0
102
RTVSPost2010Prop53
 90
        2
102
RTVSPost2010PropOp53
 70
     1
102
RTVSPost2010Prop54
  1
strokes_ogs.tif
102
RTVSPost2010PropOp54
 70
     1
102
RTVSPost2010Prop55
280
     0
102
RTVSPost2010PropOp55
 70
     1
102
RTVSPost2010Prop56
140
1.0
102
RTVSPost2010PropOp56
 70
     1
102
RTVSPost2010Prop57
140
1.0
102
RTVSPost2010PropOp57
 70
     1
  0
XRECORD
  5
49B
102
{ACAD_REACTORS
330
49A
102
}
330
49A
100
AcDbXrecord
280
     1
102
RTVSPropertyOp0
 70
     1
102
RTVSPropertyOp1
 70
     1
102
RTVSPropertyOp2
 70
     1
102
RTVSPropertyOp3
 70
     1
102
RTVSPropertyOp4
 70
     1
102
RTVSPropertyOp5
 70
     1
102
RTVSPropertyOp6
 70
     1
102
RTVSPropertyOp7
 70
     1
102
RTVSPropertyOp8
 70
     1
102
RTVSPropertyOp9
 70
     1
102
RTVSPropertyOp10
 70
     1
102
RTVSPropertyOp11
 70
     1
102
RTVSPropertyOp12
 70
     1
102
RTVSPropertyOp13
 70
     1
102
RTVSPropertyOp14
 70
     1
102
RTVSPropertyOp15
 70
     1
102
RTVSPropertyOp16
 70
     1
102
RTVSPropertyOp17
 70
     1
102
RTVSPropertyOp18
 70
     1
102
RTVSPropertyOp19
 70
     1
102
RTVSPropertyOp20
 70
     1
102
RTVSPropertyOp21
 70
     1
102
RTVSPropertyOp22
 70
     1
102
RTVSPropertyOp23
 70
     1
102
RTVSPropertyOp24
 70
     1
102
RTVSPropertyOp25
 70
     1
102
RTVSPropertyOp26
 70
     1
102
RTVSPropertyOp27
 70
     1
102
RTVSPropertyOp28
 70
     1
102
RTVSPropertyOp29
 70
     1
102
RTVSPropertyOp30
 70
     1
102
RTVSPropertyOp31
 70
     1
102
RTVSPropertyOp32
 70
     1
102
RTVSPropertyOp33
 70
     1
102
RTVSPropertyOp34
 70
     1
102
RTVSPropertyOp35
 70
     1
102
RTVSPropertyOp36
 70
     1
102
RTVSPropertyOp37
 70
     1
102
RTVSPropertyOp38
 70
     1
102
RTVSPropertyOp39
 70
     1
102
RTVSPropertyOp40
 70
     1
102
RTVSPropertyOp41
 70
     1
102
RTVSPropertyOp42
 70
     1
102
RTVSPropertyOp43
 70
     1
102
RTVSPropertyOp44
 70
     1
102
RTVSPropertyOp45
 70
     1
102
RTVSPropertyOp46
 70
     1
102
RTVSPropertyOp47
 70
     1
102
RTVSPropertyOp48
 70
     1
102
RTVSPropertyOp49
 70
     1
102
RTVSPropertyOp50
 70
     1
102
RTVSPropertyOp51
 70
     0
102
RTVSPropertyOp52
 70
     0
102
RTVSPropertyOp53
 70
     1
102
RTVSPropertyOp54
 70
     1
102
RTVSPropertyOp55
 70
     1
102
RTVSPropertyOp56
 70
     1
102
RTVSPropertyOp57
 70
     1
102
RTVSPost2010Prop28
280
     0
102
RTVSPost2010PropOp28
 70
     1
102
RTVSPost2010Prop29
280
     1
102
RTVSPost2010PropOp29
 70
     1
102
RTVSPost2010Prop30
280
     1
102
RTVSPost2010PropOp30
 70
     1
102
RTVSPost2010Prop31
280
     0
102
RTVSPost2010PropOp31
 70
     1
102
RTVSPost2010Prop32
280
     0
102
RTVSPost2010PropOp32
 70
     1
102
RTVSPost2010Prop33
280
     0
102
RTVSPost2010PropOp33
 70
     1
102
RTVSPost2010Prop34
280
     0
102
RTVSPost2010PropOp34
 70
     1
102
RTVSPost2010Prop35
280
     0
102
RTVSPost2010PropOp35
 70
     1
102
RTVSPost2010Prop36
280
     0
102
RTVSPost2010PropOp36
 70
     1
102
RTVSPost2010Prop37
 90
       50
102
RTVSPost2010PropOp37
 70
     1
102
RTVSPost2010Prop38
140
0.0
102
RTVSPost2010PropOp38
 70
     1
102
RTVSPost2010Prop39
140
1.0
102
RTVSPost2010PropOp39
 70
     1
102
RTVSPost2010Prop40
 90
        0
102
RTVSPost2010PropOp40
 70
     1
102
RTVSPost2010Prop41ColorIndex
 90
       18
102
RTVSPost2010Prop41ColorRGB
 90
        0
102
RTVSPost2010PropOp41
 70
     1
102
RTVSPost2010Prop42
 90
       50
102
RTVSPost2010PropOp42
 70
     1
102
RTVSPost2010Prop43
 90
        3
102
RTVSPost2010PropOp43
 70
     1
102
RTVSPost2010Prop44ColorIndex
 90
        5
102
RTVSPost2010Prop44ColorRGB
 90
      255
102
RTVSPost2010PropOp44
 70
     1
102
RTVSPost2010Prop45
280
     0
102
RTVSPost2010PropOp45
 70
     1
102
RTVSPost2010Prop46
 90
       50
102
RTVSPost2010PropOp46
 70
     1
102
RTVSPost2010Prop47
 90
       50
102
RTVSPost2010PropOp47
 70
     1
102
RTVSPost2010Prop48
 90
       50
102
RTVSPost2010PropOp48
 70
     1
102
RTVSPost2010Prop49
280
     0
102
RTVSPost2010PropOp49
 70
     1
102
RTVSPost2010Prop50
 90
       50
102
RTVSPost2010PropOp50
 70
     1
102
RTVSPost2010Prop51ColorIndex
 90
      256
102
RTVSPost2010Prop51ColorRGB
 90
-16777216
102
RTVSPost2010PropOp51
 70
     0
102
RTVSPost2010Prop52
140
1.0
102
RTVSPost2010PropOp52
 70
     0
102
RTVSPost2010Prop53
 90
        2
102
RTVSPost2010PropOp53
 70
     1
102
RTVSPost2010Prop54
  1
strokes_ogs.tif
102
RTVSPost2010PropOp54
 70
     1
102
RTVSPost2010Prop55
280
     0
102
RTVSPost2010PropOp55
 70
     1
102
RTVSPost2010Prop56
140
1.0
102
RTVSPost2010PropOp56
 70
     1
102
RTVSPost2010Prop57
140
1.0
102
RTVSPost2010PropOp57
 70
     1
  0
XRECORD
  5
4A3
102
{ACAD_REACTORS
330
4A2
102
}
330
4A2
100
AcDbXrecord
280
     1
102
RTVSPropertyOp0
 70
     1
102
RTVSPropertyOp1
 70
     1
102
RTVSPropertyOp2
 70
     1
102
RTVSPropertyOp3
 70
     1
102
RTVSPropertyOp4
 70
     1
102
RTVSPropertyOp5
 70
     1
102
RTVSPropertyOp6
 70
     1
102
RTVSPropertyOp7
 70
     1
102
RTVSPropertyOp8
 70
     1
102
RTVSPropertyOp9
 70
     1
102
RTVSPropertyOp10
 70
     1
102
RTVSPropertyOp11
 70
     1
102
RTVSPropertyOp12
 70
     1
102
RTVSPropertyOp13
 70
     1
102
RTVSPropertyOp14
 70
     1
102
RTVSPropertyOp15
 70
     1
102
RTVSPropertyOp16
 70
     1
102
RTVSPropertyOp17
 70
     1
102
RTVSPropertyOp18
 70
     1
102
RTVSPropertyOp19
 70
     1
102
RTVSPropertyOp20
 70
     1
102
RTVSPropertyOp21
 70
     1
102
RTVSPropertyOp22
 70
     1
102
RTVSPropertyOp23
 70
     1
102
RTVSPropertyOp24
 70
     1
102
RTVSPropertyOp25
 70
     1
102
RTVSPropertyOp26
 70
     1
102
RTVSPropertyOp27
 70
     1
102
RTVSPropertyOp28
 70
     1
102
RTVSPropertyOp29
 70
     1
102
RTVSPropertyOp30
 70
     1
102
RTVSPropertyOp31
 70
     1
102
RTVSPropertyOp32
 70
     1
102
RTVSPropertyOp33
 70
     1
102
RTVSPropertyOp34
 70
     1
102
RTVSPropertyOp35
 70
     1
102
RTVSPropertyOp36
 70
     1
102
RTVSPropertyOp37
 70
     1
102
RTVSPropertyOp38
 70
     1
102
RTVSPropertyOp39
 70
     1
102
RTVSPropertyOp40
 70
     1
102
RTVSPropertyOp41
 70
     1
102
RTVSPropertyOp42
 70
     1
102
RTVSPropertyOp43
 70
     1
102
RTVSPropertyOp44
 70
     1
102
RTVSPropertyOp45
 70
     1
102
RTVSPropertyOp46
 70
     1
102
RTVSPropertyOp47
 70
     1
102
RTVSPropertyOp48
 70
     1
102
RTVSPropertyOp49
 70
     1
102
RTVSPropertyOp50
 70
     1
102
RTVSPropertyOp51
 70
     0
102
RTVSPropertyOp52
 70
     0
102
RTVSPropertyOp53
 70
     1
102
RTVSPropertyOp54
 70
     1
102
RTVSPropertyOp55
 70
     1
102
RTVSPropertyOp56
 70
     1
102
RTVSPropertyOp57
 70
     1
102
RTVSPost2010Prop28
280
     0
102
RTVSPost2010PropOp28
 70
     1
102
RTVSPost2010Prop29
280
     1
102
RTVSPost2010PropOp29
 70
     1
102
RTVSPost2010Prop30
280
     1
102
RTVSPost2010PropOp30
 70
     1
102
RTVSPost2010Prop31
280
     0
102
RTVSPost2010PropOp31
 70
     1
102
RTVSPost2010Prop32
280
     0
102
RTVSPost2010PropOp32
 70
     1
102
RTVSPost2010Prop33
280
     0
102
RTVSPost2010PropOp33
 70
     1
102
RTVSPost2010Prop34
280
     0
102
RTVSPost2010PropOp34
 70
     1
102
RTVSPost2010Prop35
280
     0
102
RTVSPost2010PropOp35
 70
     1
102
RTVSPost2010Prop36
280
     0
102
RTVSPost2010PropOp36
 70
     1
102
RTVSPost2010Prop37
 90
       50
102
RTVSPost2010PropOp37
 70
     1
102
RTVSPost2010Prop38
140
0.0
102
RTVSPost2010PropOp38
 70
     1
102
RTVSPost2010Prop39
140
1.0
102
RTVSPost2010PropOp39
 70
     1
102
RTVSPost2010Prop40
 90
        0
102
RTVSPost2010PropOp40
 70
     1
102
RTVSPost2010Prop41ColorIndex
 90
       18
102
RTVSPost2010Prop41ColorRGB
 90
        0
102
RTVSPost2010PropOp41
 70
     1
102
RTVSPost2010Prop42
 90
       50
102
RTVSPost2010PropOp42
 70
     1
102
RTVSPost2010Prop43
 90
        3
102
RTVSPost2010PropOp43
 70
     1
102
RTVSPost2010Prop44ColorIndex
 90
        5
102
RTVSPost2010Prop44ColorRGB
 90
      255
102
RTVSPost2010PropOp44
 70
     1
102
RTVSPost2010Prop45
280
     0
102
RTVSPost2010PropOp45
 70
     1
102
RTVSPost2010Prop46
 90
       50
102
RTVSPost2010PropOp46
 70
     1
102
RTVSPost2010Prop47
 90
       50
102
RTVSPost2010PropOp47
 70
     1
102
RTVSPost2010Prop48
 90
       50
102
RTVSPost2010PropOp48
 70
     1
102
RTVSPost2010Prop49
280
     0
102
RTVSPost2010PropOp49
 70
     1
102
RTVSPost2010Prop50
 90
       50
102
RTVSPost2010PropOp50
 70
     1
102
RTVSPost2010Prop51ColorIndex
 90
      256
102
RTVSPost2010Prop51ColorRGB
 90
-16777216
102
RTVSPost2010PropOp51
 70
     0
102
RTVSPost2010Prop52
140
1.0
102
RTVSPost2010PropOp52
 70
     0
102
RTVSPost2010Prop53
 90
        2
102
RTVSPost2010PropOp53
 70
     1
102
RTVSPost2010Prop54
  1
strokes_ogs.tif
102
RTVSPost2010PropOp54
 70
     1
102
RTVSPost2010Prop55
280
     0
102
RTVSPost2010PropOp55
 70
     1
102
RTVSPost2010Prop56
140
1.0
102
RTVSPost2010PropOp56
 70
     1
102
RTVSPost2010Prop57
140
1.0
102
RTVSPost2010PropOp57
 70
     1
  0
XRECORD
  5
4AB
102
{ACAD_REACTORS
330
4AA
102
}
330
4AA
100
AcDbXrecord
280
     1
102
RTVSPropertyOp0
 70
     1
102
RTVSPropertyOp1
 70
     1
102
RTVSPropertyOp2
 70
     1
102
RTVSPropertyOp3
 70
     1
102
RTVSPropertyOp4
 70
     1
102
RTVSPropertyOp5
 70
     1
102
RTVSPropertyOp6
 70
     1
102
RTVSPropertyOp7
 70
     1
102
RTVSPropertyOp8
 70
     1
102
RTVSPropertyOp9
 70
     1
102
RTVSPropertyOp10
 70
     1
102
RTVSPropertyOp11
 70
     1
102
RTVSPropertyOp12
 70
     1
102
RTVSPropertyOp13
 70
     1
102
RTVSPropertyOp14
 70
     1
102
RTVSPropertyOp15
 70
     1
102
RTVSPropertyOp16
 70
     1
102
RTVSPropertyOp17
 70
     1
102
RTVSPropertyOp18
 70
     1
102
RTVSPropertyOp19
 70
     1
102
RTVSPropertyOp20
 70
     1
102
RTVSPropertyOp21
 70
     1
102
RTVSPropertyOp22
 70
     1
102
RTVSPropertyOp23
 70
     1
102
RTVSPropertyOp24
 70
     1
102
RTVSPropertyOp25
 70
     1
102
RTVSPropertyOp26
 70
     1
102
RTVSPropertyOp27
 70
     1
102
RTVSPropertyOp28
 70
     1
102
RTVSPropertyOp29
 70
     1
102
RTVSPropertyOp30
 70
     1
102
RTVSPropertyOp31
 70
     1
102
RTVSPropertyOp32
 70
     1
102
RTVSPropertyOp33
 70
     1
102
RTVSPropertyOp34
 70
     1
102
RTVSPropertyOp35
 70
     1
102
RTVSPropertyOp36
 70
     1
102
RTVSPropertyOp37
 70
     1
102
RTVSPropertyOp38
 70
     1
102
RTVSPropertyOp39
 70
     1
102
RTVSPropertyOp40
 70
     1
102
RTVSPropertyOp41
 70
     1
102
RTVSPropertyOp42
 70
     1
102
RTVSPropertyOp43
 70
     1
102
RTVSPropertyOp44
 70
     1
102
RTVSPropertyOp45
 70
     1
102
RTVSPropertyOp46
 70
     1
102
RTVSPropertyOp47
 70
     1
102
RTVSPropertyOp48
 70
     1
102
RTVSPropertyOp49
 70
     1
102
RTVSPropertyOp50
 70
     1
102
RTVSPropertyOp51
 70
     0
102
RTVSPropertyOp52
 70
     0
102
RTVSPropertyOp53
 70
     1
102
RTVSPropertyOp54
 70
     1
102
RTVSPropertyOp55
 70
     1
102
RTVSPropertyOp56
 70
     1
102
RTVSPropertyOp57
 70
     1
102
RTVSPost2010Prop28
280
     0
102
RTVSPost2010PropOp28
 70
     1
102
RTVSPost2010Prop29
280
     1
102
RTVSPost2010PropOp29
 70
     1
102
RTVSPost2010Prop30
280
     1
102
RTVSPost2010PropOp30
 70
     1
102
RTVSPost2010Prop31
280
     0
102
RTVSPost2010PropOp31
 70
     1
102
RTVSPost2010Prop32
280
     0
102
RTVSPost2010PropOp32
 70
     1
102
RTVSPost2010Prop33
280
     0
102
RTVSPost2010PropOp33
 70
     1
102
RTVSPost2010Prop34
280
     0
102
RTVSPost2010PropOp34
 70
     1
102
RTVSPost2010Prop35
280
     0
102
RTVSPost2010PropOp35
 70
     1
102
RTVSPost2010Prop36
280
     0
102
RTVSPost2010PropOp36
 70
     1
102
RTVSPost2010Prop37
 90
       50
102
RTVSPost2010PropOp37
 70
     1
102
RTVSPost2010Prop38
140
0.0
102
RTVSPost2010PropOp38
 70
     1
102
RTVSPost2010Prop39
140
1.0
102
RTVSPost2010PropOp39
 70
     1
102
RTVSPost2010Prop40
 90
        0
102
RTVSPost2010PropOp40
 70
     1
102
RTVSPost2010Prop41ColorIndex
 90
       18
102
RTVSPost2010Prop41ColorRGB
 90
        0
102
RTVSPost2010PropOp41
 70
     1
102
RTVSPost2010Prop42
 90
       50
102
RTVSPost2010PropOp42
 70
     1
102
RTVSPost2010Prop43
 90
        3
102
RTVSPost2010PropOp43
 70
     1
102
RTVSPost2010Prop44ColorIndex
 90
        5
102
RTVSPost2010Prop44ColorRGB
 90
      255
102
RTVSPost2010PropOp44
 70
     1
102
RTVSPost2010Prop45
280
     0
102
RTVSPost2010PropOp45
 70
     1
102
RTVSPost2010Prop46
 90
       50
102
RTVSPost2010PropOp46
 70
     1
102
RTVSPost2010Prop47
 90
       50
102
RTVSPost2010PropOp47
 70
     1
102
RTVSPost2010Prop48
 90
       50
102
RTVSPost2010PropOp48
 70
     1
102
RTVSPost2010Prop49
280
     0
102
RTVSPost2010PropOp49
 70
     1
102
RTVSPost2010Prop50
 90
       50
102
RTVSPost2010PropOp50
 70
     1
102
RTVSPost2010Prop51ColorIndex
 90
      256
102
RTVSPost2010Prop51ColorRGB
 90
-16777216
102
RTVSPost2010PropOp51
 70
     0
102
RTVSPost2010Prop52
140
1.0
102
RTVSPost2010PropOp52
 70
     0
102
RTVSPost2010Prop53
 90
        2
102
RTVSPost2010PropOp53
 70
     1
102
RTVSPost2010Prop54
  1
strokes_ogs.tif
102
RTVSPost2010PropOp54
 70
     1
102
RTVSPost2010Prop55
280
     0
102
RTVSPost2010PropOp55
 70
     1
102
RTVSPost2010Prop56
140
1.0
102
RTVSPost2010PropOp56
 70
     1
102
RTVSPost2010Prop57
140
1.0
102
RTVSPost2010PropOp57
 70
     1
  0
XRECORD
  5
49F
102
{ACAD_REACTORS
330
49E
102
}
330
49E
100
AcDbXrecord
280
     1
102
RTVSPropertyOp0
 70
     1
102
RTVSPropertyOp1
 70
     1
102
RTVSPropertyOp2
 70
     1
102
RTVSPropertyOp3
 70
     1
102
RTVSPropertyOp4
 70
     1
102
RTVSPropertyOp5
 70
     1
102
RTVSPropertyOp6
 70
     1
102
RTVSPropertyOp7
 70
     1
102
RTVSPropertyOp8
 70
     1
102
RTVSPropertyOp9
 70
     1
102
RTVSPropertyOp10
 70
     1
102
RTVSPropertyOp11
 70
     1
102
RTVSPropertyOp12
 70
     1
102
RTVSPropertyOp13
 70
     1
102
RTVSPropertyOp14
 70
     1
102
RTVSPropertyOp15
 70
     1
102
RTVSPropertyOp16
 70
     1
102
RTVSPropertyOp17
 70
     1
102
RTVSPropertyOp18
 70
     1
102
RTVSPropertyOp19
 70
     1
102
RTVSPropertyOp20
 70
     1
102
RTVSPropertyOp21
 70
     1
102
RTVSPropertyOp22
 70
     1
102
RTVSPropertyOp23
 70
     1
102
RTVSPropertyOp24
 70
     1
102
RTVSPropertyOp25
 70
     1
102
RTVSPropertyOp26
 70
     1
102
RTVSPropertyOp27
 70
     1
102
RTVSPropertyOp28
 70
     1
102
RTVSPropertyOp29
 70
     1
102
RTVSPropertyOp30
 70
     1
102
RTVSPropertyOp31
 70
     1
102
RTVSPropertyOp32
 70
     1
102
RTVSPropertyOp33
 70
     1
102
RTVSPropertyOp34
 70
     1
102
RTVSPropertyOp35
 70
     1
102
RTVSPropertyOp36
 70
     1
102
RTVSPropertyOp37
 70
     1
102
RTVSPropertyOp38
 70
     1
102
RTVSPropertyOp39
 70
     1
102
RTVSPropertyOp40
 70
     1
102
RTVSPropertyOp41
 70
     1
102
RTVSPropertyOp42
 70
     1
102
RTVSPropertyOp43
 70
     1
102
RTVSPropertyOp44
 70
     1
102
RTVSPropertyOp45
 70
     1
102
RTVSPropertyOp46
 70
     1
102
RTVSPropertyOp47
 70
     1
102
RTVSPropertyOp48
 70
     1
102
RTVSPropertyOp49
 70
     1
102
RTVSPropertyOp50
 70
     1
102
RTVSPropertyOp51
 70
     0
102
RTVSPropertyOp52
 70
     0
102
RTVSPropertyOp53
 70
     1
102
RTVSPropertyOp54
 70
     1
102
RTVSPropertyOp55
 70
     1
102
RTVSPropertyOp56
 70
     1
102
RTVSPropertyOp57
 70
     1
102
RTVSPost2010Prop28
280
     0
102
RTVSPost2010PropOp28
 70
     1
102
RTVSPost2010Prop29
280
     1
102
RTVSPost2010PropOp29
 70
     1
102
RTVSPost2010Prop30
280
     1
102
RTVSPost2010PropOp30
 70
     1
102
RTVSPost2010Prop31
280
     0
102
RTVSPost2010PropOp31
 70
     1
102
RTVSPost2010Prop32
280
     0
102
RTVSPost2010PropOp32
 70
     1
102
RTVSPost2010Prop33
280
     0
102
RTVSPost2010PropOp33
 70
     1
102
RTVSPost2010Prop34
280
     0
102
RTVSPost2010PropOp34
 70
     1
102
RTVSPost2010Prop35
280
     0
102
RTVSPost2010PropOp35
 70
     1
102
RTVSPost2010Prop36
280
     0
102
RTVSPost2010PropOp36
 70
     1
102
RTVSPost2010Prop37
 90
       50
102
RTVSPost2010PropOp37
 70
     1
102
RTVSPost2010Prop38
140
0.0
102
RTVSPost2010PropOp38
 70
     1
102
RTVSPost2010Prop39
140
1.0
102
RTVSPost2010PropOp39
 70
     1
102
RTVSPost2010Prop40
 90
        0
102
RTVSPost2010PropOp40
 70
     1
102
RTVSPost2010Prop41ColorIndex
 90
       18
102
RTVSPost2010Prop41ColorRGB
 90
        0
102
RTVSPost2010PropOp41
 70
     1
102
RTVSPost2010Prop42
 90
       50
102
RTVSPost2010PropOp42
 70
     1
102
RTVSPost2010Prop43
 90
        3
102
RTVSPost2010PropOp43
 70
     1
102
RTVSPost2010Prop44ColorIndex
 90
        5
102
RTVSPost2010Prop44ColorRGB
 90
      255
102
RTVSPost2010PropOp44
 70
     1
102
RTVSPost2010Prop45
280
     0
102
RTVSPost2010PropOp45
 70
     1
102
RTVSPost2010Prop46
 90
       50
102
RTVSPost2010PropOp46
 70
     1
102
RTVSPost2010Prop47
 90
       50
102
RTVSPost2010PropOp47
 70
     1
102
RTVSPost2010Prop48
 90
       50
102
RTVSPost2010PropOp48
 70
     1
102
RTVSPost2010Prop49
280
     0
102
RTVSPost2010PropOp49
 70
     1
102
RTVSPost2010Prop50
 90
       50
102
RTVSPost2010PropOp50
 70
     1
102
RTVSPost2010Prop51ColorIndex
 90
      256
102
RTVSPost2010Prop51ColorRGB
 90
-16777216
102
RTVSPost2010PropOp51
 70
     0
102
RTVSPost2010Prop52
140
1.0
102
RTVSPost2010PropOp52
 70
     0
102
RTVSPost2010Prop53
 90
        2
102
RTVSPost2010PropOp53
 70
     1
102
RTVSPost2010Prop54
  1
strokes_ogs.tif
102
RTVSPost2010PropOp54
 70
     1
102
RTVSPost2010Prop55
280
     0
102
RTVSPost2010PropOp55
 70
     1
102
RTVSPost2010Prop56
140
1.0
102
RTVSPost2010PropOp56
 70
     1
102
RTVSPost2010Prop57
140
1.0
102
RTVSPost2010PropOp57
 70
     1
  0
XRECORD
  5
4A1
102
{ACAD_REACTORS
330
4A0
102
}
330
4A0
100
AcDbXrecord
280
     1
102
RTVSPropertyOp0
 70
     1
102
RTVSPropertyOp1
 70
     1
102
RTVSPropertyOp2
 70
     1
102
RTVSPropertyOp3
 70
     1
102
RTVSPropertyOp4
 70
     1
102
RTVSPropertyOp5
 70
     1
102
RTVSPropertyOp6
 70
     1
102
RTVSPropertyOp7
 70
     1
102
RTVSPropertyOp8
 70
     1
102
RTVSPropertyOp9
 70
     1
102
RTVSPropertyOp10
 70
     1
102
RTVSPropertyOp11
 70
     1
102
RTVSPropertyOp12
 70
     1
102
RTVSPropertyOp13
 70
     1
102
RTVSPropertyOp14
 70
     1
102
RTVSPropertyOp15
 70
     1
102
RTVSPropertyOp16
 70
     1
102
RTVSPropertyOp17
 70
     1
102
RTVSPropertyOp18
 70
     1
102
RTVSPropertyOp19
 70
     1
102
RTVSPropertyOp20
 70
     1
102
RTVSPropertyOp21
 70
     1
102
RTVSPropertyOp22
 70
     1
102
RTVSPropertyOp23
 70
     1
102
RTVSPropertyOp24
 70
     1
102
RTVSPropertyOp25
 70
     1
102
RTVSPropertyOp26
 70
     1
102
RTVSPropertyOp27
 70
     1
102
RTVSPropertyOp28
 70
     1
102
RTVSPropertyOp29
 70
     1
102
RTVSPropertyOp30
 70
     1
102
RTVSPropertyOp31
 70
     1
102
RTVSPropertyOp32
 70
     1
102
RTVSPropertyOp33
 70
     1
102
RTVSPropertyOp34
 70
     1
102
RTVSPropertyOp35
 70
     1
102
RTVSPropertyOp36
 70
     1
102
RTVSPropertyOp37
 70
     1
102
RTVSPropertyOp38
 70
     1
102
RTVSPropertyOp39
 70
     1
102
RTVSPropertyOp40
 70
     1
102
RTVSPropertyOp41
 70
     1
102
RTVSPropertyOp42
 70
     1
102
RTVSPropertyOp43
 70
     1
102
RTVSPropertyOp44
 70
     1
102
RTVSPropertyOp45
 70
     1
102
RTVSPropertyOp46
 70
     1
102
RTVSPropertyOp47
 70
     1
102
RTVSPropertyOp48
 70
     1
102
RTVSPropertyOp49
 70
     1
102
RTVSPropertyOp50
 70
     1
102
RTVSPropertyOp51
 70
     0
102
RTVSPropertyOp52
 70
     0
102
RTVSPropertyOp53
 70
     1
102
RTVSPropertyOp54
 70
     1
102
RTVSPropertyOp55
 70
     1
102
RTVSPropertyOp56
 70
     1
102
RTVSPropertyOp57
 70
     1
102
RTVSPost2010Prop28
280
     0
102
RTVSPost2010PropOp28
 70
     1
102
RTVSPost2010Prop29
280
     1
102
RTVSPost2010PropOp29
 70
     1
102
RTVSPost2010Prop30
280
     1
102
RTVSPost2010PropOp30
 70
     1
102
RTVSPost2010Prop31
280
     0
102
RTVSPost2010PropOp31
 70
     1
102
RTVSPost2010Prop32
280
     0
102
RTVSPost2010PropOp32
 70
     1
102
RTVSPost2010Prop33
280
     0
102
RTVSPost2010PropOp33
 70
     1
102
RTVSPost2010Prop34
280
     0
102
RTVSPost2010PropOp34
 70
     1
102
RTVSPost2010Prop35
280
     0
102
RTVSPost2010PropOp35
 70
     1
102
RTVSPost2010Prop36
280
     0
102
RTVSPost2010PropOp36
 70
     1
102
RTVSPost2010Prop37
 90
       50
102
RTVSPost2010PropOp37
 70
     1
102
RTVSPost2010Prop38
140
0.0
102
RTVSPost2010PropOp38
 70
     1
102
RTVSPost2010Prop39
140
1.0
102
RTVSPost2010PropOp39
 70
     1
102
RTVSPost2010Prop40
 90
        0
102
RTVSPost2010PropOp40
 70
     1
102
RTVSPost2010Prop41ColorIndex
 90
       18
102
RTVSPost2010Prop41ColorRGB
 90
        0
102
RTVSPost2010PropOp41
 70
     1
102
RTVSPost2010Prop42
 90
       50
102
RTVSPost2010PropOp42
 70
     1
102
RTVSPost2010Prop43
 90
        3
102
RTVSPost2010PropOp43
 70
     1
102
RTVSPost2010Prop44ColorIndex
 90
        5
102
RTVSPost2010Prop44ColorRGB
 90
      255
102
RTVSPost2010PropOp44
 70
     1
102
RTVSPost2010Prop45
280
     0
102
RTVSPost2010PropOp45
 70
     1
102
RTVSPost2010Prop46
 90
       50
102
RTVSPost2010PropOp46
 70
     1
102
RTVSPost2010Prop47
 90
       50
102
RTVSPost2010PropOp47
 70
     1
102
RTVSPost2010Prop48
 90
       50
102
RTVSPost2010PropOp48
 70
     1
102
RTVSPost2010Prop49
280
     0
102
RTVSPost2010PropOp49
 70
     1
102
RTVSPost2010Prop50
 90
       50
102
RTVSPost2010PropOp50
 70
     1
102
RTVSPost2010Prop51ColorIndex
 90
      256
102
RTVSPost2010Prop51ColorRGB
 90
-16777216
102
RTVSPost2010PropOp51
 70
     0
102
RTVSPost2010Prop52
140
1.0
102
RTVSPost2010PropOp52
 70
     0
102
RTVSPost2010Prop53
 90
        2
102
RTVSPost2010PropOp53
 70
     1
102
RTVSPost2010Prop54
  1
strokes_ogs.tif
102
RTVSPost2010PropOp54
 70
     1
102
RTVSPost2010Prop55
280
     0
102
RTVSPost2010PropOp55
 70
     1
102
RTVSPost2010Prop56
140
1.0
102
RTVSPost2010PropOp56
 70
     1
102
RTVSPost2010Prop57
140
1.0
102
RTVSPost2010PropOp57
 70
     1
  0
XRECORD
  5
4A9
102
{ACAD_REACTORS
330
4A8
102
}
330
4A8
100
AcDbXrecord
280
     1
102
RTVSPropertyOp0
 70
     1
102
RTVSPropertyOp1
 70
     1
102
RTVSPropertyOp2
 70
     1
102
RTVSPropertyOp3
 70
     1
102
RTVSPropertyOp4
 70
     1
102
RTVSPropertyOp5
 70
     1
102
RTVSPropertyOp6
 70
     1
102
RTVSPropertyOp7
 70
     1
102
RTVSPropertyOp8
 70
     1
102
RTVSPropertyOp9
 70
     1
102
RTVSPropertyOp10
 70
     1
102
RTVSPropertyOp11
 70
     1
102
RTVSPropertyOp12
 70
     1
102
RTVSPropertyOp13
 70
     1
102
RTVSPropertyOp14
 70
     1
102
RTVSPropertyOp15
 70
     1
102
RTVSPropertyOp16
 70
     1
102
RTVSPropertyOp17
 70
     1
102
RTVSPropertyOp18
 70
     1
102
RTVSPropertyOp19
 70
     1
102
RTVSPropertyOp20
 70
     1
102
RTVSPropertyOp21
 70
     1
102
RTVSPropertyOp22
 70
     1
102
RTVSPropertyOp23
 70
     1
102
RTVSPropertyOp24
 70
     1
102
RTVSPropertyOp25
 70
     1
102
RTVSPropertyOp26
 70
     1
102
RTVSPropertyOp27
 70
     1
102
RTVSPropertyOp28
 70
     1
102
RTVSPropertyOp29
 70
     1
102
RTVSPropertyOp30
 70
     1
102
RTVSPropertyOp31
 70
     1
102
RTVSPropertyOp32
 70
     1
102
RTVSPropertyOp33
 70
     1
102
RTVSPropertyOp34
 70
     1
102
RTVSPropertyOp35
 70
     1
102
RTVSPropertyOp36
 70
     1
102
RTVSPropertyOp37
 70
     1
102
RTVSPropertyOp38
 70
     1
102
RTVSPropertyOp39
 70
     1
102
RTVSPropertyOp40
 70
     1
102
RTVSPropertyOp41
 70
     1
102
RTVSPropertyOp42
 70
     1
102
RTVSPropertyOp43
 70
     1
102
RTVSPropertyOp44
 70
     1
102
RTVSPropertyOp45
 70
     1
102
RTVSPropertyOp46
 70
     1
102
RTVSPropertyOp47
 70
     1
102
RTVSPropertyOp48
 70
     1
102
RTVSPropertyOp49
 70
     1
102
RTVSPropertyOp50
 70
     1
102
RTVSPropertyOp51
 70
     0
102
RTVSPropertyOp52
 70
     0
102
RTVSPropertyOp53
 70
     1
102
RTVSPropertyOp54
 70
     1
102
RTVSPropertyOp55
 70
     1
102
RTVSPropertyOp56
 70
     1
102
RTVSPropertyOp57
 70
     1
102
RTVSPost2010Prop28
280
     0
102
RTVSPost2010PropOp28
 70
     1
102
RTVSPost2010Prop29
280
     1
102
RTVSPost2010PropOp29
 70
     1
102
RTVSPost2010Prop30
280
     1
102
RTVSPost2010PropOp30
 70
     1
102
RTVSPost2010Prop31
280
     0
102
RTVSPost2010PropOp31
 70
     1
102
RTVSPost2010Prop32
280
     0
102
RTVSPost2010PropOp32
 70
     1
102
RTVSPost2010Prop33
280
     0
102
RTVSPost2010PropOp33
 70
     1
102
RTVSPost2010Prop34
280
     0
102
RTVSPost2010PropOp34
 70
     1
102
RTVSPost2010Prop35
280
     0
102
RTVSPost2010PropOp35
 70
     1
102
RTVSPost2010Prop36
280
     0
102
RTVSPost2010PropOp36
 70
     1
102
RTVSPost2010Prop37
 90
       50
102
RTVSPost2010PropOp37
 70
     1
102
RTVSPost2010Prop38
140
0.0
102
RTVSPost2010PropOp38
 70
     1
102
RTVSPost2010Prop39
140
1.0
102
RTVSPost2010PropOp39
 70
     1
102
RTVSPost2010Prop40
 90
        0
102
RTVSPost2010PropOp40
 70
     1
102
RTVSPost2010Prop41ColorIndex
 90
       18
102
RTVSPost2010Prop41ColorRGB
 90
        0
102
RTVSPost2010PropOp41
 70
     1
102
RTVSPost2010Prop42
 90
       50
102
RTVSPost2010PropOp42
 70
     1
102
RTVSPost2010Prop43
 90
        3
102
RTVSPost2010PropOp43
 70
     1
102
RTVSPost2010Prop44ColorIndex
 90
        5
102
RTVSPost2010Prop44ColorRGB
 90
      255
102
RTVSPost2010PropOp44
 70
     1
102
RTVSPost2010Prop45
280
     0
102
RTVSPost2010PropOp45
 70
     1
102
RTVSPost2010Prop46
 90
       50
102
RTVSPost2010PropOp46
 70
     1
102
RTVSPost2010Prop47
 90
       50
102
RTVSPost2010PropOp47
 70
     1
102
RTVSPost2010Prop48
 90
       50
102
RTVSPost2010PropOp48
 70
     1
102
RTVSPost2010Prop49
280
     0
102
RTVSPost2010PropOp49
 70
     1
102
RTVSPost2010Prop50
 90
       50
102
RTVSPost2010PropOp50
 70
     1
102
RTVSPost2010Prop51ColorIndex
 90
      256
102
RTVSPost2010Prop51ColorRGB
 90
-16777216
102
RTVSPost2010PropOp51
 70
     0
102
RTVSPost2010Prop52
140
1.0
102
RTVSPost2010PropOp52
 70
     0
102
RTVSPost2010Prop53
 90
        2
102
RTVSPost2010PropOp53
 70
     1
102
RTVSPost2010Prop54
  1
strokes_ogs.tif
102
RTVSPost2010PropOp54
 70
     1
102
RTVSPost2010Prop55
280
     0
102
RTVSPost2010PropOp55
 70
     1
102
RTVSPost2010Prop56
140
1.0
102
RTVSPost2010PropOp56
 70
     1
102
RTVSPost2010Prop57
140
1.0
102
RTVSPost2010PropOp57
 70
     1
  0
XRECORD
  5
48D
102
{ACAD_REACTORS
330
48C
102
}
330
48C
100
AcDbXrecord
280
     1
102
RTVSPropertyOp0
 70
     1
102
RTVSPropertyOp1
 70
     1
102
RTVSPropertyOp2
 70
     1
102
RTVSPropertyOp3
 70
     1
102
RTVSPropertyOp4
 70
     1
102
RTVSPropertyOp5
 70
     1
102
RTVSPropertyOp6
 70
     1
102
RTVSPropertyOp7
 70
     1
102
RTVSPropertyOp8
 70
     1
102
RTVSPropertyOp9
 70
     1
102
RTVSPropertyOp10
 70
     1
102
RTVSPropertyOp11
 70
     1
102
RTVSPropertyOp12
 70
     1
102
RTVSPropertyOp13
 70
     1
102
RTVSPropertyOp14
 70
     1
102
RTVSPropertyOp15
 70
     1
102
RTVSPropertyOp16
 70
     1
102
RTVSPropertyOp17
 70
     1
102
RTVSPropertyOp18
 70
     1
102
RTVSPropertyOp19
 70
     1
102
RTVSPropertyOp20
 70
     1
102
RTVSPropertyOp21
 70
     1
102
RTVSPropertyOp22
 70
     1
102
RTVSPropertyOp23
 70
     1
102
RTVSPropertyOp24
 70
     1
102
RTVSPropertyOp25
 70
     1
102
RTVSPropertyOp26
 70
     1
102
RTVSPropertyOp27
 70
     1
102
RTVSPropertyOp28
 70
     1
102
RTVSPropertyOp29
 70
     1
102
RTVSPropertyOp30
 70
     1
102
RTVSPropertyOp31
 70
     1
102
RTVSPropertyOp32
 70
     1
102
RTVSPropertyOp33
 70
     1
102
RTVSPropertyOp34
 70
     1
102
RTVSPropertyOp35
 70
     1
102
RTVSPropertyOp36
 70
     1
102
RTVSPropertyOp37
 70
     1
102
RTVSPropertyOp38
 70
     1
102
RTVSPropertyOp39
 70
     1
102
RTVSPropertyOp40
 70
     1
102
RTVSPropertyOp41
 70
     1
102
RTVSPropertyOp42
 70
     1
102
RTVSPropertyOp43
 70
     1
102
RTVSPropertyOp44
 70
     1
102
RTVSPropertyOp45
 70
     1
102
RTVSPropertyOp46
 70
     1
102
RTVSPropertyOp47
 70
     1
102
RTVSPropertyOp48
 70
     1
102
RTVSPropertyOp49
 70
     1
102
RTVSPropertyOp50
 70
     1
102
RTVSPropertyOp51
 70
     0
102
RTVSPropertyOp52
 70
     0
102
RTVSPropertyOp53
 70
     1
102
RTVSPropertyOp54
 70
     1
102
RTVSPropertyOp55
 70
     1
102
RTVSPropertyOp56
 70
     1
102
RTVSPropertyOp57
 70
     1
102
RTVSPost2010Prop28
280
     0
102
RTVSPost2010PropOp28
 70
     1
102
RTVSPost2010Prop29
280
     1
102
RTVSPost2010PropOp29
 70
     1
102
RTVSPost2010Prop30
280
     1
102
RTVSPost2010PropOp30
 70
     1
102
RTVSPost2010Prop31
280
     0
102
RTVSPost2010PropOp31
 70
     1
102
RTVSPost2010Prop32
280
     0
102
RTVSPost2010PropOp32
 70
     1
102
RTVSPost2010Prop33
280
     0
102
RTVSPost2010PropOp33
 70
     1
102
RTVSPost2010Prop34
280
     0
102
RTVSPost2010PropOp34
 70
     1
102
RTVSPost2010Prop35
280
     0
102
RTVSPost2010PropOp35
 70
     1
102
RTVSPost2010Prop36
280
     0
102
RTVSPost2010PropOp36
 70
     1
102
RTVSPost2010Prop37
 90
       50
102
RTVSPost2010PropOp37
 70
     1
102
RTVSPost2010Prop38
140
0.0
102
RTVSPost2010PropOp38
 70
     1
102
RTVSPost2010Prop39
140
1.0
102
RTVSPost2010PropOp39
 70
     1
102
RTVSPost2010Prop40
 90
        0
102
RTVSPost2010PropOp40
 70
     1
102
RTVSPost2010Prop41ColorIndex
 90
       18
102
RTVSPost2010Prop41ColorRGB
 90
        0
102
RTVSPost2010PropOp41
 70
     1
102
RTVSPost2010Prop42
 90
       50
102
RTVSPost2010PropOp42
 70
     1
102
RTVSPost2010Prop43
 90
        3
102
RTVSPost2010PropOp43
 70
     1
102
RTVSPost2010Prop44ColorIndex
 90
        5
102
RTVSPost2010Prop44ColorRGB
 90
      255
102
RTVSPost2010PropOp44
 70
     1
102
RTVSPost2010Prop45
280
     0
102
RTVSPost2010PropOp45
 70
     1
102
RTVSPost2010Prop46
 90
       50
102
RTVSPost2010PropOp46
 70
     1
102
RTVSPost2010Prop47
 90
       50
102
RTVSPost2010PropOp47
 70
     1
102
RTVSPost2010Prop48
 90
       50
102
RTVSPost2010PropOp48
 70
     1
102
RTVSPost2010Prop49
280
     0
102
RTVSPost2010PropOp49
 70
     1
102
RTVSPost2010Prop50
 90
       50
102
RTVSPost2010PropOp50
 70
     1
102
RTVSPost2010Prop51ColorIndex
 90
      256
102
RTVSPost2010Prop51ColorRGB
 90
-16777216
102
RTVSPost2010PropOp51
 70
     0
102
RTVSPost2010Prop52
140
1.0
102
RTVSPost2010PropOp52
 70
     0
102
RTVSPost2010Prop53
 90
        2
102
RTVSPost2010PropOp53
 70
     1
102
RTVSPost2010Prop54
  1
strokes_ogs.tif
102
RTVSPost2010PropOp54
 70
     1
102
RTVSPost2010Prop55
280
     0
102
RTVSPost2010PropOp55
 70
     1
102
RTVSPost2010Prop56
140
1.0
102
RTVSPost2010PropOp56
 70
     1
102
RTVSPost2010Prop57
140
1.0
102
RTVSPost2010PropOp57
 70
     1
  0
XRECORD
  5
48F
102
{ACAD_REACTORS
330
48E
102
}
330
48E
100
AcDbXrecord
280
     1
102
RTVSPropertyOp0
 70
     1
102
RTVSPropertyOp1
 70
     1
102
RTVSPropertyOp2
 70
     1
102
RTVSPropertyOp3
 70
     1
102
RTVSPropertyOp4
 70
     1
102
RTVSPropertyOp5
 70
     1
102
RTVSPropertyOp6
 70
     1
102
RTVSPropertyOp7
 70
     1
102
RTVSPropertyOp8
 70
     1
102
RTVSPropertyOp9
 70
     1
102
RTVSPropertyOp10
 70
     1
102
RTVSPropertyOp11
 70
     1
102
RTVSPropertyOp12
 70
     1
102
RTVSPropertyOp13
 70
     1
102
RTVSPropertyOp14
 70
     1
102
RTVSPropertyOp15
 70
     1
102
RTVSPropertyOp16
 70
     1
102
RTVSPropertyOp17
 70
     1
102
RTVSPropertyOp18
 70
     1
102
RTVSPropertyOp19
 70
     1
102
RTVSPropertyOp20
 70
     1
102
RTVSPropertyOp21
 70
     1
102
RTVSPropertyOp22
 70
     1
102
RTVSPropertyOp23
 70
     1
102
RTVSPropertyOp24
 70
     1
102
RTVSPropertyOp25
 70
     1
102
RTVSPropertyOp26
 70
     1
102
RTVSPropertyOp27
 70
     1
102
RTVSPropertyOp28
 70
     1
102
RTVSPropertyOp29
 70
     1
102
RTVSPropertyOp30
 70
     1
102
RTVSPropertyOp31
 70
     1
102
RTVSPropertyOp32
 70
     1
102
RTVSPropertyOp33
 70
     1
102
RTVSPropertyOp34
 70
     1
102
RTVSPropertyOp35
 70
     1
102
RTVSPropertyOp36
 70
     1
102
RTVSPropertyOp37
 70
     1
102
RTVSPropertyOp38
 70
     1
102
RTVSPropertyOp39
 70
     1
102
RTVSPropertyOp40
 70
     1
102
RTVSPropertyOp41
 70
     1
102
RTVSPropertyOp42
 70
     1
102
RTVSPropertyOp43
 70
     1
102
RTVSPropertyOp44
 70
     1
102
RTVSPropertyOp45
 70
     1
102
RTVSPropertyOp46
 70
     1
102
RTVSPropertyOp47
 70
     1
102
RTVSPropertyOp48
 70
     1
102
RTVSPropertyOp49
 70
     1
102
RTVSPropertyOp50
 70
     1
102
RTVSPropertyOp51
 70
     0
102
RTVSPropertyOp52
 70
     0
102
RTVSPropertyOp53
 70
     1
102
RTVSPropertyOp54
 70
     1
102
RTVSPropertyOp55
 70
     1
102
RTVSPropertyOp56
 70
     1
102
RTVSPropertyOp57
 70
     1
102
RTVSPost2010Prop28
280
     0
102
RTVSPost2010PropOp28
 70
     1
102
RTVSPost2010Prop29
280
     1
102
RTVSPost2010PropOp29
 70
     1
102
RTVSPost2010Prop30
280
     1
102
RTVSPost2010PropOp30
 70
     1
102
RTVSPost2010Prop31
280
     0
102
RTVSPost2010PropOp31
 70
     1
102
RTVSPost2010Prop32
280
     0
102
RTVSPost2010PropOp32
 70
     1
102
RTVSPost2010Prop33
280
     0
102
RTVSPost2010PropOp33
 70
     1
102
RTVSPost2010Prop34
280
     0
102
RTVSPost2010PropOp34
 70
     1
102
RTVSPost2010Prop35
280
     0
102
RTVSPost2010PropOp35
 70
     1
102
RTVSPost2010Prop36
280
     0
102
RTVSPost2010PropOp36
 70
     1
102
RTVSPost2010Prop37
 90
       50
102
RTVSPost2010PropOp37
 70
     1
102
RTVSPost2010Prop38
140
0.0
102
RTVSPost2010PropOp38
 70
     1
102
RTVSPost2010Prop39
140
1.0
102
RTVSPost2010PropOp39
 70
     1
102
RTVSPost2010Prop40
 90
        0
102
RTVSPost2010PropOp40
 70
     1
102
RTVSPost2010Prop41ColorIndex
 90
       18
102
RTVSPost2010Prop41ColorRGB
 90
        0
102
RTVSPost2010PropOp41
 70
     1
102
RTVSPost2010Prop42
 90
       50
102
RTVSPost2010PropOp42
 70
     1
102
RTVSPost2010Prop43
 90
        3
102
RTVSPost2010PropOp43
 70
     1
102
RTVSPost2010Prop44ColorIndex
 90
        5
102
RTVSPost2010Prop44ColorRGB
 90
      255
102
RTVSPost2010PropOp44
 70
     1
102
RTVSPost2010Prop45
280
     0
102
RTVSPost2010PropOp45
 70
     1
102
RTVSPost2010Prop46
 90
       50
102
RTVSPost2010PropOp46
 70
     1
102
RTVSPost2010Prop47
 90
       50
102
RTVSPost2010PropOp47
 70
     1
102
RTVSPost2010Prop48
 90
       50
102
RTVSPost2010PropOp48
 70
     1
102
RTVSPost2010Prop49
280
     0
102
RTVSPost2010PropOp49
 70
     1
102
RTVSPost2010Prop50
 90
       50
102
RTVSPost2010PropOp50
 70
     1
102
RTVSPost2010Prop51ColorIndex
 90
      256
102
RTVSPost2010Prop51ColorRGB
 90
-16777216
102
RTVSPost2010PropOp51
 70
     0
102
RTVSPost2010Prop52
140
1.0
102
RTVSPost2010PropOp52
 70
     0
102
RTVSPost2010Prop53
 90
        2
102
RTVSPost2010PropOp53
 70
     1
102
RTVSPost2010Prop54
  1
strokes_ogs.tif
102
RTVSPost2010PropOp54
 70
     1
102
RTVSPost2010Prop55
280
     0
102
RTVSPost2010PropOp55
 70
     1
102
RTVSPost2010Prop56
140
1.0
102
RTVSPost2010PropOp56
 70
     1
102
RTVSPost2010Prop57
140
1.0
102
RTVSPost2010PropOp57
 70
     1
  0
XRECORD
  5
491
102
{ACAD_REACTORS
330
490
102
}
330
490
100
AcDbXrecord
280
     1
102
RTVSPropertyOp0
 70
     1
102
RTVSPropertyOp1
 70
     1
102
RTVSPropertyOp2
 70
     1
102
RTVSPropertyOp3
 70
     1
102
RTVSPropertyOp4
 70
     1
102
RTVSPropertyOp5
 70
     1
102
RTVSPropertyOp6
 70
     1
102
RTVSPropertyOp7
 70
     1
102
RTVSPropertyOp8
 70
     1
102
RTVSPropertyOp9
 70
     1
102
RTVSPropertyOp10
 70
     1
102
RTVSPropertyOp11
 70
     1
102
RTVSPropertyOp12
 70
     1
102
RTVSPropertyOp13
 70
     1
102
RTVSPropertyOp14
 70
     1
102
RTVSPropertyOp15
 70
     1
102
RTVSPropertyOp16
 70
     1
102
RTVSPropertyOp17
 70
     1
102
RTVSPropertyOp18
 70
     1
102
RTVSPropertyOp19
 70
     1
102
RTVSPropertyOp20
 70
     1
102
RTVSPropertyOp21
 70
     1
102
RTVSPropertyOp22
 70
     1
102
RTVSPropertyOp23
 70
     1
102
RTVSPropertyOp24
 70
     1
102
RTVSPropertyOp25
 70
     1
102
RTVSPropertyOp26
 70
     1
102
RTVSPropertyOp27
 70
     1
102
RTVSPropertyOp28
 70
     1
102
RTVSPropertyOp29
 70
     1
102
RTVSPropertyOp30
 70
     1
102
RTVSPropertyOp31
 70
     1
102
RTVSPropertyOp32
 70
     1
102
RTVSPropertyOp33
 70
     1
102
RTVSPropertyOp34
 70
     1
102
RTVSPropertyOp35
 70
     1
102
RTVSPropertyOp36
 70
     1
102
RTVSPropertyOp37
 70
     1
102
RTVSPropertyOp38
 70
     1
102
RTVSPropertyOp39
 70
     1
102
RTVSPropertyOp40
 70
     1
102
RTVSPropertyOp41
 70
     1
102
RTVSPropertyOp42
 70
     1
102
RTVSPropertyOp43
 70
     1
102
RTVSPropertyOp44
 70
     1
102
RTVSPropertyOp45
 70
     1
102
RTVSPropertyOp46
 70
     1
102
RTVSPropertyOp47
 70
     1
102
RTVSPropertyOp48
 70
     1
102
RTVSPropertyOp49
 70
     1
102
RTVSPropertyOp50
 70
     1
102
RTVSPropertyOp51
 70
     0
102
RTVSPropertyOp52
 70
     0
102
RTVSPropertyOp53
 70
     1
102
RTVSPropertyOp54
 70
     1
102
RTVSPropertyOp55
 70
     1
102
RTVSPropertyOp56
 70
     1
102
RTVSPropertyOp57
 70
     1
102
RTVSPost2010Prop28
280
     0
102
RTVSPost2010PropOp28
 70
     1
102
RTVSPost2010Prop29
280
     1
102
RTVSPost2010PropOp29
 70
     1
102
RTVSPost2010Prop30
280
     1
102
RTVSPost2010PropOp30
 70
     1
102
RTVSPost2010Prop31
280
     0
102
RTVSPost2010PropOp31
 70
     1
102
RTVSPost2010Prop32
280
     0
102
RTVSPost2010PropOp32
 70
     1
102
RTVSPost2010Prop33
280
     0
102
RTVSPost2010PropOp33
 70
     1
102
RTVSPost2010Prop34
280
     0
102
RTVSPost2010PropOp34
 70
     1
102
RTVSPost2010Prop35
280
     0
102
RTVSPost2010PropOp35
 70
     1
102
RTVSPost2010Prop36
280
     0
102
RTVSPost2010PropOp36
 70
     1
102
RTVSPost2010Prop37
 90
       50
102
RTVSPost2010PropOp37
 70
     1
102
RTVSPost2010Prop38
140
0.0
102
RTVSPost2010PropOp38
 70
     1
102
RTVSPost2010Prop39
140
1.0
102
RTVSPost2010PropOp39
 70
     1
102
RTVSPost2010Prop40
 90
        0
102
RTVSPost2010PropOp40
 70
     1
102
RTVSPost2010Prop41ColorIndex
 90
       18
102
RTVSPost2010Prop41ColorRGB
 90
        0
102
RTVSPost2010PropOp41
 70
     1
102
RTVSPost2010Prop42
 90
       50
102
RTVSPost2010PropOp42
 70
     1
102
RTVSPost2010Prop43
 90
        3
102
RTVSPost2010PropOp43
 70
     1
102
RTVSPost2010Prop44ColorIndex
 90
        5
102
RTVSPost2010Prop44ColorRGB
 90
      255
102
RTVSPost2010PropOp44
 70
     1
102
RTVSPost2010Prop45
280
     0
102
RTVSPost2010PropOp45
 70
     1
102
RTVSPost2010Prop46
 90
       50
102
RTVSPost2010PropOp46
 70
     1
102
RTVSPost2010Prop47
 90
       50
102
RTVSPost2010PropOp47
 70
     1
102
RTVSPost2010Prop48
 90
       50
102
RTVSPost2010PropOp48
 70
     1
102
RTVSPost2010Prop49
280
     0
102
RTVSPost2010PropOp49
 70
     1
102
RTVSPost2010Prop50
 90
       50
102
RTVSPost2010PropOp50
 70
     1
102
RTVSPost2010Prop51ColorIndex
 90
      256
102
RTVSPost2010Prop51ColorRGB
 90
-16777216
102
RTVSPost2010PropOp51
 70
     0
102
RTVSPost2010Prop52
140
1.0
102
RTVSPost2010PropOp52
 70
     0
102
RTVSPost2010Prop53
 90
        2
102
RTVSPost2010PropOp53
 70
     1
102
RTVSPost2010Prop54
  1
strokes_ogs.tif
102
RTVSPost2010PropOp54
 70
     1
102
RTVSPost2010Prop55
280
     0
102
RTVSPost2010PropOp55
 70
     1
102
RTVSPost2010Prop56
140
1.0
102
RTVSPost2010PropOp56
 70
     1
102
RTVSPost2010Prop57
140
1.0
102
RTVSPost2010PropOp57
 70
     1
  0
XRECORD
  5
493
102
{ACAD_REACTORS
330
492
102
}
330
492
100
AcDbXrecord
280
     1
102
RTVSPropertyOp0
 70
     1
102
RTVSPropertyOp1
 70
     1
102
RTVSPropertyOp2
 70
     1
102
RTVSPropertyOp3
 70
     1
102
RTVSPropertyOp4
 70
     1
102
RTVSPropertyOp5
 70
     1
102
RTVSPropertyOp6
 70
     1
102
RTVSPropertyOp7
 70
     1
102
RTVSPropertyOp8
 70
     1
102
RTVSPropertyOp9
 70
     1
102
RTVSPropertyOp10
 70
     1
102
RTVSPropertyOp11
 70
     1
102
RTVSPropertyOp12
 70
     1
102
RTVSPropertyOp13
 70
     1
102
RTVSPropertyOp14
 70
     1
102
RTVSPropertyOp15
 70
     1
102
RTVSPropertyOp16
 70
     1
102
RTVSPropertyOp17
 70
     1
102
RTVSPropertyOp18
 70
     1
102
RTVSPropertyOp19
 70
     1
102
RTVSPropertyOp20
 70
     1
102
RTVSPropertyOp21
 70
     1
102
RTVSPropertyOp22
 70
     1
102
RTVSPropertyOp23
 70
     1
102
RTVSPropertyOp24
 70
     1
102
RTVSPropertyOp25
 70
     1
102
RTVSPropertyOp26
 70
     1
102
RTVSPropertyOp27
 70
     1
102
RTVSPropertyOp28
 70
     1
102
RTVSPropertyOp29
 70
     1
102
RTVSPropertyOp30
 70
     1
102
RTVSPropertyOp31
 70
     1
102
RTVSPropertyOp32
 70
     1
102
RTVSPropertyOp33
 70
     1
102
RTVSPropertyOp34
 70
     1
102
RTVSPropertyOp35
 70
     1
102
RTVSPropertyOp36
 70
     1
102
RTVSPropertyOp37
 70
     1
102
RTVSPropertyOp38
 70
     1
102
RTVSPropertyOp39
 70
     1
102
RTVSPropertyOp40
 70
     1
102
RTVSPropertyOp41
 70
     1
102
RTVSPropertyOp42
 70
     1
102
RTVSPropertyOp43
 70
     1
102
RTVSPropertyOp44
 70
     1
102
RTVSPropertyOp45
 70
     1
102
RTVSPropertyOp46
 70
     1
102
RTVSPropertyOp47
 70
     1
102
RTVSPropertyOp48
 70
     1
102
RTVSPropertyOp49
 70
     1
102
RTVSPropertyOp50
 70
     1
102
RTVSPropertyOp51
 70
     0
102
RTVSPropertyOp52
 70
     0
102
RTVSPropertyOp53
 70
     1
102
RTVSPropertyOp54
 70
     1
102
RTVSPropertyOp55
 70
     1
102
RTVSPropertyOp56
 70
     1
102
RTVSPropertyOp57
 70
     1
102
RTVSPost2010Prop28
280
     0
102
RTVSPost2010PropOp28
 70
     1
102
RTVSPost2010Prop29
280
     1
102
RTVSPost2010PropOp29
 70
     1
102
RTVSPost2010Prop30
280
     1
102
RTVSPost2010PropOp30
 70
     1
102
RTVSPost2010Prop31
280
     0
102
RTVSPost2010PropOp31
 70
     1
102
RTVSPost2010Prop32
280
     0
102
RTVSPost2010PropOp32
 70
     1
102
RTVSPost2010Prop33
280
     0
102
RTVSPost2010PropOp33
 70
     1
102
RTVSPost2010Prop34
280
     0
102
RTVSPost2010PropOp34
 70
     1
102
RTVSPost2010Prop35
280
     0
102
RTVSPost2010PropOp35
 70
     1
102
RTVSPost2010Prop36
280
     0
102
RTVSPost2010PropOp36
 70
     1
102
RTVSPost2010Prop37
 90
       50
102
RTVSPost2010PropOp37
 70
     1
102
RTVSPost2010Prop38
140
0.0
102
RTVSPost2010PropOp38
 70
     1
102
RTVSPost2010Prop39
140
1.0
102
RTVSPost2010PropOp39
 70
     1
102
RTVSPost2010Prop40
 90
        0
102
RTVSPost2010PropOp40
 70
     1
102
RTVSPost2010Prop41ColorIndex
 90
       18
102
RTVSPost2010Prop41ColorRGB
 90
        0
102
RTVSPost2010PropOp41
 70
     1
102
RTVSPost2010Prop42
 90
       50
102
RTVSPost2010PropOp42
 70
     1
102
RTVSPost2010Prop43
 90
        3
102
RTVSPost2010PropOp43
 70
     1
102
RTVSPost2010Prop44ColorIndex
 90
        5
102
RTVSPost2010Prop44ColorRGB
 90
      255
102
RTVSPost2010PropOp44
 70
     1
102
RTVSPost2010Prop45
280
     0
102
RTVSPost2010PropOp45
 70
     1
102
RTVSPost2010Prop46
 90
       50
102
RTVSPost2010PropOp46
 70
     1
102
RTVSPost2010Prop47
 90
       50
102
RTVSPost2010PropOp47
 70
     1
102
RTVSPost2010Prop48
 90
       50
102
RTVSPost2010PropOp48
 70
     1
102
RTVSPost2010Prop49
280
     0
102
RTVSPost2010PropOp49
 70
     1
102
RTVSPost2010Prop50
 90
       50
102
RTVSPost2010PropOp50
 70
     1
102
RTVSPost2010Prop51ColorIndex
 90
      256
102
RTVSPost2010Prop51ColorRGB
 90
-16777216
102
RTVSPost2010PropOp51
 70
     0
102
RTVSPost2010Prop52
140
1.0
102
RTVSPost2010PropOp52
 70
     0
102
RTVSPost2010Prop53
 90
        2
102
RTVSPost2010PropOp53
 70
     1
102
RTVSPost2010Prop54
  1
strokes_ogs.tif
102
RTVSPost2010PropOp54
 70
     1
102
RTVSPost2010Prop55
280
     0
102
RTVSPost2010PropOp55
 70
     1
102
RTVSPost2010Prop56
140
1.0
102
RTVSPost2010PropOp56
 70
     1
102
RTVSPost2010Prop57
140
1.0
102
RTVSPost2010PropOp57
 70
     1
  0
XRECORD
  5
4A7
102
{ACAD_REACTORS
330
4A6
102
}
330
4A6
100
AcDbXrecord
280
     1
102
RTVSPropertyOp0
 70
     1
102
RTVSPropertyOp1
 70
     1
102
RTVSPropertyOp2
 70
     1
102
RTVSPropertyOp3
 70
     1
102
RTVSPropertyOp4
 70
     1
102
RTVSPropertyOp5
 70
     1
102
RTVSPropertyOp6
 70
     1
102
RTVSPropertyOp7
 70
     1
102
RTVSPropertyOp8
 70
     1
102
RTVSPropertyOp9
 70
     1
102
RTVSPropertyOp10
 70
     1
102
RTVSPropertyOp11
 70
     1
102
RTVSPropertyOp12
 70
     1
102
RTVSPropertyOp13
 70
     1
102
RTVSPropertyOp14
 70
     1
102
RTVSPropertyOp15
 70
     1
102
RTVSPropertyOp16
 70
     1
102
RTVSPropertyOp17
 70
     1
102
RTVSPropertyOp18
 70
     1
102
RTVSPropertyOp19
 70
     1
102
RTVSPropertyOp20
 70
     1
102
RTVSPropertyOp21
 70
     1
102
RTVSPropertyOp22
 70
     1
102
RTVSPropertyOp23
 70
     1
102
RTVSPropertyOp24
 70
     1
102
RTVSPropertyOp25
 70
     1
102
RTVSPropertyOp26
 70
     1
102
RTVSPropertyOp27
 70
     1
102
RTVSPropertyOp28
 70
     1
102
RTVSPropertyOp29
 70
     1
102
RTVSPropertyOp30
 70
     1
102
RTVSPropertyOp31
 70
     1
102
RTVSPropertyOp32
 70
     1
102
RTVSPropertyOp33
 70
     1
102
RTVSPropertyOp34
 70
     1
102
RTVSPropertyOp35
 70
     1
102
RTVSPropertyOp36
 70
     1
102
RTVSPropertyOp37
 70
     1
102
RTVSPropertyOp38
 70
     1
102
RTVSPropertyOp39
 70
     1
102
RTVSPropertyOp40
 70
     1
102
RTVSPropertyOp41
 70
     1
102
RTVSPropertyOp42
 70
     1
102
RTVSPropertyOp43
 70
     1
102
RTVSPropertyOp44
 70
     1
102
RTVSPropertyOp45
 70
     1
102
RTVSPropertyOp46
 70
     1
102
RTVSPropertyOp47
 70
     1
102
RTVSPropertyOp48
 70
     1
102
RTVSPropertyOp49
 70
     1
102
RTVSPropertyOp50
 70
     1
102
RTVSPropertyOp51
 70
     0
102
RTVSPropertyOp52
 70
     0
102
RTVSPropertyOp53
 70
     1
102
RTVSPropertyOp54
 70
     1
102
RTVSPropertyOp55
 70
     1
102
RTVSPropertyOp56
 70
     1
102
RTVSPropertyOp57
 70
     1
102
RTVSPost2010Prop28
280
     0
102
RTVSPost2010PropOp28
 70
     1
102
RTVSPost2010Prop29
280
     1
102
RTVSPost2010PropOp29
 70
     1
102
RTVSPost2010Prop30
280
     1
102
RTVSPost2010PropOp30
 70
     1
102
RTVSPost2010Prop31
280
     0
102
RTVSPost2010PropOp31
 70
     1
102
RTVSPost2010Prop32
280
     0
102
RTVSPost2010PropOp32
 70
     1
102
RTVSPost2010Prop33
280
     0
102
RTVSPost2010PropOp33
 70
     1
102
RTVSPost2010Prop34
280
     0
102
RTVSPost2010PropOp34
 70
     1
102
RTVSPost2010Prop35
280
     0
102
RTVSPost2010PropOp35
 70
     1
102
RTVSPost2010Prop36
280
     0
102
RTVSPost2010PropOp36
 70
     1
102
RTVSPost2010Prop37
 90
       50
102
RTVSPost2010PropOp37
 70
     1
102
RTVSPost2010Prop38
140
0.0
102
RTVSPost2010PropOp38
 70
     1
102
RTVSPost2010Prop39
140
1.0
102
RTVSPost2010PropOp39
 70
     1
102
RTVSPost2010Prop40
 90
        0
102
RTVSPost2010PropOp40
 70
     1
102
RTVSPost2010Prop41ColorIndex
 90
       18
102
RTVSPost2010Prop41ColorRGB
 90
        0
102
RTVSPost2010PropOp41
 70
     1
102
RTVSPost2010Prop42
 90
       50
102
RTVSPost2010PropOp42
 70
     1
102
RTVSPost2010Prop43
 90
        3
102
RTVSPost2010PropOp43
 70
     1
102
RTVSPost2010Prop44ColorIndex
 90
        5
102
RTVSPost2010Prop44ColorRGB
 90
      255
102
RTVSPost2010PropOp44
 70
     1
102
RTVSPost2010Prop45
280
     0
102
RTVSPost2010PropOp45
 70
     1
102
RTVSPost2010Prop46
 90
       50
102
RTVSPost2010PropOp46
 70
     1
102
RTVSPost2010Prop47
 90
       50
102
RTVSPost2010PropOp47
 70
     1
102
RTVSPost2010Prop48
 90
       50
102
RTVSPost2010PropOp48
 70
     1
102
RTVSPost2010Prop49
280
     0
102
RTVSPost2010PropOp49
 70
     1
102
RTVSPost2010Prop50
 90
       50
102
RTVSPost2010PropOp50
 70
     1
102
RTVSPost2010Prop51ColorIndex
 90
      256
102
RTVSPost2010Prop51ColorRGB
 90
-16777216
102
RTVSPost2010PropOp51
 70
     0
102
RTVSPost2010Prop52
140
1.0
102
RTVSPost2010PropOp52
 70
     0
102
RTVSPost2010Prop53
 90
        2
102
RTVSPost2010PropOp53
 70
     1
102
RTVSPost2010Prop54
  1
strokes_ogs.tif
102
RTVSPost2010PropOp54
 70
     1
102
RTVSPost2010Prop55
280
     0
102
RTVSPost2010PropOp55
 70
     1
102
RTVSPost2010Prop56
140
1.0
102
RTVSPost2010PropOp56
 70
     1
102
RTVSPost2010Prop57
140
1.0
102
RTVSPost2010PropOp57
 70
     1
  0
XRECORD
  5
49D
102
{ACAD_REACTORS
330
49C
102
}
330
49C
100
AcDbXrecord
280
     1
102
RTVSPropertyOp0
 70
     1
102
RTVSPropertyOp1
 70
     1
102
RTVSPropertyOp2
 70
     1
102
RTVSPropertyOp3
 70
     1
102
RTVSPropertyOp4
 70
     1
102
RTVSPropertyOp5
 70
     1
102
RTVSPropertyOp6
 70
     1
102
RTVSPropertyOp7
 70
     1
102
RTVSPropertyOp8
 70
     1
102
RTVSPropertyOp9
 70
     1
102
RTVSPropertyOp10
 70
     1
102
RTVSPropertyOp11
 70
     1
102
RTVSPropertyOp12
 70
     1
102
RTVSPropertyOp13
 70
     1
102
RTVSPropertyOp14
 70
     1
102
RTVSPropertyOp15
 70
     1
102
RTVSPropertyOp16
 70
     1
102
RTVSPropertyOp17
 70
     1
102
RTVSPropertyOp18
 70
     1
102
RTVSPropertyOp19
 70
     1
102
RTVSPropertyOp20
 70
     1
102
RTVSPropertyOp21
 70
     1
102
RTVSPropertyOp22
 70
     1
102
RTVSPropertyOp23
 70
     1
102
RTVSPropertyOp24
 70
     1
102
RTVSPropertyOp25
 70
     1
102
RTVSPropertyOp26
 70
     1
102
RTVSPropertyOp27
 70
     1
102
RTVSPropertyOp28
 70
     1
102
RTVSPropertyOp29
 70
     1
102
RTVSPropertyOp30
 70
     1
102
RTVSPropertyOp31
 70
     1
102
RTVSPropertyOp32
 70
     1
102
RTVSPropertyOp33
 70
     1
102
RTVSPropertyOp34
 70
     1
102
RTVSPropertyOp35
 70
     1
102
RTVSPropertyOp36
 70
     1
102
RTVSPropertyOp37
 70
     1
102
RTVSPropertyOp38
 70
     1
102
RTVSPropertyOp39
 70
     1
102
RTVSPropertyOp40
 70
     1
102
RTVSPropertyOp41
 70
     1
102
RTVSPropertyOp42
 70
     1
102
RTVSPropertyOp43
 70
     1
102
RTVSPropertyOp44
 70
     1
102
RTVSPropertyOp45
 70
     1
102
RTVSPropertyOp46
 70
     1
102
RTVSPropertyOp47
 70
     1
102
RTVSPropertyOp48
 70
     1
102
RTVSPropertyOp49
 70
     1
102
RTVSPropertyOp50
 70
     1
102
RTVSPropertyOp51
 70
     0
102
RTVSPropertyOp52
 70
     0
102
RTVSPropertyOp53
 70
     1
102
RTVSPropertyOp54
 70
     1
102
RTVSPropertyOp55
 70
     1
102
RTVSPropertyOp56
 70
     1
102
RTVSPropertyOp57
 70
     1
102
RTVSPost2010Prop28
280
     0
102
RTVSPost2010PropOp28
 70
     1
102
RTVSPost2010Prop29
280
     1
102
RTVSPost2010PropOp29
 70
     1
102
RTVSPost2010Prop30
280
     1
102
RTVSPost2010PropOp30
 70
     1
102
RTVSPost2010Prop31
280
     0
102
RTVSPost2010PropOp31
 70
     1
102
RTVSPost2010Prop32
280
     0
102
RTVSPost2010PropOp32
 70
     1
102
RTVSPost2010Prop33
280
     0
102
RTVSPost2010PropOp33
 70
     1
102
RTVSPost2010Prop34
280
     0
102
RTVSPost2010PropOp34
 70
     1
102
RTVSPost2010Prop35
280
     0
102
RTVSPost2010PropOp35
 70
     1
102
RTVSPost2010Prop36
280
     0
102
RTVSPost2010PropOp36
 70
     1
102
RTVSPost2010Prop37
 90
       50
102
RTVSPost2010PropOp37
 70
     1
102
RTVSPost2010Prop38
140
0.0
102
RTVSPost2010PropOp38
 70
     1
102
RTVSPost2010Prop39
140
1.0
102
RTVSPost2010PropOp39
 70
     1
102
RTVSPost2010Prop40
 90
        0
102
RTVSPost2010PropOp40
 70
     1
102
RTVSPost2010Prop41ColorIndex
 90
       18
102
RTVSPost2010Prop41ColorRGB
 90
        0
102
RTVSPost2010PropOp41
 70
     1
102
RTVSPost2010Prop42
 90
       50
102
RTVSPost2010PropOp42
 70
     1
102
RTVSPost2010Prop43
 90
        3
102
RTVSPost2010PropOp43
 70
     1
102
RTVSPost2010Prop44ColorIndex
 90
        5
102
RTVSPost2010Prop44ColorRGB
 90
      255
102
RTVSPost2010PropOp44
 70
     1
102
RTVSPost2010Prop45
280
     0
102
RTVSPost2010PropOp45
 70
     1
102
RTVSPost2010Prop46
 90
       50
102
RTVSPost2010PropOp46
 70
     1
102
RTVSPost2010Prop47
 90
       50
102
RTVSPost2010PropOp47
 70
     1
102
RTVSPost2010Prop48
 90
       50
102
RTVSPost2010PropOp48
 70
     1
102
RTVSPost2010Prop49
280
     0
102
RTVSPost2010PropOp49
 70
     1
102
RTVSPost2010Prop50
 90
       50
102
RTVSPost2010PropOp50
 70
     1
102
RTVSPost2010Prop51ColorIndex
 90
      256
102
RTVSPost2010Prop51ColorRGB
 90
-16777216
102
RTVSPost2010PropOp51
 70
     0
102
RTVSPost2010Prop52
140
1.0
102
RTVSPost2010PropOp52
 70
     0
102
RTVSPost2010Prop53
 90
        2
102
RTVSPost2010PropOp53
 70
     1
102
RTVSPost2010Prop54
  1
strokes_ogs.tif
102
RTVSPost2010PropOp54
 70
     1
102
RTVSPost2010Prop55
280
     0
102
RTVSPost2010PropOp55
 70
     1
102
RTVSPost2010Prop56
140
1.0
102
RTVSPost2010PropOp56
 70
     1
102
RTVSPost2010Prop57
140
1.0
102
RTVSPost2010PropOp57
 70
     1
  0
XRECORD
  5
4A5
102
{ACAD_REACTORS
330
4A4
102
}
330
4A4
100
AcDbXrecord
280
     1
102
RTVSPropertyOp0
 70
     1
102
RTVSPropertyOp1
 70
     1
102
RTVSPropertyOp2
 70
     1
102
RTVSPropertyOp3
 70
     1
102
RTVSPropertyOp4
 70
     1
102
RTVSPropertyOp5
 70
     1
102
RTVSPropertyOp6
 70
     1
102
RTVSPropertyOp7
 70
     1
102
RTVSPropertyOp8
 70
     1
102
RTVSPropertyOp9
 70
     1
102
RTVSPropertyOp10
 70
     1
102
RTVSPropertyOp11
 70
     1
102
RTVSPropertyOp12
 70
     1
102
RTVSPropertyOp13
 70
     1
102
RTVSPropertyOp14
 70
     1
102
RTVSPropertyOp15
 70
     1
102
RTVSPropertyOp16
 70
     1
102
RTVSPropertyOp17
 70
     1
102
RTVSPropertyOp18
 70
     1
102
RTVSPropertyOp19
 70
     1
102
RTVSPropertyOp20
 70
     1
102
RTVSPropertyOp21
 70
     1
102
RTVSPropertyOp22
 70
     1
102
RTVSPropertyOp23
 70
     1
102
RTVSPropertyOp24
 70
     1
102
RTVSPropertyOp25
 70
     1
102
RTVSPropertyOp26
 70
     1
102
RTVSPropertyOp27
 70
     1
102
RTVSPropertyOp28
 70
     1
102
RTVSPropertyOp29
 70
     1
102
RTVSPropertyOp30
 70
     1
102
RTVSPropertyOp31
 70
     1
102
RTVSPropertyOp32
 70
     1
102
RTVSPropertyOp33
 70
     1
102
RTVSPropertyOp34
 70
     1
102
RTVSPropertyOp35
 70
     1
102
RTVSPropertyOp36
 70
     1
102
RTVSPropertyOp37
 70
     1
102
RTVSPropertyOp38
 70
     1
102
RTVSPropertyOp39
 70
     1
102
RTVSPropertyOp40
 70
     1
102
RTVSPropertyOp41
 70
     1
102
RTVSPropertyOp42
 70
     1
102
RTVSPropertyOp43
 70
     1
102
RTVSPropertyOp44
 70
     1
102
RTVSPropertyOp45
 70
     1
102
RTVSPropertyOp46
 70
     1
102
RTVSPropertyOp47
 70
     1
102
RTVSPropertyOp48
 70
     1
102
RTVSPropertyOp49
 70
     1
102
RTVSPropertyOp50
 70
     1
102
RTVSPropertyOp51
 70
     0
102
RTVSPropertyOp52
 70
     0
102
RTVSPropertyOp53
 70
     1
102
RTVSPropertyOp54
 70
     1
102
RTVSPropertyOp55
 70
     1
102
RTVSPropertyOp56
 70
     1
102
RTVSPropertyOp57
 70
     1
102
RTVSPost2010Prop28
280
     0
102
RTVSPost2010PropOp28
 70
     1
102
RTVSPost2010Prop29
280
     1
102
RTVSPost2010PropOp29
 70
     1
102
RTVSPost2010Prop30
280
     1
102
RTVSPost2010PropOp30
 70
     1
102
RTVSPost2010Prop31
280
     0
102
RTVSPost2010PropOp31
 70
     1
102
RTVSPost2010Prop32
280
     0
102
RTVSPost2010PropOp32
 70
     1
102
RTVSPost2010Prop33
280
     0
102
RTVSPost2010PropOp33
 70
     1
102
RTVSPost2010Prop34
280
     0
102
RTVSPost2010PropOp34
 70
     1
102
RTVSPost2010Prop35
280
     0
102
RTVSPost2010PropOp35
 70
     1
102
RTVSPost2010Prop36
280
     0
102
RTVSPost2010PropOp36
 70
     1
102
RTVSPost2010Prop37
 90
       50
102
RTVSPost2010PropOp37
 70
     1
102
RTVSPost2010Prop38
140
0.0
102
RTVSPost2010PropOp38
 70
     1
102
RTVSPost2010Prop39
140
1.0
102
RTVSPost2010PropOp39
 70
     1
102
RTVSPost2010Prop40
 90
        0
102
RTVSPost2010PropOp40
 70
     1
102
RTVSPost2010Prop41ColorIndex
 90
       18
102
RTVSPost2010Prop41ColorRGB
 90
        0
102
RTVSPost2010PropOp41
 70
     1
102
RTVSPost2010Prop42
 90
       50
102
RTVSPost2010PropOp42
 70
     1
102
RTVSPost2010Prop43
 90
        3
102
RTVSPost2010PropOp43
 70
     1
102
RTVSPost2010Prop44ColorIndex
 90
        5
102
RTVSPost2010Prop44ColorRGB
 90
      255
102
RTVSPost2010PropOp44
 70
     1
102
RTVSPost2010Prop45
280
     0
102
RTVSPost2010PropOp45
 70
     1
102
RTVSPost2010Prop46
 90
       50
102
RTVSPost2010PropOp46
 70
     1
102
RTVSPost2010Prop47
 90
       50
102
RTVSPost2010PropOp47
 70
     1
102
RTVSPost2010Prop48
 90
       50
102
RTVSPost2010PropOp48
 70
     1
102
RTVSPost2010Prop49
280
     0
102
RTVSPost2010PropOp49
 70
     1
102
RTVSPost2010Prop50
 90
       50
102
RTVSPost2010PropOp50
 70
     1
102
RTVSPost2010Prop51ColorIndex
 90
      256
102
RTVSPost2010Prop51ColorRGB
 90
-16777216
102
RTVSPost2010PropOp51
 70
     0
102
RTVSPost2010Prop52
140
1.0
102
RTVSPost2010PropOp52
 70
     0
102
RTVSPost2010Prop53
 90
        2
102
RTVSPost2010PropOp53
 70
     1
102
RTVSPost2010Prop54
  1
strokes_ogs.tif
102
RTVSPost2010PropOp54
 70
     1
102
RTVSPost2010Prop55
280
     0
102
RTVSPost2010PropOp55
 70
     1
102
RTVSPost2010Prop56
140
1.0
102
RTVSPost2010PropOp56
 70
     1
102
RTVSPost2010Prop57
140
1.0
102
RTVSPost2010PropOp57
 70
     1
  0
ENDSEC
  0
EOF
