  0
SECTION
  2
HEADER
  9
$ACADVER
  1
AC1018
  9
$ACADMAINTVER
 70
     0
  9
$DWGCODEPAGE
  3
ANSI_936
  9
$INSBASE
 10
0.0
 20
0.0
 30
0.0
  9
$EXTMIN
 10
0.0000000007164136
 20
1190.129449943328
 30
0.0
  9
$EXTMAX
 10
672.3555343699355
 20
1964.718872294492
 30
0.0
  9
$LIMMIN
 10
0.0
 20
0.0
  9
$LIMMAX
 10
12.0
 20
9.0
  9
$ORTHOMODE
 70
     0
  9
$REGENMODE
 70
     1
  9
$FILLMODE
 70
     1
  9
$QTEXTMODE
 70
     0
  9
$MIRRTEXT
 70
     1
  9
$LTSCALE
 40
1.0
  9
$ATTMODE
 70
     1
  9
$TEXTSIZE
 40
0.2
  9
$TRACEWID
 40
0.05
  9
$TEXTSTYLE
  7
Standard
  9
$CLAYER
  8
0
  9
$CELTYPE
  6
ByLayer
  9
$CECOLOR
 62
   256
  9
$CELTSCALE
 40
1.0
  9
$DISPSILH
 70
     0
  9
$DIMSCALE
 40
1.0
  9
$DIMASZ
 40
0.18
  9
$DIMEXO
 40
0.0625
  9
$DIMDLI
 40
0.38
  9
$DIMRND
 40
0.0
  9
$DIMDLE
 40
0.0
  9
$DIMEXE
 40
0.18
  9
$DIMTP
 40
0.0
  9
$DIMTM
 40
0.0
  9
$DIMTXT
 40
0.18
  9
$DIMCEN
 40
0.09
  9
$DIMTSZ
 40
0.0
  9
$DIMTOL
 70
     0
  9
$DIMLIM
 70
     0
  9
$DIMTIH
 70
     1
  9
$DIMTOH
 70
     1
  9
$DIMSE1
 70
     0
  9
$DIMSE2
 70
     0
  9
$DIMTAD
 70
     0
  9
$DIMZIN
 70
     0
  9
$DIMBLK
  1

  9
$DIMASO
 70
     1
  9
$DIMSHO
 70
     1
  9
$DIMPOST
  1

  9
$DIMAPOST
  1

  9
$DIMALT
 70
     0
  9
$DIMALTD
 70
     2
  9
$DIMALTF
 40
25.4
  9
$DIMLFAC
 40
1.0
  9
$DIMTOFL
 70
     0
  9
$DIMTVP
 40
0.0
  9
$DIMTIX
 70
     0
  9
$DIMSOXD
 70
     0
  9
$DIMSAH
 70
     0
  9
$DIMBLK1
  1

  9
$DIMBLK2
  1

  9
$DIMSTYLE
  2
Standard
  9
$DIMCLRD
 70
     0
  9
$DIMCLRE
 70
     0
  9
$DIMCLRT
 70
     0
  9
$DIMTFAC
 40
1.0
  9
$DIMGAP
 40
0.09
  9
$DIMJUST
 70
     0
  9
$DIMSD1
 70
     0
  9
$DIMSD2
 70
     0
  9
$DIMTOLJ
 70
     1
  9
$DIMTZIN
 70
     0
  9
$DIMALTZ
 70
     0
  9
$DIMALTTZ
 70
     0
  9
$DIMUPT
 70
     0
  9
$DIMDEC
 70
     4
  9
$DIMTDEC
 70
     4
  9
$DIMALTU
 70
     2
  9
$DIMALTTD
 70
     2
  9
$DIMTXSTY
  7
Standard
  9
$DIMAUNIT
 70
     0
  9
$DIMADEC
 70
     0
  9
$DIMALTRND
 40
0.0
  9
$DIMAZIN
 70
     0
  9
$DIMDSEP
 70
    46
  9
$DIMATFIT
 70
     3
  9
$DIMFRAC
 70
     0
  9
$DIMLDRBLK
  1

  9
$DIMLUNIT
 70
     2
  9
$DIMLWD
 70
    -2
  9
$DIMLWE
 70
    -2
  9
$DIMTMOVE
 70
     2
  9
$LUNITS
 70
     2
  9
$LUPREC
 70
     2
  9
$SKETCHINC
 40
0.1
  9
$FILLETRAD
 40
0.5
  9
$AUNITS
 70
     0
  9
$AUPREC
 70
     0
  9
$MENU
  1
.
  9
$ELEVATION
 40
0.0
  9
$PELEVATION
 40
0.0
  9
$THICKNESS
 40
0.0
  9
$LIMCHECK
 70
     0
  9
$CHAMFERA
 40
0.5
  9
$CHAMFERB
 40
0.5
  9
$CHAMFERC
 40
1.0
  9
$CHAMFERD
 40
0.0
  9
$SKPOLY
 70
     0
  9
$TDCREATE
 40
2456679.026225914
  9
$TDUCREATE
 40
2456678.692892581
  9
$TDUPDATE
 40
2456679.026239919
  9
$TDUUPDATE
 40
2456678.692906586
  9
$TDINDWG
 40
0.0000000116
  9
$TDUSRTIMER
 40
0.0000000116
  9
$USRTIMER
 70
     1
  9
$ANGBASE
 50
0.0
  9
$ANGDIR
 70
     0
  9
$PDMODE
 70
     0
  9
$PDSIZE
 40
0.0
  9
$PLINEWID
 40
0.0
  9
$SPLFRAME
 70
     0
  9
$SPLINETYPE
 70
     6
  9
$SPLINESEGS
 70
     8
  9
$HANDSEED
  5
33B
  9
$SURFTAB1
 70
     6
  9
$SURFTAB2
 70
     6
  9
$SURFTYPE
 70
     6
  9
$SURFU
 70
     6
  9
$SURFV
 70
     6
  9
$UCSBASE
  2

  9
$UCSNAME
  2

  9
$UCSORG
 10
0.0
 20
0.0
 30
0.0
  9
$UCSXDIR
 10
1.0
 20
0.0
 30
0.0
  9
$UCSYDIR
 10
0.0
 20
1.0
 30
0.0
  9
$UCSORTHOREF
  2

  9
$UCSORTHOVIEW
 70
     0
  9
$UCSORGTOP
 10
0.0
 20
0.0
 30
0.0
  9
$UCSORGBOTTOM
 10
0.0
 20
0.0
 30
0.0
  9
$UCSORGLEFT
 10
0.0
 20
0.0
 30
0.0
  9
$UCSORGRIGHT
 10
0.0
 20
0.0
 30
0.0
  9
$UCSORGFRONT
 10
0.0
 20
0.0
 30
0.0
  9
$UCSORGBACK
 10
0.0
 20
0.0
 30
0.0
  9
$PUCSBASE
  2

  9
$PUCSNAME
  2

  9
$PUCSORG
 10
0.0
 20
0.0
 30
0.0
  9
$PUCSXDIR
 10
1.0
 20
0.0
 30
0.0
  9
$PUCSYDIR
 10
0.0
 20
1.0
 30
0.0
  9
$PUCSORTHOREF
  2

  9
$PUCSORTHOVIEW
 70
     0
  9
$PUCSORGTOP
 10
0.0
 20
0.0
 30
0.0
  9
$PUCSORGBOTTOM
 10
0.0
 20
0.0
 30
0.0
  9
$PUCSORGLEFT
 10
0.0
 20
0.0
 30
0.0
  9
$PUCSORGRIGHT
 10
0.0
 20
0.0
 30
0.0
  9
$PUCSORGFRONT
 10
0.0
 20
0.0
 30
0.0
  9
$PUCSORGBACK
 10
0.0
 20
0.0
 30
0.0
  9
$USERI1
 70
     0
  9
$USERI2
 70
     0
  9
$USERI3
 70
     0
  9
$USERI4
 70
     0
  9
$USERI5
 70
     0
  9
$USERR1
 40
0.0
  9
$USERR2
 40
0.0
  9
$USERR3
 40
0.0
  9
$USERR4
 40
0.0
  9
$USERR5
 40
0.0
  9
$WORLDVIEW
 70
     1
  9
$SHADEDGE
 70
     3
  9
$SHADEDIF
 70
    70
  9
$TILEMODE
 70
     1
  9
$MAXACTVP
 70
    64
  9
$PINSBASE
 10
0.0
 20
0.0
 30
0.0
  9
$PLIMCHECK
 70
     0
  9
$PEXTMIN
 10
1.000000000000000E+20
 20
1.000000000000000E+20
 30
1.000000000000000E+20
  9
$PEXTMAX
 10
-1.000000000000000E+20
 20
-1.000000000000000E+20
 30
-1.000000000000000E+20
  9
$PLIMMIN
 10
0.0
 20
0.0
  9
$PLIMMAX
 10
12.0
 20
9.0
  9
$UNITMODE
 70
     0
  9
$VISRETAIN
 70
     1
  9
$PLINEGEN
 70
     0
  9
$PSLTSCALE
 70
     1
  9
$TREEDEPTH
 70
  3020
  9
$CMLSTYLE
  2
Standard
  9
$CMLJUST
 70
     0
  9
$CMLSCALE
 40
1.0
  9
$PROXYGRAPHICS
 70
     1
  9
$MEASUREMENT
 70
     0
  9
$CELWEIGHT
370
    -1
  9
$ENDCAPS
280
     0
  9
$JOINSTYLE
280
     0
  9
$LWDISPLAY
290
     0
  9
$INSUNITS
 70
     4
  9
$HYPERLINKBASE
  1

  9
$STYLESHEET
  1

  9
$XEDIT
290
     1
  9
$CEPSNTYPE
380
     0
  9
$PSTYLEMODE
290
     1
  9
$FINGERPRINTGUID
  2
{11A4D447-01FD-4852-A8F3-EFE6B7A481F9}
  9
$VERSIONGUID
  2
{FAEB1C32-E019-11D5-929B-00C0DF256EC4}
  9
$EXTNAMES
290
     1
  9
$PSVPSCALE
 40
0.0
  9
$OLESTARTUP
290
     0
  9
$SORTENTS
280
   127
  9
$INDEXCTL
280
     0
  9
$HIDETEXT
280
     1
  9
$XCLIPFRAME
290
     0
  9
$HALOGAP
280
     0
  9
$OBSCOLOR
 70
   257
  9
$OBSLTYPE
280
     0
  9
$INTERSECTIONDISPLAY
280
     0
  9
$INTERSECTIONCOLOR
 70
   257
  9
$DIMASSOC
280
     2
  9
$PROJECTNAME
  1

  0
ENDSEC
  0
SECTION
  2
CLASSES
  0
CLASS
  1
ACDBDICTIONARYWDFLT
  2
AcDbDictionaryWithDefault
  3
ObjectDBX Classes
 90
        0
 91
        4
280
     0
281
     0
  0
CLASS
  1
VISUALSTYLE
  2
AcDbVisualStyle
  3
ObjectDBX Classes
 90
     4095
 91
        4
280
     0
281
     0
  0
CLASS
  1
MATERIAL
  2
AcDbMaterial
  3
ObjectDBX Classes
 90
     1153
 91
        4
280
     0
281
     0
  0
CLASS
  1
SCALE
  2
AcDbScale
  3
ObjectDBX Classes
 90
     1153
 91
        4
280
     0
281
     0
  0
CLASS
  1
SUN
  2
AcDbSun
  3
SCENEOE
 90
     1153
 91
        4
280
     0
281
     0
  0
CLASS
  1
DICTIONARYVAR
  2
AcDbDictionaryVar
  3
ObjectDBX Classes
 90
        0
 91
        4
280
     0
281
     0
  0
ENDSEC
  0
SECTION
  2
TABLES
  0
TABLE
  2
VPORT
  5
8
330
0
100
AcDbSymbolTable
 70
     1
  0
VPORT
  5
29
330
8
100
AcDbSymbolTableRecord
100
AcDbViewportTableRecord
  2
*Active
 70
     0
 10
0.0
 20
0.0
 11
1.0
 21
1.0
 12
336.1906715859444
 22
1577.426044942549
 13
0.0
 23
0.0
 14
0.5
 24
0.5
 15
0.5
 25
0.5
 16
0.0
 26
0.0
 36
1.0
 17
0.0
 27
0.0
 37
0.0
 40
790.077367790528
 41
0.8679843253354054
 42
50.0
 43
0.0
 44
0.0
 50
0.0
 51
0.0
 71
     0
 72
   100
 73
     1
 74
     3
 75
     0
 76
     0
 77
     0
 78
     0
281
     0
 65
     1
110
0.0
120
0.0
130
0.0
111
1.0
121
0.0
131
0.0
112
0.0
122
1.0
132
0.0
 79
     0
146
0.0
  0
ENDTAB
  0
TABLE
  2
LTYPE
  5
5
330
0
100
AcDbSymbolTable
 70
     1
  0
LTYPE
  5
14
330
5
100
AcDbSymbolTableRecord
100
AcDbLinetypeTableRecord
  2
ByBlock
 70
     0
  3

 72
    65
 73
     0
 40
0.0
  0
LTYPE
  5
15
330
5
100
AcDbSymbolTableRecord
100
AcDbLinetypeTableRecord
  2
ByLayer
 70
     0
  3

 72
    65
 73
     0
 40
0.0
  0
LTYPE
  5
16
330
5
100
AcDbSymbolTableRecord
100
AcDbLinetypeTableRecord
  2
Continuous
 70
     0
  3
Solid line
 72
    65
 73
     0
 40
0.0
  0
ENDTAB
  0
TABLE
  2
LAYER
  5
2
330
0
100
AcDbSymbolTable
 70
     2
  0
LAYER
  5
10
330
2
100
AcDbSymbolTableRecord
100
AcDbLayerTableRecord
  2
0
 70
     0
 62
     7
  6
Continuous
370
    -3
390
F
  0
LAYER
  5
62
330
2
100
AcDbSymbolTableRecord
100
AcDbLayerTableRecord
  2
Make2D$visible$lines
 70
     0
 62
    18
420
        0
  6
Continuous
370
    -3
390
F
  0
ENDTAB
  0
TABLE
  2
STYLE
  5
3
330
0
100
AcDbSymbolTable
 70
     1
  0
STYLE
  5
11
330
3
100
AcDbSymbolTableRecord
100
AcDbTextStyleTableRecord
  2
Standard
 70
     0
 40
0.0
 41
1.0
 50
0.0
 71
     0
 42
0.2
  3
txt
  4

  0
ENDTAB
  0
TABLE
  2
VIEW
  5
6
330
0
100
AcDbSymbolTable
 70
     0
  0
ENDTAB
  0
TABLE
  2
UCS
  5
7
330
0
100
AcDbSymbolTable
 70
     0
  0
ENDTAB
  0
TABLE
  2
APPID
  5
9
330
0
100
AcDbSymbolTable
 70
     1
  0
APPID
  5
12
330
9
100
AcDbSymbolTableRecord
100
AcDbRegAppTableRecord
  2
ACAD
 70
     0
  0
ENDTAB
  0
TABLE
  2
DIMSTYLE
  5
A
330
0
100
AcDbSymbolTable
 70
     1
100
AcDbDimStyleTable
  0
DIMSTYLE
105
27
330
A
100
AcDbSymbolTableRecord
100
AcDbDimStyleTableRecord
  2
Standard
 70
     0
178
     0
340
11
  0
ENDTAB
  0
TABLE
  2
BLOCK_RECORD
  5
1
330
0
100
AcDbSymbolTable
 70
     1
  0
BLOCK_RECORD
  5
1F
330
1
100
AcDbSymbolTableRecord
100
AcDbBlockTableRecord
  2
*Model_Space
340
22
  0
BLOCK_RECORD
  5
1B
330
1
100
AcDbSymbolTableRecord
100
AcDbBlockTableRecord
  2
*Paper_Space
340
1E
  0
BLOCK_RECORD
  5
23
330
1
100
AcDbSymbolTableRecord
100
AcDbBlockTableRecord
  2
*Paper_Space0
340
26
  0
ENDTAB
  0
ENDSEC
  0
SECTION
  2
BLOCKS
  0
BLOCK
  5
20
330
1F
100
AcDbEntity
  8
0
100
AcDbBlockBegin
  2
*Model_Space
 70
     0
 10
0.0
 20
0.0
 30
0.0
  3
*Model_Space
  1
*Model_Space
  0
ENDBLK
  5
21
330
1F
100
AcDbEntity
  8
0
100
AcDbBlockEnd
  0
BLOCK
  5
1C
330
1B
100
AcDbEntity
 67
     1
  8
0
100
AcDbBlockBegin
  2
*Paper_Space
 70
     0
 10
0.0
 20
0.0
 30
0.0
  3
*Paper_Space
  1
*Paper_Space
  0
ENDBLK
  5
1D
330
1B
100
AcDbEntity
 67
     1
  8
0
100
AcDbBlockEnd
  0
BLOCK
  5
24
330
23
100
AcDbEntity
  8
0
100
AcDbBlockBegin
  2
*Paper_Space0
 70
     0
 10
0.0
 20
0.0
 30
0.0
  3
*Paper_Space0
  1
*Paper_Space0
  0
ENDBLK
  5
25
330
23
100
AcDbEntity
  8
0
100
AcDbBlockEnd
  0
ENDSEC
  0
SECTION
  2
ENTITIES
  0
LINE
  5
63
330
1F
100
AcDbEntity
  8
Make2D$visible$lines
100
AcDbLine
 10
508.7440545621596
 20
1545.410821902178
 30
0.0
 11
508.5984640019966
 21
1545.60348490578
 31
0.0
  0
LINE
  5
64
330
1F
100
AcDbEntity
  8
Make2D$visible$lines
100
AcDbLine
 10
508.3841486650628
 20
1545.860535635134
 30
0.0
 11
508.2898228664607
 21
1545.964996803789
 31
0.0
  0
LINE
  5
65
330
1F
100
AcDbEntity
  8
Make2D$visible$lines
100
AcDbLine
 10
508.1885015037374
 20
1546.071948705233
 30
0.0
 11
508.1233152366902
 21
1546.13806571031
 31
0.0
  0
LINE
  5
66
330
1F
100
AcDbEntity
  8
Make2D$visible$lines
100
AcDbLine
 10
507.982860379262
 20
1546.273866457917
 30
0.0
 11
507.948691297339
 21
1546.305599564387
 31
0.0
  0
LINE
  5
67
330
1F
100
AcDbEntity
  8
Make2D$visible$lines
100
AcDbLine
 10
385.8561368381127
 20
1554.289158934417
 30
0.0
 11
385.6787185730306
 21
1554.184083729514
 31
0.0
  0
LINE
  5
68
330
1F
100
AcDbEntity
  8
Make2D$visible$lines
100
AcDbLine
 10
596.7339773895047
 20
1959.718872290847
 30
0.0
 11
596.651390466779
 21
1959.718872290847
 31
0.0
  0
LINE
  5
69
330
1F
100
AcDbEntity
  8
Make2D$visible$lines
100
AcDbLine
 10
399.8773903065082
 20
1418.130340754295
 30
0.0
 11
332.8517369828814
 21
1418.130340754296
 31
0.0
  0
LINE
  5
6A
330
1F
100
AcDbEntity
  8
Make2D$visible$lines
100
AcDbLine
 10
366.3042342089371
 20
1322.130340754296
 30
0.0
 11
345.5555296843204
 21
1322.130340754296
 31
0.0
  0
SPLINE
  5
6B
330
1F
100
AcDbEntity
  8
Make2D$visible$lines
100
AcDbSpline
210
0.0
220
0.0
230
1.0
 70
    12
 71
     3
 72
    29
 73
    25
 74
     0
 42
0.000000001
 43
0.0000000001
 12
1.0
 22
0.0
 32
0.0
 13
1.0
 23
0.0
 33
0.0
 40
157.4461664751968
 40
157.4461664751968
 40
157.4461664751968
 40
157.4461664751968
 40
159.679903567398
 40
159.679903567398
 40
159.679903567398
 40
159.6854365349882
 40
159.6893710860354
 40
161.4814158407073
 40
163.2640832616257
 40
163.2640832616257
 40
163.2640832616257
 40
184.6726695460029
 40
184.6726695460029
 40
184.6726695460029
 40
206.1061561177206
 40
206.1061561177206
 40
206.1061561177206
 40
227.5388696053898
 40
227.5388696053898
 40
227.5388696053898
 40
248.9770035023832
 40
248.9770035023832
 40
248.9770035023832
 40
250.2337199701623
 40
250.2337199701623
 40
250.2337199701623
 40
250.2337199701623
 10
527.5912626505661
 20
1495.143565511861
 30
0.0
 41
1.0
 10
527.0402516840513
 20
1494.646140745094
 30
0.0
 41
1.0
 10
526.4922151248014
 20
1494.145501814237
 30
0.0
 41
1.0
 10
525.9472563561387
 20
1493.641660211065
 30
0.0
 41
1.0
 10
525.944489625165
 20
1493.639102417754
 30
0.0
 41
1.0
 10
525.9568690891051
 20
1493.650546984718
 30
0.0
 41
1.0
 10
525.517065248869
 20
1493.243976412609
 30
0.0
 41
1.0
 10
524.6440190858368
 20
1492.429074250117
 30
0.0
 41
1.0
 10
523.7815223088411
 20
1491.608205280979
 30
0.0
 41
1.0
 10
523.3529009918941
 20
1491.196278028839
 30
0.0
 41
1.0
 10
518.2013945866474
 20
1486.251631432575
 30
0.0
 41
0.9987790820092108
 10
513.3584389148665
 20
1481.004410399835
 30
0.0
 41
0.9987790820092106
 10
508.8417725316768
 20
1475.473834210303
 30
0.0
 41
1.0
 10
504.3232966164732
 20
1469.9336222147
 30
0.0
 41
0.9986941217606295
 10
500.1602691878127
 20
1464.121585034783
 30
0.0
 41
0.9986941217606291
 10
496.3689994664819
 20
1458.060492109194
 30
0.0
 41
1.0
 10
492.5817513447936
 20
1451.997406748429
 30
0.0
 41
0.9987455798731674
 10
489.1733969271035
 20
1445.713508866495
 30
0.0
 41
0.9987455798731669
 10
486.1567627385543
 20
1439.232446407325
 30
0.0
 41
1.0
 10
483.1425574784082
 20
1432.74899909541
 30
0.0
 41
0.9989327226835725
 10
480.4998949802189
 20
1426.105441515518
 30
0.0
 41
0.9989327226835726
 10
478.2372366052035
 20
1419.323045222566
 30
0.0
 41
1.0
 10
478.1043474992603
 20
1418.925817195442
 30
0.0
 41
1.0
 10
477.9727492815519
 20
1418.528248535425
 30
0.0
 41
1.0
 10
477.84243346671
 20
1418.130340754296
 30
0.0
 41
1.0
  0
LINE
  5
6C
330
1F
100
AcDbEntity
  8
Make2D$visible$lines
100
AcDbLine
 10
649.7374744644194
 20
1565.111547947393
 30
0.0
 11
649.4103019387699
 21
1564.811257608643
 31
0.0
  0
LINE
  5
6D
330
1F
100
AcDbEntity
  8
Make2D$visible$lines
100
AcDbLine
 10
649.1110389360516
 20
1564.544151635833
 30
0.0
 11
649.1109317885106
 21
1564.544057248913
 31
0.0
  0
LINE
  5
6E
330
1F
100
AcDbEntity
  8
Make2D$visible$lines
100
AcDbLine
 10
507.5902241660747
 20
1546.598226768001
 30
0.0
 11
507.7574746759036
 21
1546.460762955637
 31
0.0
  0
POLYLINE
  5
6F
330
1F
100
AcDbEntity
  8
Make2D$visible$lines
100
AcDb2dPolyline
 66
     1
 10
0.0
 20
0.0
 30
0.0
  0
VERTEX
  5
70
330
6F
100
AcDbEntity
  8
Make2D$visible$lines
100
AcDbVertex
100
AcDb2dVertex
 10
467.0003003059231
 20
1322.130340754296
 30
0.0
 42
0.0175256303090911
  0
VERTEX
  5
71
330
6F
100
AcDbEntity
  8
Make2D$visible$lines
100
AcDbVertex
100
AcDb2dVertex
 10
469.5600990801013
 20
1293.301129640102
 30
0.0
 42
0.0109245571082968
  0
VERTEX
  5
72
330
6F
100
AcDbEntity
  8
Make2D$visible$lines
100
AcDbVertex
100
AcDb2dVertex
 10
472.6115860618744
 20
1272.398193221317
 30
0.0
 42
0.0095620041393773
  0
VERTEX
  5
73
330
6F
100
AcDbEntity
  8
Make2D$visible$lines
100
AcDbVertex
100
AcDb2dVertex
 10
476.5142127764889
 20
1251.640542467156
 30
0.0
 42
0.0084320590989443
  0
VERTEX
  5
74
330
6F
100
AcDbEntity
  8
Make2D$visible$lines
100
AcDbVertex
100
AcDb2dVertex
 10
481.1486228458224
 20
1231.090137802182
 30
0.0
 42
0.0140541041257689
  0
VERTEX
  5
75
330
6F
100
AcDbEntity
  8
Make2D$visible$lines
100
AcDbVertex
100
AcDb2dVertex
 10
492.1958115903575
 20
1190.795562653649
 30
0.0
  0
VERTEX
  5
76
330
6F
100
AcDbEntity
  8
Make2D$visible$lines
100
AcDbVertex
100
AcDb2dVertex
 10
492.1945043132425
 20
1190.798375546
 30
0.0
  0
VERTEX
  5
77
330
6F
100
AcDbEntity
  8
Make2D$visible$lines
100
AcDbVertex
100
AcDb2dVertex
 10
492.1934160483751
 20
1190.800566663876
 30
0.0
  0
VERTEX
  5
78
330
6F
100
AcDbEntity
  8
Make2D$visible$lines
100
AcDbVertex
100
AcDb2dVertex
 10
492.192953967326
 20
1190.801428457731
 30
0.0
  0
VERTEX
  5
79
330
6F
100
AcDbEntity
  8
Make2D$visible$lines
100
AcDbVertex
100
AcDb2dVertex
 10
492.1927434259612
 20
1190.801800808447
 30
0.0
  0
VERTEX
  5
7A
330
6F
100
AcDbEntity
  8
Make2D$visible$lines
100
AcDbVertex
100
AcDb2dVertex
 10
492.192546545489
 20
1190.80213408838
 30
0.0
  0
VERTEX
  5
7B
330
6F
100
AcDbEntity
  8
Make2D$visible$lines
100
AcDbVertex
100
AcDb2dVertex
 10
492.192363321999
 20
1190.802428267545
 30
0.0
  0
VERTEX
  5
7C
330
6F
100
AcDbEntity
  8
Make2D$visible$lines
100
AcDbVertex
100
AcDb2dVertex
 10
492.1921937515807
 20
1190.80268331596
 30
0.0
  0
VERTEX
  5
7D
330
6F
100
AcDbEntity
  8
Make2D$visible$lines
100
AcDbVertex
100
AcDb2dVertex
 10
492.1921140850515
 20
1190.802796156767
 30
0.0
  0
VERTEX
  5
7E
330
6F
100
AcDbEntity
  8
Make2D$visible$lines
100
AcDbVertex
100
AcDb2dVertex
 10
492.1920378303238
 20
1190.802899203643
 30
0.0
  0
VERTEX
  5
7F
330
6F
100
AcDbEntity
  8
Make2D$visible$lines
100
AcDbVertex
100
AcDb2dVertex
 10
492.1919649869089
 20
1190.80299245284
 30
0.0
  0
VERTEX
  5
80
330
6F
100
AcDbEntity
  8
Make2D$visible$lines
100
AcDbVertex
100
AcDb2dVertex
 10
492.1918955543179
 20
1190.803075900611
 30
0.0
  0
VERTEX
  5
81
330
6F
100
AcDbEntity
  8
Make2D$visible$lines
100
AcDbVertex
100
AcDb2dVertex
 10
492.191829532062
 20
1190.803149543206
 30
0.0
  0
VERTEX
  5
82
330
6F
100
AcDbEntity
  8
Make2D$visible$lines
100
AcDbVertex
100
AcDb2dVertex
 10
492.1917669196524
 20
1190.80321337688
 30
0.0
  0
VERTEX
  5
83
330
6F
100
AcDbEntity
  8
Make2D$visible$lines
100
AcDbVertex
100
AcDb2dVertex
 10
492.1917077166004
 20
1190.803267397883
 30
0.0
  0
VERTEX
  5
84
330
6F
100
AcDbEntity
  8
Make2D$visible$lines
100
AcDbVertex
100
AcDb2dVertex
 10
492.1916519224171
 20
1190.803311602468
 30
0.0
  0
VERTEX
  5
85
330
6F
100
AcDbEntity
  8
Make2D$visible$lines
100
AcDbVertex
100
AcDb2dVertex
 10
492.1915995366137
 20
1190.803345986887
 30
0.0
  0
VERTEX
  5
86
330
6F
100
AcDbEntity
  8
Make2D$visible$lines
100
AcDbVertex
100
AcDb2dVertex
 10
492.1915505587015
 20
1190.803370547393
 30
0.0
  0
VERTEX
  5
87
330
6F
100
AcDbEntity
  8
Make2D$visible$lines
100
AcDbVertex
100
AcDb2dVertex
 10
492.1915049881917
 20
1190.803385280236
 30
0.0
  0
VERTEX
  5
88
330
6F
100
AcDbEntity
  8
Make2D$visible$lines
100
AcDbVertex
100
AcDb2dVertex
 10
492.1914628245953
 20
1190.803390181671
 30
0.0
  0
VERTEX
  5
89
330
6F
100
AcDbEntity
  8
Make2D$visible$lines
100
AcDbVertex
100
AcDb2dVertex
 10
492.1914240674237
 20
1190.803385247948
 30
0.0
  0
VERTEX
  5
8A
330
6F
100
AcDbEntity
  8
Make2D$visible$lines
100
AcDbVertex
100
AcDb2dVertex
 10
492.1913887161879
 20
1190.803370475319
 30
0.0
  0
VERTEX
  5
8B
330
6F
100
AcDbEntity
  8
Make2D$visible$lines
100
AcDbVertex
100
AcDb2dVertex
 10
492.1913567703994
 20
1190.803345860038
 30
0.0
  0
VERTEX
  5
8C
330
6F
100
AcDbEntity
  8
Make2D$visible$lines
100
AcDbVertex
100
AcDb2dVertex
 10
492.191328229569
 20
1190.803311398356
 30
0.0
  0
VERTEX
  5
8D
330
6F
100
AcDbEntity
  8
Make2D$visible$lines
100
AcDbVertex
100
AcDb2dVertex
 10
492.1913030932083
 20
1190.803267086525
 30
0.0
  0
VERTEX
  5
8E
330
6F
100
AcDbEntity
  8
Make2D$visible$lines
100
AcDbVertex
100
AcDb2dVertex
 10
492.1912813608283
 20
1190.803212920797
 30
0.0
  0
VERTEX
  5
8F
330
6F
100
AcDbEntity
  8
Make2D$visible$lines
100
AcDbVertex
100
AcDb2dVertex
 10
492.1912630319401
 20
1190.803148897425
 30
0.0
  0
VERTEX
  5
90
330
6F
100
AcDbEntity
  8
Make2D$visible$lines
100
AcDbVertex
100
AcDb2dVertex
 10
492.1912481060551
 20
1190.803075012661
 30
0.0
  0
VERTEX
  5
91
330
6F
100
AcDbEntity
  8
Make2D$visible$lines
100
AcDbVertex
100
AcDb2dVertex
 10
492.1912365826844
 20
1190.802991262757
 30
0.0
  0
VERTEX
  5
92
330
6F
100
AcDbEntity
  8
Make2D$visible$lines
100
AcDbVertex
100
AcDb2dVertex
 10
492.1912284613392
 20
1190.802897643964
 30
0.0
  0
VERTEX
  5
93
330
6F
100
AcDbEntity
  8
Make2D$visible$lines
100
AcDbVertex
100
AcDb2dVertex
 10
492.1912237415307
 20
1190.802794152536
 30
0.0
  0
VERTEX
  5
94
330
6F
100
AcDbEntity
  8
Make2D$visible$lines
100
AcDbVertex
100
AcDb2dVertex
 10
492.1912224227701
 20
1190.802680784724
 30
0.0
  0
VERTEX
  5
95
330
6F
100
AcDbEntity
  8
Make2D$visible$lines
100
AcDbVertex
100
AcDb2dVertex
 10
492.1912245045687
 20
1190.802557536781
 30
0.0
  0
VERTEX
  5
96
330
6F
100
AcDbEntity
  8
Make2D$visible$lines
100
AcDbVertex
100
AcDb2dVertex
 10
492.1912299864375
 20
1190.802424404958
 30
0.0
  0
VERTEX
  5
97
330
6F
100
AcDbEntity
  8
Make2D$visible$lines
100
AcDbVertex
100
AcDb2dVertex
 10
492.1912388678879
 20
1190.802281385508
 30
0.0
  0
VERTEX
  5
98
330
6F
100
AcDbEntity
  8
Make2D$visible$lines
100
AcDbVertex
100
AcDb2dVertex
 10
492.1912511484309
 20
1190.802128474683
 30
0.0
  0
VERTEX
  5
99
330
6F
100
AcDbEntity
  8
Make2D$visible$lines
100
AcDbVertex
100
AcDb2dVertex
 10
492.1912859048399
 20
1190.801792963916
 30
0.0
  0
VERTEX
  5
9A
330
6F
100
AcDbEntity
  8
Make2D$visible$lines
100
AcDbVertex
100
AcDb2dVertex
 10
492.1913342517541
 20
1190.801417842674
 30
0.0
  0
VERTEX
  5
9B
330
6F
100
AcDbEntity
  8
Make2D$visible$lines
100
AcDbVertex
100
AcDb2dVertex
 10
492.1914717014564
 20
1190.800548648837
 30
0.0
  0
VERTEX
  5
9C
330
6F
100
AcDbEntity
  8
Make2D$visible$lines
100
AcDbVertex
100
AcDb2dVertex
 10
492.1916634662545
 20
1190.799520653307
 30
0.0
  0
VERTEX
  5
9D
330
6F
100
AcDbEntity
  8
Make2D$visible$lines
100
AcDbVertex
100
AcDb2dVertex
 10
492.1919095148652
 20
1190.798333616224
 30
0.0
  0
VERTEX
  5
9E
330
6F
100
AcDbEntity
  8
Make2D$visible$lines
100
AcDbVertex
100
AcDb2dVertex
 10
492.1925643383911
 20
1190.795481457947
 30
0.0
  0
VERTEX
  5
9F
330
6F
100
AcDbEntity
  8
Make2D$visible$lines
100
AcDbVertex
100
AcDb2dVertex
 10
492.1945240147288
 20
1190.7878580888
 30
0.0
  0
VERTEX
  5
A0
330
6F
100
AcDbEntity
  8
Make2D$visible$lines
100
AcDbVertex
100
AcDb2dVertex
 10
492.201036477091
 20
1190.764881410974
 30
0.0
  0
VERTEX
  5
A1
330
6F
100
AcDbEntity
  8
Make2D$visible$lines
100
AcDbVertex
100
AcDb2dVertex
 10
492.3175279314769
 20
1190.386186740963
 30
0.0
  0
SEQEND
  5
A2
330
6F
100
AcDbEntity
  8
Make2D$visible$lines
  0
POLYLINE
  5
A3
330
1F
100
AcDbEntity
  8
Make2D$visible$lines
100
AcDb2dPolyline
 66
     1
 10
0.0
 20
0.0
 30
0.0
  0
VERTEX
  5
A4
330
A3
100
AcDbEntity
  8
Make2D$visible$lines
100
AcDbVertex
100
AcDb2dVertex
 10
492.1927798779458
 20
1190.701704971342
 30
0.0
  0
VERTEX
  5
A5
330
A3
100
AcDbEntity
  8
Make2D$visible$lines
100
AcDbVertex
100
AcDb2dVertex
 10
492.3792343728624
 20
1190.147939269401
 30
0.0
 42
0.0905858130930448
  0
VERTEX
  5
A6
330
A3
100
AcDbEntity
  8
Make2D$visible$lines
100
AcDbVertex
100
AcDb2dVertex
 10
492.3920523062605
 20
1190.150501187359
 30
0.0
  0
SEQEND
  5
A7
330
A3
100
AcDbEntity
  8
Make2D$visible$lines
  0
POLYLINE
  5
A8
330
1F
100
AcDbEntity
  8
Make2D$visible$lines
100
AcDb2dPolyline
 66
     1
 10
0.0
 20
0.0
 30
0.0
  0
VERTEX
  5
A9
330
A8
100
AcDbEntity
  8
Make2D$visible$lines
100
AcDbVertex
100
AcDb2dVertex
 10
492.3667916910301
 20
1190.138555617732
 30
0.0
  0
VERTEX
  5
AA
330
A8
100
AcDbEntity
  8
Make2D$visible$lines
100
AcDbVertex
100
AcDb2dVertex
 10
492.3731082670447
 20
1190.144005476407
 30
0.0
  0
VERTEX
  5
AB
330
A8
100
AcDbEntity
  8
Make2D$visible$lines
100
AcDbVertex
100
AcDb2dVertex
 10
492.3121405473707
 20
1190.324856426367
 30
0.0
  0
SEQEND
  5
AC
330
A8
100
AcDbEntity
  8
Make2D$visible$lines
  0
POLYLINE
  5
AD
330
1F
100
AcDbEntity
  8
Make2D$visible$lines
100
AcDb2dPolyline
 66
     1
 10
0.0
 20
0.0
 30
0.0
  0
VERTEX
  5
AE
330
AD
100
AcDbEntity
  8
Make2D$visible$lines
100
AcDbVertex
100
AcDb2dVertex
 10
649.3231859707961
 20
1564.732774955983
 30
0.0
 42
0.0214420583252586
  0
VERTEX
  5
AF
330
AD
100
AcDbEntity
  8
Make2D$visible$lines
100
AcDbVertex
100
AcDb2dVertex
 10
650.9974582324777
 20
1566.368245121268
 30
0.0
 42
0.0382155299690703
  0
VERTEX
  5
B0
330
AD
100
AcDbEntity
  8
Make2D$visible$lines
100
AcDbVertex
100
AcDb2dVertex
 10
653.7134065798173
 20
1569.751270807109
 30
0.0
 42
0.1247774601531932
  0
VERTEX
  5
B1
330
AD
100
AcDbEntity
  8
Make2D$visible$lines
100
AcDbVertex
100
AcDb2dVertex
 10
655.4149689107323
 20
1574.400134973866
 30
0.0
 42
0.1477636397167524
  0
VERTEX
  5
B2
330
AD
100
AcDbEntity
  8
Make2D$visible$lines
100
AcDbVertex
100
AcDb2dVertex
 10
654.3181201746343
 20
1580.065384391415
 30
0.0
 42
0.1477613050317539
  0
VERTEX
  5
B3
330
AD
100
AcDbEntity
  8
Make2D$visible$lines
100
AcDbVertex
100
AcDb2dVertex
 10
650.2579632743368
 20
1584.18282081142
 30
0.0
 42
0.0983066904478738
  0
VERTEX
  5
B4
330
AD
100
AcDbEntity
  8
Make2D$visible$lines
100
AcDbVertex
100
AcDb2dVertex
 10
646.5262925757274
 20
1585.349050597145
 30
0.0
  0
SEQEND
  5
B5
330
AD
100
AcDbEntity
  8
Make2D$visible$lines
  0
POLYLINE
  5
B6
330
1F
100
AcDbEntity
  8
Make2D$visible$lines
100
AcDb2dPolyline
 66
     1
 10
0.0
 20
0.0
 30
0.0
  0
VERTEX
  5
B7
330
B6
100
AcDbEntity
  8
Make2D$visible$lines
100
AcDbVertex
100
AcDb2dVertex
 10
600.819348757379
 20
1954.718872290847
 30
0.0
  0
VERTEX
  5
B8
330
B6
100
AcDbEntity
  8
Make2D$visible$lines
100
AcDbVertex
100
AcDb2dVertex
 10
600.819566092593
 20
1958.718872290847
 30
0.0
 42
0.4148671873455623
  0
VERTEX
  5
B9
330
B6
100
AcDbEntity
  8
Make2D$visible$lines
100
AcDbVertex
100
AcDb2dVertex
 10
599.8180655599343
 20
1959.718872290847
 30
0.0
  0
VERTEX
  5
BA
330
B6
100
AcDbEntity
  8
Make2D$visible$lines
100
AcDbVertex
100
AcDb2dVertex
 10
561.820631954824
 20
1959.718872290847
 30
0.0
 42
0.4148672249601593
  0
VERTEX
  5
BB
330
B6
100
AcDbEntity
  8
Make2D$visible$lines
100
AcDbVertex
100
AcDb2dVertex
 10
560.8191314221648
 20
1958.718872290847
 30
0.0
  0
VERTEX
  5
BC
330
B6
100
AcDbEntity
  8
Make2D$visible$lines
100
AcDbVertex
100
AcDb2dVertex
 10
560.819348757379
 20
1954.718872290847
 30
0.0
  0
SEQEND
  5
BD
330
B6
100
AcDbEntity
  8
Make2D$visible$lines
  0
POLYLINE
  5
BE
330
1F
100
AcDbEntity
  8
Make2D$visible$lines
100
AcDb2dPolyline
 66
     1
 10
0.0
 20
0.0
 30
0.0
  0
VERTEX
  5
BF
330
BE
100
AcDbEntity
  8
Make2D$visible$lines
100
AcDbVertex
100
AcDb2dVertex
 10
366.051404331096
 20
1220.078095609338
 30
0.0
 42
-0.175729393181157
  0
VERTEX
  5
C0
330
BE
100
AcDbEntity
  8
Make2D$visible$lines
100
AcDbVertex
100
AcDb2dVertex
 10
365.8192400897716
 20
1220.718872290847
 30
0.0
  0
VERTEX
  5
C1
330
BE
100
AcDbEntity
  8
Make2D$visible$lines
100
AcDbVertex
100
AcDb2dVertex
 10
365.8192400897715
 20
1224.718872290847
 30
0.0
 42
-0.4145740440253047
  0
VERTEX
  5
C2
330
BE
100
AcDbEntity
  8
Make2D$visible$lines
100
AcDbVertex
100
AcDb2dVertex
 10
368.8226309564456
 20
1227.718872290847
 30
0.0
  0
VERTEX
  5
C3
330
BE
100
AcDbEntity
  8
Make2D$visible$lines
100
AcDbVertex
100
AcDb2dVertex
 10
382.8160665583088
 20
1227.718872290847
 30
0.0
 42
-0.4145740470564999
  0
VERTEX
  5
C4
330
BE
100
AcDbEntity
  8
Make2D$visible$lines
100
AcDbVertex
100
AcDb2dVertex
 10
385.8194574249864
 20
1224.718872290847
 30
0.0
  0
VERTEX
  5
C5
330
BE
100
AcDbEntity
  8
Make2D$visible$lines
100
AcDbVertex
100
AcDb2dVertex
 10
385.8194574249864
 20
1220.718872290847
 30
0.0
 42
-0.1563665113650777
  0
VERTEX
  5
C6
330
BE
100
AcDbEntity
  8
Make2D$visible$lines
100
AcDbVertex
100
AcDb2dVertex
 10
385.6333789134724
 20
1220.137740265998
 30
0.0
  0
SEQEND
  5
C7
330
BE
100
AcDbEntity
  8
Make2D$visible$lines
  0
POLYLINE
  5
C8
330
1F
100
AcDbEntity
  8
Make2D$visible$lines
100
AcDb2dPolyline
 66
     1
 10
0.0
 20
0.0
 30
0.0
  0
VERTEX
  5
C9
330
C8
100
AcDbEntity
  8
Make2D$visible$lines
100
AcDbVertex
100
AcDb2dVertex
 10
667.2364883404939
 20
1923.711755452769
 30
0.0
 42
-0.411857852704478
  0
VERTEX
  5
CA
330
C8
100
AcDbEntity
  8
Make2D$visible$lines
100
AcDbVertex
100
AcDb2dVertex
 10
672.1196805656259
 20
1918.656710483268
 30
0.0
 42
-0.0065058956783315
  0
VERTEX
  5
CB
330
C8
100
AcDbEntity
  8
Make2D$visible$lines
100
AcDbVertex
100
AcDb2dVertex
 10
666.3340345955637
 20
1690.958216527983
 30
0.0
 42
-0.0012682575245399
  0
VERTEX
  5
CC
330
C8
100
AcDbEntity
  8
Make2D$visible$lines
100
AcDbVertex
100
AcDb2dVertex
 10
666.0976860781341
 20
1685.134594994255
 30
0.0
  0
VERTEX
  5
CD
330
C8
100
AcDbEntity
  8
Make2D$visible$lines
100
AcDbVertex
100
AcDb2dVertex
 10
665.8300480345736
 20
1679.336344960443
 30
0.0
  0
VERTEX
  5
CE
330
C8
100
AcDbEntity
  8
Make2D$visible$lines
100
AcDbVertex
100
AcDb2dVertex
 10
665.5295402213214
 20
1673.53970553478
 30
0.0
  0
VERTEX
  5
CF
330
C8
100
AcDbEntity
  8
Make2D$visible$lines
100
AcDbVertex
100
AcDb2dVertex
 10
665.2046160841388
 20
1667.866161170214
 30
0.0
  0
VERTEX
  5
D0
330
C8
100
AcDbEntity
  8
Make2D$visible$lines
100
AcDbVertex
100
AcDb2dVertex
 10
664.8460624550132
 20
1662.194342906807
 30
0.0
  0
VERTEX
  5
D1
330
C8
100
AcDbEntity
  8
Make2D$visible$lines
100
AcDbVertex
100
AcDb2dVertex
 10
664.4538937905216
 20
1656.524549700737
 30
0.0
  0
VERTEX
  5
D2
330
C8
100
AcDbEntity
  8
Make2D$visible$lines
100
AcDbVertex
100
AcDb2dVertex
 10
664.0281280902426
 20
1650.857080336856
 30
0.0
  0
VERTEX
  5
D3
330
C8
100
AcDbEntity
  8
Make2D$visible$lines
100
AcDbVertex
100
AcDb2dVertex
 10
663.5687868940613
 20
1645.192233376209
 30
0.0
  0
VERTEX
  5
D4
330
C8
100
AcDbEntity
  8
Make2D$visible$lines
100
AcDbVertex
100
AcDb2dVertex
 10
663.0758952785447
 20
1639.53030710361
 30
0.0
  0
VERTEX
  5
D5
330
C8
100
AcDbEntity
  8
Make2D$visible$lines
100
AcDbVertex
100
AcDb2dVertex
 10
662.5494818523833
 20
1633.871599475287
 30
0.0
  0
VERTEX
  5
D6
330
C8
100
AcDbEntity
  8
Make2D$visible$lines
100
AcDbVertex
100
AcDb2dVertex
 10
661.9895787509051
 20
1628.216408066627
 30
0.0
  0
VERTEX
  5
D7
330
C8
100
AcDbEntity
  8
Make2D$visible$lines
100
AcDbVertex
100
AcDb2dVertex
 10
661.5989996386573
 20
1624.476023290609
 30
0.0
  0
VERTEX
  5
D8
330
C8
100
AcDbEntity
  8
Make2D$visible$lines
100
AcDbVertex
100
AcDb2dVertex
 10
661.1917934754191
 20
1620.73729616127
 30
0.0
  0
VERTEX
  5
D9
330
C8
100
AcDbEntity
  8
Make2D$visible$lines
100
AcDbVertex
100
AcDb2dVertex
 10
660.7679787564468
 20
1617.000332950148
 30
0.0
  0
VERTEX
  5
DA
330
C8
100
AcDbEntity
  8
Make2D$visible$lines
100
AcDbVertex
100
AcDb2dVertex
 10
660.3275749630708
 20
1613.265239832609
 30
0.0
  0
VERTEX
  5
DB
330
C8
100
AcDbEntity
  8
Make2D$visible$lines
100
AcDbVertex
100
AcDb2dVertex
 10
659.8706025608438
 20
1609.532122877355
 30
0.0
  0
VERTEX
  5
DC
330
C8
100
AcDbEntity
  8
Make2D$visible$lines
100
AcDbVertex
100
AcDb2dVertex
 10
659.3970829975433
 20
1605.80108803593
 30
0.0
  0
VERTEX
  5
DD
330
C8
100
AcDbEntity
  8
Make2D$visible$lines
100
AcDbVertex
100
AcDb2dVertex
 10
658.9070387010275
 20
1602.072241132267
 30
0.0
  0
VERTEX
  5
DE
330
C8
100
AcDbEntity
  8
Make2D$visible$lines
100
AcDbVertex
100
AcDb2dVertex
 10
658.4004930769476
 20
1598.345687852233
 30
0.0
 42
-0.1810901579625568
  0
VERTEX
  5
DF
330
C8
100
AcDbEntity
  8
Make2D$visible$lines
100
AcDbVertex
100
AcDb2dVertex
 10
653.3937259569936
 20
1589.094212000757
 30
0.0
 42
-0.1539211188791086
  0
VERTEX
  5
E0
330
C8
100
AcDbEntity
  8
Make2D$visible$lines
100
AcDbVertex
100
AcDb2dVertex
 10
645.1332895990032
 20
1585.494503583994
 30
0.0
  0
VERTEX
  5
E1
330
C8
100
AcDbEntity
  8
Make2D$visible$lines
100
AcDbVertex
100
AcDb2dVertex
 10
644.8524922667501
 20
1585.446621884076
 30
0.0
  0
SEQEND
  5
E2
330
C8
100
AcDbEntity
  8
Make2D$visible$lines
  0
POLYLINE
  5
E3
330
1F
100
AcDbEntity
  8
Make2D$visible$lines
100
AcDb2dPolyline
 66
     1
 10
0.0
 20
0.0
 30
0.0
  0
VERTEX
  5
E4
330
E3
100
AcDbEntity
  8
Make2D$visible$lines
100
AcDbVertex
100
AcDb2dVertex
 10
667.5705096415288
 20
1923.698539456457
 30
0.0
  0
VERTEX
  5
E5
330
E3
100
AcDbEntity
  8
Make2D$visible$lines
100
AcDbVertex
100
AcDb2dVertex
 10
667.3422041730237
 20
1923.713898358588
 30
0.0
  0
VERTEX
  5
E6
330
E3
100
AcDbEntity
  8
Make2D$visible$lines
100
AcDbVertex
100
AcDb2dVertex
 10
667.3678976327672
 20
1923.712645069445
 30
0.0
  0
SEQEND
  5
E7
330
E3
100
AcDbEntity
  8
Make2D$visible$lines
  0
POLYLINE
  5
E8
330
1F
100
AcDbEntity
  8
Make2D$visible$lines
100
AcDb3dPolyline
 66
     1
 10
0.0
 20
0.0
 30
0.0
 70
     8
  0
VERTEX
  5
E9
330
E8
100
AcDbEntity
  8
Make2D$visible$lines
100
AcDbVertex
100
AcDb3dPolylineVertex
 10
507.0594545677228
 20
1546.973744275076
 30
0.0
 70
    32
  0
VERTEX
  5
EA
330
E8
100
AcDbEntity
  8
Make2D$visible$lines
100
AcDbVertex
100
AcDb3dPolylineVertex
 10
507.2964551290349
 20
1546.816700428157
 30
0.0
 70
    32
  0
VERTEX
  5
EB
330
E8
100
AcDbEntity
  8
Make2D$visible$lines
100
AcDbVertex
100
AcDb3dPolylineVertex
 10
507.0594545677228
 20
1546.973744275076
 30
0.0
 70
    32
  0
SEQEND
  5
EC
330
E8
100
AcDbEntity
  8
Make2D$visible$lines
  0
POLYLINE
  5
ED
330
1F
100
AcDbEntity
  8
Make2D$visible$lines
100
AcDb2dPolyline
 66
     1
 10
0.0
 20
0.0
 30
0.0
  0
VERTEX
  5
EE
330
ED
100
AcDbEntity
  8
Make2D$visible$lines
100
AcDbVertex
100
AcDb2dVertex
 10
645.0382281039273
 20
1585.480894257967
 30
0.0
  0
VERTEX
  5
EF
330
ED
100
AcDbEntity
  8
Make2D$visible$lines
100
AcDbVertex
100
AcDb2dVertex
 10
644.7996697863041
 20
1585.457629442792
 30
0.0
  0
VERTEX
  5
F0
330
ED
100
AcDbEntity
  8
Make2D$visible$lines
100
AcDbVertex
100
AcDb2dVertex
 10
644.2245322335564
 20
1585.418480768612
 30
0.0
  0
VERTEX
  5
F1
330
ED
100
AcDbEntity
  8
Make2D$visible$lines
100
AcDbVertex
100
AcDb2dVertex
 10
643.65554392797
 20
1585.406078897928
 30
0.0
  0
VERTEX
  5
F2
330
ED
100
AcDbEntity
  8
Make2D$visible$lines
100
AcDbVertex
100
AcDb2dVertex
 10
562.491061174669
 20
1585.406078897928
 30
0.0
  0
VERTEX
  5
F3
330
ED
100
AcDbEntity
  8
Make2D$visible$lines
100
AcDbVertex
100
AcDb2dVertex
 10
562.3828535467684
 20
1585.406005649567
 30
0.0
  0
VERTEX
  5
F4
330
ED
100
AcDbEntity
  8
Make2D$visible$lines
100
AcDbVertex
100
AcDb2dVertex
 10
220.5496533705932
 20
1585.406023212256
 30
0.0
  0
VERTEX
  5
F5
330
ED
100
AcDbEntity
  8
Make2D$visible$lines
100
AcDbVertex
100
AcDb2dVertex
 10
9.999522887513349
 20
1585.406106285508
 30
0.0
 42
0.5055457061596313
  0
VERTEX
  5
F6
330
ED
100
AcDbEntity
  8
Make2D$visible$lines
100
AcDbVertex
100
AcDb2dVertex
 10
0.4512232451265703
 20
1572.436112606666
 30
0.0
 42
0.1090397580501574
  0
VERTEX
  5
F7
330
ED
100
AcDbEntity
  8
Make2D$visible$lines
100
AcDbVertex
100
AcDb2dVertex
 10
77.47476693303982
 20
1437.530522316975
 30
0.0
  0
VERTEX
  5
F8
330
ED
100
AcDbEntity
  8
Make2D$visible$lines
100
AcDbVertex
100
AcDb2dVertex
 10
79.06021919689087
 20
1435.777047027748
 30
0.0
  0
VERTEX
  5
F9
330
ED
100
AcDbEntity
  8
Make2D$visible$lines
100
AcDbVertex
100
AcDb2dVertex
 10
80.65935461107357
 20
1434.035752832698
 30
0.0
  0
VERTEX
  5
FA
330
ED
100
AcDbEntity
  8
Make2D$visible$lines
100
AcDbVertex
100
AcDb2dVertex
 10
82.2720322316467
 20
1432.306799303403
 30
0.0
  0
VERTEX
  5
FB
330
ED
100
AcDbEntity
  8
Make2D$visible$lines
100
AcDbVertex
100
AcDb2dVertex
 10
83.89810864082617
 20
1430.590343826284
 30
0.0
  0
VERTEX
  5
FC
330
ED
100
AcDbEntity
  8
Make2D$visible$lines
100
AcDbVertex
100
AcDb2dVertex
 10
85.5374379894945
 20
1428.886541554849
 30
0.0
  0
VERTEX
  5
FD
330
ED
100
AcDbEntity
  8
Make2D$visible$lines
100
AcDbVertex
100
AcDb2dVertex
 10
87.18987204081348
 20
1427.195545362933
 30
0.0
  0
VERTEX
  5
FE
330
ED
100
AcDbEntity
  8
Make2D$visible$lines
100
AcDbVertex
100
AcDb2dVertex
 10
88.85526021491178
 20
1425.517505798977
 30
0.0
  0
VERTEX
  5
FF
330
ED
100
AcDbEntity
  8
Make2D$visible$lines
100
AcDbVertex
100
AcDb2dVertex
 10
90.53344963461996
 20
1423.852571041345
 30
0.0
  0
VERTEX
  5
100
330
ED
100
AcDbEntity
  8
Make2D$visible$lines
100
AcDbVertex
100
AcDb2dVertex
 10
92.22765774764721
 20
1422.209528345888
 30
0.0
  0
VERTEX
  5
101
330
ED
100
AcDbEntity
  8
Make2D$visible$lines
100
AcDbVertex
100
AcDb2dVertex
 10
93.93420861572882
 20
1420.580627411446
 30
0.0
  0
VERTEX
  5
102
330
ED
100
AcDbEntity
  8
Make2D$visible$lines
100
AcDbVertex
100
AcDb2dVertex
 10
97.37395690300744
 20
1417.349396026402
 30
0.0
  0
VERTEX
  5
103
330
ED
100
AcDbEntity
  8
Make2D$visible$lines
100
AcDbVertex
100
AcDb2dVertex
 10
100.8319310683606
 20
1414.127167287797
 30
0.0
  0
VERTEX
  5
104
330
ED
100
AcDbEntity
  8
Make2D$visible$lines
100
AcDbVertex
100
AcDb2dVertex
 10
104.287367683693
 20
1410.882231597218
 30
0.0
  0
VERTEX
  5
105
330
ED
100
AcDbEntity
  8
Make2D$visible$lines
100
AcDbVertex
100
AcDb2dVertex
 10
106.005956762446
 20
1409.240743300476
 30
0.0
  0
VERTEX
  5
106
330
ED
100
AcDbEntity
  8
Make2D$visible$lines
100
AcDbVertex
100
AcDb2dVertex
 10
107.7059907099044
 20
1407.578110596586
 30
0.0
  0
VERTEX
  5
107
330
ED
100
AcDbEntity
  8
Make2D$visible$lines
100
AcDbVertex
100
AcDb2dVertex
 10
108.5450714197839
 20
1406.736508757726
 30
0.0
  0
VERTEX
  5
108
330
ED
100
AcDbEntity
  8
Make2D$visible$lines
100
AcDbVertex
100
AcDb2dVertex
 10
109.3747396393025
 20
1405.886793215998
 30
0.0
  0
VERTEX
  5
109
330
ED
100
AcDbEntity
  8
Make2D$visible$lines
100
AcDbVertex
100
AcDb2dVertex
 10
110.1934041326147
 20
1405.028021437708
 30
0.0
  0
VERTEX
  5
10A
330
ED
100
AcDbEntity
  8
Make2D$visible$lines
100
AcDbVertex
100
AcDb2dVertex
 10
110.9994736638747
 20
1404.159250889161
 30
0.0
  0
VERTEX
  5
10B
330
ED
100
AcDbEntity
  8
Make2D$visible$lines
100
AcDbVertex
100
AcDb2dVertex
 10
111.7913569972368
 20
1403.279539036665
 30
0.0
  0
VERTEX
  5
10C
330
ED
100
AcDbEntity
  8
Make2D$visible$lines
100
AcDbVertex
100
AcDb2dVertex
 10
112.5674628968553
 20
1402.387943346526
 30
0.0
  0
VERTEX
  5
10D
330
ED
100
AcDbEntity
  8
Make2D$visible$lines
100
AcDbVertex
100
AcDb2dVertex
 10
113.3262001268845
 20
1401.483521285049
 30
0.0
  0
VERTEX
  5
10E
330
ED
100
AcDbEntity
  8
Make2D$visible$lines
100
AcDbVertex
100
AcDb2dVertex
 10
114.0659774514787
 20
1400.565330318541
 30
0.0
  0
VERTEX
  5
10F
330
ED
100
AcDbEntity
  8
Make2D$visible$lines
100
AcDbVertex
100
AcDb2dVertex
 10
114.7852036347923
 20
1399.632427913308
 30
0.0
  0
VERTEX
  5
110
330
ED
100
AcDbEntity
  8
Make2D$visible$lines
100
AcDbVertex
100
AcDb2dVertex
 10
115.4822874409794
 20
1398.683871535656
 30
0.0
  0
VERTEX
  5
111
330
ED
100
AcDbEntity
  8
Make2D$visible$lines
100
AcDbVertex
100
AcDb2dVertex
 10
116.1556376341944
 20
1397.718718651892
 30
0.0
  0
VERTEX
  5
112
330
ED
100
AcDbEntity
  8
Make2D$visible$lines
100
AcDbVertex
100
AcDb2dVertex
 10
116.8036629785915
 20
1396.736026728322
 30
0.0
  0
VERTEX
  5
113
330
ED
100
AcDbEntity
  8
Make2D$visible$lines
100
AcDbVertex
100
AcDb2dVertex
 10
117.4250279908202
 20
1395.735170838078
 30
0.0
  0
VERTEX
  5
114
330
ED
100
AcDbEntity
  8
Make2D$visible$lines
100
AcDbVertex
100
AcDb2dVertex
 10
118.0194201975094
 20
1394.716796481596
 30
0.0
  0
VERTEX
  5
115
330
ED
100
AcDbEntity
  8
Make2D$visible$lines
100
AcDbVertex
100
AcDb2dVertex
 10
118.5867828777834
 20
1393.681866766141
 30
0.0
  0
VERTEX
  5
116
330
ED
100
AcDbEntity
  8
Make2D$visible$lines
100
AcDbVertex
100
AcDb2dVertex
 10
119.1270593107664
 20
1392.631344798976
 30
0.0
  0
VERTEX
  5
117
330
ED
100
AcDbEntity
  8
Make2D$visible$lines
100
AcDbVertex
100
AcDb2dVertex
 10
119.6401927755825
 20
1391.566193687363
 30
0.0
  0
VERTEX
  5
118
330
ED
100
AcDbEntity
  8
Make2D$visible$lines
100
AcDbVertex
100
AcDb2dVertex
 10
120.1261265513559
 20
1390.487376538565
 30
0.0
  0
VERTEX
  5
119
330
ED
100
AcDbEntity
  8
Make2D$visible$lines
100
AcDbVertex
100
AcDb2dVertex
 10
120.5848039172107
 20
1389.395856459846
 30
0.0
  0
VERTEX
  5
11A
330
ED
100
AcDbEntity
  8
Make2D$visible$lines
100
AcDbVertex
100
AcDb2dVertex
 10
121.0161681522711
 20
1388.292596558469
 30
0.0
  0
VERTEX
  5
11B
330
ED
100
AcDbEntity
  8
Make2D$visible$lines
100
AcDbVertex
100
AcDb2dVertex
 10
121.4201625356612
 20
1387.178559941697
 30
0.0
  0
VERTEX
  5
11C
330
ED
100
AcDbEntity
  8
Make2D$visible$lines
100
AcDbVertex
100
AcDb2dVertex
 10
121.7967303465053
 20
1386.054709716793
 30
0.0
  0
VERTEX
  5
11D
330
ED
100
AcDbEntity
  8
Make2D$visible$lines
100
AcDbVertex
100
AcDb2dVertex
 10
122.1458148639274
 20
1384.92200899102
 30
0.0
  0
VERTEX
  5
11E
330
ED
100
AcDbEntity
  8
Make2D$visible$lines
100
AcDbVertex
100
AcDb2dVertex
 10
122.4673593670517
 20
1383.781420871642
 30
0.0
  0
VERTEX
  5
11F
330
ED
100
AcDbEntity
  8
Make2D$visible$lines
100
AcDbVertex
100
AcDb2dVertex
 10
122.7613071350024
 20
1382.633908465922
 30
0.0
  0
VERTEX
  5
120
330
ED
100
AcDbEntity
  8
Make2D$visible$lines
100
AcDbVertex
100
AcDb2dVertex
 10
123.0276014469037
 20
1381.480434881122
 30
0.0
  0
VERTEX
  5
121
330
ED
100
AcDbEntity
  8
Make2D$visible$lines
100
AcDbVertex
100
AcDb2dVertex
 10
123.2661855818796
 20
1380.321963224506
 30
0.0
  0
VERTEX
  5
122
330
ED
100
AcDbEntity
  8
Make2D$visible$lines
100
AcDbVertex
100
AcDb2dVertex
 10
123.4770028190544
 20
1379.159456603337
 30
0.0
  0
VERTEX
  5
123
330
ED
100
AcDbEntity
  8
Make2D$visible$lines
100
AcDbVertex
100
AcDb2dVertex
 10
123.6603233763758
 20
1377.993755470716
 30
0.0
  0
VERTEX
  5
124
330
ED
100
AcDbEntity
  8
Make2D$visible$lines
100
AcDbVertex
100
AcDb2dVertex
 10
123.8177252270859
 20
1376.825209663096
 30
0.0
  0
VERTEX
  5
125
330
ED
100
AcDbEntity
  8
Make2D$visible$lines
100
AcDbVertex
100
AcDb2dVertex
 10
123.9511132832504
 20
1375.654046362765
 30
0.0
  0
VERTEX
  5
126
330
ED
100
AcDbEntity
  8
Make2D$visible$lines
100
AcDbVertex
100
AcDb2dVertex
 10
124.0623924569349
 20
1374.480492752015
 30
0.0
  0
VERTEX
  5
127
330
ED
100
AcDbEntity
  8
Make2D$visible$lines
100
AcDbVertex
100
AcDb2dVertex
 10
124.1534676602052
 20
1373.304776013136
 30
0.0
  0
VERTEX
  5
128
330
ED
100
AcDbEntity
  8
Make2D$visible$lines
100
AcDbVertex
100
AcDb2dVertex
 10
124.226243805127
 20
1372.127123328416
 30
0.0
  0
VERTEX
  5
129
330
ED
100
AcDbEntity
  8
Make2D$visible$lines
100
AcDbVertex
100
AcDb2dVertex
 10
124.282625803766
 20
1370.947761880148
 30
0.0
  0
VERTEX
  5
12A
330
ED
100
AcDbEntity
  8
Make2D$visible$lines
100
AcDbVertex
100
AcDb2dVertex
 10
124.3245185681877
 20
1369.76691885062
 30
0.0
  0
VERTEX
  5
12B
330
ED
100
AcDbEntity
  8
Make2D$visible$lines
100
AcDbVertex
100
AcDb2dVertex
 10
124.353827010458
 20
1368.584821422123
 30
0.0
  0
VERTEX
  5
12C
330
ED
100
AcDbEntity
  8
Make2D$visible$lines
100
AcDbVertex
100
AcDb2dVertex
 10
124.3724560426426
 20
1367.401696776947
 30
0.0
  0
VERTEX
  5
12D
330
ED
100
AcDbEntity
  8
Make2D$visible$lines
100
AcDbVertex
100
AcDb2dVertex
 10
124.385295525017
 20
1365.033274565717
 30
0.0
  0
VERTEX
  5
12E
330
ED
100
AcDbEntity
  8
Make2D$visible$lines
100
AcDbVertex
100
AcDb2dVertex
 10
124.3666376996271
 20
1360.294099563871
 30
0.0
  0
VERTEX
  5
12F
330
ED
100
AcDbEntity
  8
Make2D$visible$lines
100
AcDbVertex
100
AcDb2dVertex
 10
124.3678961537788
 20
1355.56103428012
 30
0.0
  0
VERTEX
  5
130
330
ED
100
AcDbEntity
  8
Make2D$visible$lines
100
AcDbVertex
100
AcDb2dVertex
 10
124.3981687074597
 20
1350.83412222339
 30
0.0
  0
VERTEX
  5
131
330
ED
100
AcDbEntity
  8
Make2D$visible$lines
100
AcDbVertex
100
AcDb2dVertex
 10
124.4918941515848
 20
1341.387334900597
 30
0.0
  0
VERTEX
  5
132
330
ED
100
AcDbEntity
  8
Make2D$visible$lines
100
AcDbVertex
100
AcDb2dVertex
 10
124.5628661932332
 20
1331.934007846356
 30
0.0
  0
VERTEX
  5
133
330
ED
100
AcDbEntity
  8
Make2D$visible$lines
100
AcDbVertex
100
AcDb2dVertex
 10
124.6171506035423
 20
1322.480570237321
 30
0.0
  0
VERTEX
  5
134
330
ED
100
AcDbEntity
  8
Make2D$visible$lines
100
AcDbVertex
100
AcDb2dVertex
 10
125.4975742971114
 20
1190.133217594393
 30
0.0
  0
VERTEX
  5
135
330
ED
100
AcDbEntity
  8
Make2D$visible$lines
100
AcDbVertex
100
AcDb2dVertex
 10
220.5574583125363
 20
1190.133217594251
 30
0.0
 42
0.0000405884587461
  0
VERTEX
  5
136
330
ED
100
AcDbEntity
  8
Make2D$visible$lines
100
AcDbVertex
100
AcDb2dVertex
 10
492.3601224883982
 20
1190.137046583463
 30
0.0
 42
-0.0143409550511482
  0
VERTEX
  5
137
330
ED
100
AcDbEntity
  8
Make2D$visible$lines
100
AcDbVertex
100
AcDb2dVertex
 10
481.1171732926554
 20
1231.074595077633
 30
0.0
 42
-0.0084286556136748
  0
VERTEX
  5
138
330
ED
100
AcDbEntity
  8
Make2D$visible$lines
100
AcDbVertex
100
AcDb2dVertex
 10
476.4839253076675
 20
1251.625418068403
 30
0.0
 42
-0.0095605167204055
  0
VERTEX
  5
139
330
ED
100
AcDbEntity
  8
Make2D$visible$lines
100
AcDbVertex
100
AcDb2dVertex
 10
472.5821781219371
 20
1272.383560230468
 30
0.0
 42
-0.0109223091898761
  0
VERTEX
  5
13A
330
ED
100
AcDbEntity
  8
Make2D$visible$lines
100
AcDbVertex
100
AcDb2dVertex
 10
469.531363900561
 20
1293.287081436162
 30
0.0
 42
-0.0125275808556593
  0
VERTEX
  5
13B
330
ED
100
AcDbEntity
  8
Make2D$visible$lines
100
AcDbVertex
100
AcDb2dVertex
 10
467.4577190578804
 20
1314.350025469429
 30
0.0
 42
-0.0144712821736885
  0
VERTEX
  5
13C
330
ED
100
AcDbEntity
  8
Make2D$visible$lines
100
AcDbVertex
100
AcDb2dVertex
 10
466.5211872453485
 20
1335.510375028558
 30
0.0
 42
-0.016787756762288
  0
VERTEX
  5
13D
330
ED
100
AcDbEntity
  8
Make2D$visible$lines
100
AcDbVertex
100
AcDb2dVertex
 10
466.9056299552134
 20
1356.700428571264
 30
0.0
 42
-0.019490298042522
  0
VERTEX
  5
13E
330
ED
100
AcDbEntity
  8
Make2D$visible$lines
100
AcDbVertex
100
AcDb2dVertex
 10
468.826592022879
 20
1377.857493645358
 30
0.0
 42
-0.0224861205504888
  0
VERTEX
  5
13F
330
ED
100
AcDbEntity
  8
Make2D$visible$lines
100
AcDbVertex
100
AcDb2dVertex
 10
472.518020887088
 20
1398.799741209234
 30
0.0
  0
VERTEX
  5
140
330
ED
100
AcDbEntity
  8
Make2D$visible$lines
100
AcDbVertex
100
AcDb2dVertex
 10
473.1141493298248
 20
1401.393958128302
 30
0.0
  0
VERTEX
  5
141
330
ED
100
AcDbEntity
  8
Make2D$visible$lines
100
AcDbVertex
100
AcDb2dVertex
 10
473.743604414099
 20
1403.980965045147
 30
0.0
  0
VERTEX
  5
142
330
ED
100
AcDbEntity
  8
Make2D$visible$lines
100
AcDbVertex
100
AcDb2dVertex
 10
474.4062516975722
 20
1406.560120681785
 30
0.0
  0
VERTEX
  5
143
330
ED
100
AcDbEntity
  8
Make2D$visible$lines
100
AcDbVertex
100
AcDb2dVertex
 10
475.1019403071994
 20
1409.130787204891
 30
0.0
  0
VERTEX
  5
144
330
ED
100
AcDbEntity
  8
Make2D$visible$lines
100
AcDbVertex
100
AcDb2dVertex
 10
475.8305030529174
 20
1411.692330751297
 30
0.0
  0
VERTEX
  5
145
330
ED
100
AcDbEntity
  8
Make2D$visible$lines
100
AcDbVertex
100
AcDb2dVertex
 10
476.5917565614718
 20
1414.24412194887
 30
0.0
  0
VERTEX
  5
146
330
ED
100
AcDbEntity
  8
Make2D$visible$lines
100
AcDbVertex
100
AcDb2dVertex
 10
477.3855014301552
 20
1416.785536431862
 30
0.0
  0
VERTEX
  5
147
330
ED
100
AcDbEntity
  8
Make2D$visible$lines
100
AcDbVertex
100
AcDb2dVertex
 10
478.2115224001884
 20
1419.315955349844
 30
0.0
  0
VERTEX
  5
148
330
ED
100
AcDbEntity
  8
Make2D$visible$lines
100
AcDbVertex
100
AcDb2dVertex
 10
479.0773354511615
 20
1421.851231467559
 30
0.0
  0
VERTEX
  5
149
330
ED
100
AcDbEntity
  8
Make2D$visible$lines
100
AcDbVertex
100
AcDb2dVertex
 10
479.979197160739
 20
1424.374763706801
 30
0.0
  0
VERTEX
  5
14A
330
ED
100
AcDbEntity
  8
Make2D$visible$lines
100
AcDbVertex
100
AcDb2dVertex
 10
480.9168636355474
 20
1426.885785032095
 30
0.0
  0
VERTEX
  5
14B
330
ED
100
AcDbEntity
  8
Make2D$visible$lines
100
AcDbVertex
100
AcDb2dVertex
 10
481.8900692700949
 20
1429.38353531174
 30
0.0
  0
VERTEX
  5
14C
330
ED
100
AcDbEntity
  8
Make2D$visible$lines
100
AcDbVertex
100
AcDb2dVertex
 10
482.8985269964729
 20
1431.867262084293
 30
0.0
  0
VERTEX
  5
14D
330
ED
100
AcDbEntity
  8
Make2D$visible$lines
100
AcDbVertex
100
AcDb2dVertex
 10
483.9419285664455
 20
1434.336221313976
 30
0.0
  0
VERTEX
  5
14E
330
ED
100
AcDbEntity
  8
Make2D$visible$lines
100
AcDbVertex
100
AcDb2dVertex
 10
485.0199448653445
 20
1436.789678133446
 30
0.0
  0
VERTEX
  5
14F
330
ED
100
AcDbEntity
  8
Make2D$visible$lines
100
AcDbVertex
100
AcDb2dVertex
 10
486.1322262571016
 20
1439.226907572346
 30
0.0
  0
VERTEX
  5
150
330
ED
100
AcDbEntity
  8
Make2D$visible$lines
100
AcDbVertex
100
AcDb2dVertex
 10
486.7019563081324
 20
1440.438682769832
 30
0.0
  0
VERTEX
  5
151
330
ED
100
AcDbEntity
  8
Make2D$visible$lines
100
AcDbVertex
100
AcDb2dVertex
 10
487.2810793684782
 20
1441.646302906038
 30
0.0
  0
VERTEX
  5
152
330
ED
100
AcDbEntity
  8
Make2D$visible$lines
100
AcDbVertex
100
AcDb2dVertex
 10
487.8695497088142
 20
1442.849659001734
 30
0.0
  0
VERTEX
  5
153
330
ED
100
AcDbEntity
  8
Make2D$visible$lines
100
AcDbVertex
100
AcDb2dVertex
 10
488.4673199171522
 20
1444.048642753585
 30
0.0
  0
VERTEX
  5
154
330
ED
100
AcDbEntity
  8
Make2D$visible$lines
100
AcDbVertex
100
AcDb2dVertex
 10
489.0743409114341
 20
1445.243146566578
 30
0.0
  0
VERTEX
  5
155
330
ED
100
AcDbEntity
  8
Make2D$visible$lines
100
AcDbVertex
100
AcDb2dVertex
 10
489.6905619528697
 20
1446.433063586151
 30
0.0
  0
VERTEX
  5
156
330
ED
100
AcDbEntity
  8
Make2D$visible$lines
100
AcDbVertex
100
AcDb2dVertex
 10
490.3159306600193
 20
1447.618287730031
 30
0.0
  0
VERTEX
  5
157
330
ED
100
AcDbEntity
  8
Make2D$visible$lines
100
AcDbVertex
100
AcDb2dVertex
 10
490.9503930236058
 20
1448.79871371974
 30
0.0
  0
VERTEX
  5
158
330
ED
100
AcDbEntity
  8
Make2D$visible$lines
100
AcDbVertex
100
AcDb2dVertex
 10
491.5938934220532
 20
1449.974237111761
 30
0.0
  0
VERTEX
  5
159
330
ED
100
AcDbEntity
  8
Make2D$visible$lines
100
AcDbVertex
100
AcDb2dVertex
 10
492.2463746377377
 20
1451.144754328335
 30
0.0
  0
VERTEX
  5
15A
330
ED
100
AcDbEntity
  8
Make2D$visible$lines
100
AcDbVertex
100
AcDb2dVertex
 10
492.9077778739446
 20
1452.310162687886
 30
0.0
  0
VERTEX
  5
15B
330
ED
100
AcDbEntity
  8
Make2D$visible$lines
100
AcDbVertex
100
AcDb2dVertex
 10
493.5780427725188
 20
1453.470360435036
 30
0.0
  0
VERTEX
  5
15C
330
ED
100
AcDbEntity
  8
Make2D$visible$lines
100
AcDbVertex
100
AcDb2dVertex
 10
494.2571074321983
 20
1454.625246770203
 30
0.0
  0
VERTEX
  5
15D
330
ED
100
AcDbEntity
  8
Make2D$visible$lines
100
AcDbVertex
100
AcDb2dVertex
 10
494.9449084276183
 20
1455.774721878765
 30
0.0
  0
VERTEX
  5
15E
330
ED
100
AcDbEntity
  8
Make2D$visible$lines
100
AcDbVertex
100
AcDb2dVertex
 10
495.6413808289759
 20
1456.918686959762
 30
0.0
  0
VERTEX
  5
15F
330
ED
100
AcDbEntity
  8
Make2D$visible$lines
100
AcDbVertex
100
AcDb2dVertex
 10
496.3464582223389
 20
1458.057044254137
 30
0.0
  0
VERTEX
  5
160
330
ED
100
AcDbEntity
  8
Make2D$visible$lines
100
AcDbVertex
100
AcDb2dVertex
 10
497.0610669510091
 20
1459.189505945737
 30
0.0
  0
VERTEX
  5
161
330
ED
100
AcDbEntity
  8
Make2D$visible$lines
100
AcDbVertex
100
AcDb2dVertex
 10
497.7846680999605
 20
1460.316584208231
 30
0.0
  0
VERTEX
  5
162
330
ED
100
AcDbEntity
  8
Make2D$visible$lines
100
AcDbVertex
100
AcDb2dVertex
 10
498.5172005396291
 20
1461.438172243423
 30
0.0
  0
VERTEX
  5
163
330
ED
100
AcDbEntity
  8
Make2D$visible$lines
100
AcDbVertex
100
AcDb2dVertex
 10
499.2586014536423
 20
1462.554164183859
 30
0.0
  0
VERTEX
  5
164
330
ED
100
AcDbEntity
  8
Make2D$visible$lines
100
AcDbVertex
100
AcDb2dVertex
 10
500.0088063566463
 20
1463.664455126064
 30
0.0
  0
VERTEX
  5
165
330
ED
100
AcDbEntity
  8
Make2D$visible$lines
100
AcDbVertex
100
AcDb2dVertex
 10
500.7677491129166
 20
1464.76894116334
 30
0.0
  0
VERTEX
  5
166
330
ED
100
AcDbEntity
  8
Make2D$visible$lines
100
AcDbVertex
100
AcDb2dVertex
 10
501.5353619557405
 20
1465.867519418156
 30
0.0
  0
VERTEX
  5
167
330
ED
100
AcDbEntity
  8
Make2D$visible$lines
100
AcDbVertex
100
AcDb2dVertex
 10
502.3115755075596
 20
1466.960088074063
 30
0.0
  0
VERTEX
  5
168
330
ED
100
AcDbEntity
  8
Make2D$visible$lines
100
AcDbVertex
100
AcDb2dVertex
 10
503.0963188008622
 20
1468.046546407141
 30
0.0
  0
VERTEX
  5
169
330
ED
100
AcDbEntity
  8
Make2D$visible$lines
100
AcDbVertex
100
AcDb2dVertex
 10
503.8895192998072
 20
1469.126794816951
 30
0.0
  0
VERTEX
  5
16A
330
ED
100
AcDbEntity
  8
Make2D$visible$lines
100
AcDbVertex
100
AcDb2dVertex
 10
504.6911029225724
 20
1470.200734856966
 30
0.0
  0
VERTEX
  5
16B
330
ED
100
AcDbEntity
  8
Make2D$visible$lines
100
AcDbVertex
100
AcDb2dVertex
 10
505.5009940644064
 20
1471.268269264473
 30
0.0
  0
VERTEX
  5
16C
330
ED
100
AcDbEntity
  8
Make2D$visible$lines
100
AcDbVertex
100
AcDb2dVertex
 10
506.319115621373
 20
1472.329301989909
 30
0.0
  0
VERTEX
  5
16D
330
ED
100
AcDbEntity
  8
Make2D$visible$lines
100
AcDbVertex
100
AcDb2dVertex
 10
507.1453890147715
 20
1473.383738225635
 30
0.0
  0
VERTEX
  5
16E
330
ED
100
AcDbEntity
  8
Make2D$visible$lines
100
AcDbVertex
100
AcDb2dVertex
 10
507.9797342162159
 20
1474.431484434112
 30
0.0
  0
VERTEX
  5
16F
330
ED
100
AcDbEntity
  8
Make2D$visible$lines
100
AcDbVertex
100
AcDb2dVertex
 10
508.8220697733573
 20
1475.472448375471
 30
0.0
  0
VERTEX
  5
170
330
ED
100
AcDbEntity
  8
Make2D$visible$lines
100
AcDbVertex
100
AcDb2dVertex
 10
509.6721332462304
 20
1476.505208361046
 30
0.0
  0
VERTEX
  5
171
330
ED
100
AcDbEntity
  8
Make2D$visible$lines
100
AcDbVertex
100
AcDb2dVertex
 10
510.5301566097564
 20
1477.531714239905
 30
0.0
  0
VERTEX
  5
172
330
ED
100
AcDbEntity
  8
Make2D$visible$lines
100
AcDbVertex
100
AcDb2dVertex
 10
511.3960705850243
 20
1478.55187431792
 30
0.0
  0
VERTEX
  5
173
330
ED
100
AcDbEntity
  8
Make2D$visible$lines
100
AcDbVertex
100
AcDb2dVertex
 10
512.2698044893394
 20
1479.565597928576
 30
0.0
  0
VERTEX
  5
174
330
ED
100
AcDbEntity
  8
Make2D$visible$lines
100
AcDbVertex
100
AcDb2dVertex
 10
513.1512862553666
 20
1480.572795459755
 30
0.0
  0
VERTEX
  5
175
330
ED
100
AcDbEntity
  8
Make2D$visible$lines
100
AcDbVertex
100
AcDb2dVertex
 10
514.0404424508843
 20
1481.573378380085
 30
0.0
  0
VERTEX
  5
176
330
ED
100
AcDbEntity
  8
Make2D$visible$lines
100
AcDbVertex
100
AcDb2dVertex
 10
514.9371982991403
 20
1482.567259264853
 30
0.0
  0
VERTEX
  5
177
330
ED
100
AcDbEntity
  8
Make2D$visible$lines
100
AcDbVertex
100
AcDb2dVertex
 10
515.8414776997944
 20
1483.554351821446
 30
0.0
  0
VERTEX
  5
178
330
ED
100
AcDbEntity
  8
Make2D$visible$lines
100
AcDbVertex
100
AcDb2dVertex
 10
516.7532032504374
 20
1484.534570914319
 30
0.0
  0
VERTEX
  5
179
330
ED
100
AcDbEntity
  8
Make2D$visible$lines
100
AcDbVertex
100
AcDb2dVertex
 10
517.6722962686736
 20
1485.50783258947
 30
0.0
  0
VERTEX
  5
17A
330
ED
100
AcDbEntity
  8
Make2D$visible$lines
100
AcDbVertex
100
AcDb2dVertex
 10
518.5986768147533
 20
1486.474054098406
 30
0.0
  0
VERTEX
  5
17B
330
ED
100
AcDbEntity
  8
Make2D$visible$lines
100
AcDbVertex
100
AcDb2dVertex
 10
519.5322637147416
 20
1487.433153921583
 30
0.0
  0
VERTEX
  5
17C
330
ED
100
AcDbEntity
  8
Make2D$visible$lines
100
AcDbVertex
100
AcDb2dVertex
 10
520.4729745842096
 20
1488.385051791324
 30
0.0
  0
VERTEX
  5
17D
330
ED
100
AcDbEntity
  8
Make2D$visible$lines
100
AcDbVertex
100
AcDb2dVertex
 10
521.420725852433
 20
1489.329668714166
 30
0.0
  0
VERTEX
  5
17E
330
ED
100
AcDbEntity
  8
Make2D$visible$lines
100
AcDbVertex
100
AcDb2dVertex
 10
522.3754327870839
 20
1490.266926992667
 30
0.0
  0
VERTEX
  5
17F
330
ED
100
AcDbEntity
  8
Make2D$visible$lines
100
AcDbVertex
100
AcDb2dVertex
 10
524.0284094346873
 20
1491.857652421153
 30
0.0
  0
VERTEX
  5
180
330
ED
100
AcDbEntity
  8
Make2D$visible$lines
100
AcDbVertex
100
AcDb2dVertex
 10
525.8913159986702
 20
1493.602237080212
 30
0.0
  0
VERTEX
  5
181
330
ED
100
AcDbEntity
  8
Make2D$visible$lines
100
AcDbVertex
100
AcDb2dVertex
 10
527.7773858865885
 20
1495.322727725317
 30
0.0
  0
VERTEX
  5
182
330
ED
100
AcDbEntity
  8
Make2D$visible$lines
100
AcDbVertex
100
AcDb2dVertex
 10
529.6861487809865
 20
1497.018666242491
 30
0.0
  0
VERTEX
  5
183
330
ED
100
AcDbEntity
  8
Make2D$visible$lines
100
AcDbVertex
100
AcDb2dVertex
 10
531.6171223651198
 20
1498.689606836687
 30
0.0
  0
VERTEX
  5
184
330
ED
100
AcDbEntity
  8
Make2D$visible$lines
100
AcDbVertex
100
AcDb2dVertex
 10
533.5698127288462
 20
1500.335116422003
 30
0.0
  0
VERTEX
  5
185
330
ED
100
AcDbEntity
  8
Make2D$visible$lines
100
AcDbVertex
100
AcDb2dVertex
 10
535.5437147896324
 20
1501.954774995743
 30
0.0
  0
VERTEX
  5
186
330
ED
100
AcDbEntity
  8
Make2D$visible$lines
100
AcDbVertex
100
AcDb2dVertex
 10
537.5383127279317
 20
1503.54817599566
 30
0.0
  0
VERTEX
  5
187
330
ED
100
AcDbEntity
  8
Make2D$visible$lines
100
AcDbVertex
100
AcDb2dVertex
 10
539.5530804361356
 20
1505.114926639743
 30
0.0
 42
-0.0236263107292412
  0
VERTEX
  5
188
330
ED
100
AcDbEntity
  8
Make2D$visible$lines
100
AcDbVertex
100
AcDb2dVertex
 10
557.0835769879594
 20
1517.2836130229
 30
0.0
 42
-0.0185426377219312
  0
VERTEX
  5
189
330
ED
100
AcDbEntity
  8
Make2D$visible$lines
100
AcDbVertex
100
AcDb2dVertex
 10
575.592290987639
 20
1527.929439743475
 30
0.0
  0
VERTEX
  5
18A
330
ED
100
AcDbEntity
  8
Make2D$visible$lines
100
AcDbVertex
100
AcDb2dVertex
 10
577.9532198669514
 20
1529.164114902742
 30
0.0
  0
VERTEX
  5
18B
330
ED
100
AcDbEntity
  8
Make2D$visible$lines
100
AcDbVertex
100
AcDb2dVertex
 10
580.3224541721636
 20
1530.383162218426
 30
0.0
  0
VERTEX
  5
18C
330
ED
100
AcDbEntity
  8
Make2D$visible$lines
100
AcDbVertex
100
AcDb2dVertex
 10
582.6998384625231
 20
1531.58649841819
 30
0.0
  0
VERTEX
  5
18D
330
ED
100
AcDbEntity
  8
Make2D$visible$lines
100
AcDbVertex
100
AcDb2dVertex
 10
585.0852161909661
 20
1532.774042294803
 30
0.0
  0
VERTEX
  5
18E
330
ED
100
AcDbEntity
  8
Make2D$visible$lines
100
AcDbVertex
100
AcDb2dVertex
 10
587.4784297384737
 20
1533.945714724392
 30
0.0
  0
VERTEX
  5
18F
330
ED
100
AcDbEntity
  8
Make2D$visible$lines
100
AcDbVertex
100
AcDb2dVertex
 10
589.879320448785
 20
1535.101438684017
 30
0.0
  0
VERTEX
  5
190
330
ED
100
AcDbEntity
  8
Make2D$visible$lines
100
AcDbVertex
100
AcDb2dVertex
 10
592.2877286634562
 20
1536.241139268545
 30
0.0
  0
VERTEX
  5
191
330
ED
100
AcDbEntity
  8
Make2D$visible$lines
100
AcDbVertex
100
AcDb2dVertex
 10
594.7034937572453
 20
1537.364743706823
 30
0.0
  0
VERTEX
  5
192
330
ED
100
AcDbEntity
  8
Make2D$visible$lines
100
AcDbVertex
100
AcDb2dVertex
 10
597.1178392978325
 20
1538.475307803061
 30
0.0
  0
VERTEX
  5
193
330
ED
100
AcDbEntity
  8
Make2D$visible$lines
100
AcDbVertex
100
AcDb2dVertex
 10
599.5375200750996
 20
1539.5755574655
 30
0.0
  0
VERTEX
  5
194
330
ED
100
AcDbEntity
  8
Make2D$visible$lines
100
AcDbVertex
100
AcDb2dVertex
 10
604.3879390732
 20
1541.755181216729
 30
0.0
  0
VERTEX
  5
195
330
ED
100
AcDbEntity
  8
Make2D$visible$lines
100
AcDbVertex
100
AcDb2dVertex
 10
614.0983689783527
 20
1546.101400518812
 30
0.0
  0
VERTEX
  5
196
330
ED
100
AcDbEntity
  8
Make2D$visible$lines
100
AcDbVertex
100
AcDb2dVertex
 10
616.978546768862
 20
1547.407874984576
 30
0.0
  0
VERTEX
  5
197
330
ED
100
AcDbEntity
  8
Make2D$visible$lines
100
AcDbVertex
100
AcDb2dVertex
 10
619.854218490766
 20
1548.724238073728
 30
0.0
  0
VERTEX
  5
198
330
ED
100
AcDbEntity
  8
Make2D$visible$lines
100
AcDbVertex
100
AcDb2dVertex
 10
623.22543740524
 20
1550.282453070366
 30
0.0
  0
VERTEX
  5
199
330
ED
100
AcDbEntity
  8
Make2D$visible$lines
100
AcDbVertex
100
AcDb2dVertex
 10
626.5917259250376
 20
1551.851335041604
 30
0.0
  0
VERTEX
  5
19A
330
ED
100
AcDbEntity
  8
Make2D$visible$lines
100
AcDbVertex
100
AcDb2dVertex
 10
629.9530334597669
 20
1553.430860506789
 30
0.0
  0
VERTEX
  5
19B
330
ED
100
AcDbEntity
  8
Make2D$visible$lines
100
AcDbVertex
100
AcDb2dVertex
 10
633.3093095686386
 20
1555.021005665594
 30
0.0
  0
VERTEX
  5
19C
330
ED
100
AcDbEntity
  8
Make2D$visible$lines
100
AcDbVertex
100
AcDb2dVertex
 10
635.6997688596797
 20
1556.16492354247
 30
0.0
  0
VERTEX
  5
19D
330
ED
100
AcDbEntity
  8
Make2D$visible$lines
100
AcDbVertex
100
AcDb2dVertex
 10
636.894599595146
 20
1556.748903820504
 30
0.0
  0
VERTEX
  5
19E
330
ED
100
AcDbEntity
  8
Make2D$visible$lines
100
AcDbVertex
100
AcDb2dVertex
 10
638.0851332172742
 20
1557.344521061902
 30
0.0
  0
VERTEX
  5
19F
330
ED
100
AcDbEntity
  8
Make2D$visible$lines
100
AcDbVertex
100
AcDb2dVertex
 10
639.2683463460885
 20
1557.954492319388
 30
0.0
  0
VERTEX
  5
1A0
330
ED
100
AcDbEntity
  8
Make2D$visible$lines
100
AcDbVertex
100
AcDb2dVertex
 10
640.4412156016124
 20
1558.581534645685
 30
0.0
  0
VERTEX
  5
1A1
330
ED
100
AcDbEntity
  8
Make2D$visible$lines
100
AcDbVertex
100
AcDb2dVertex
 10
641.6007176038698
 20
1559.228365093517
 30
0.0
  0
VERTEX
  5
1A2
330
ED
100
AcDbEntity
  8
Make2D$visible$lines
100
AcDbVertex
100
AcDb2dVertex
 10
642.7438289728846
 20
1559.89770071561
 30
0.0
  0
VERTEX
  5
1A3
330
ED
100
AcDbEntity
  8
Make2D$visible$lines
100
AcDbVertex
100
AcDb2dVertex
 10
643.8696308971903
 20
1560.593507509537
 30
0.0
  0
VERTEX
  5
1A4
330
ED
100
AcDbEntity
  8
Make2D$visible$lines
100
AcDbVertex
100
AcDb2dVertex
 10
644.9724656343608
 20
1561.316759452
 30
0.0
  0
VERTEX
  5
1A5
330
ED
100
AcDbEntity
  8
Make2D$visible$lines
100
AcDbVertex
100
AcDb2dVertex
 10
645.5145921599134
 20
1561.6896192635
 30
0.0
  0
VERTEX
  5
1A6
330
ED
100
AcDbEntity
  8
Make2D$visible$lines
100
AcDbVertex
100
AcDb2dVertex
 10
646.0501631112538
 20
1562.070470653616
 30
0.0
  0
VERTEX
  5
1A7
330
ED
100
AcDbEntity
  8
Make2D$visible$lines
100
AcDbVertex
100
AcDb2dVertex
 10
646.5789072292393
 20
1562.459690386172
 30
0.0
  0
VERTEX
  5
1A8
330
ED
100
AcDbEntity
  8
Make2D$visible$lines
100
AcDbVertex
100
AcDb2dVertex
 10
647.1005532547274
 20
1562.857655224998
 30
0.0
  0
VERTEX
  5
1A9
330
ED
100
AcDbEntity
  8
Make2D$visible$lines
100
AcDbVertex
100
AcDb2dVertex
 10
647.6148299285751
 20
1563.264741933919
 30
0.0
  0
VERTEX
  5
1AA
330
ED
100
AcDbEntity
  8
Make2D$visible$lines
100
AcDbVertex
100
AcDb2dVertex
 10
648.1214659916395
 20
1563.681327276762
 30
0.0
  0
VERTEX
  5
1AB
330
ED
100
AcDbEntity
  8
Make2D$visible$lines
100
AcDbVertex
100
AcDb2dVertex
 10
648.620190184778
 20
1564.107788017354
 30
0.0
  0
VERTEX
  5
1AC
330
ED
100
AcDbEntity
  8
Make2D$visible$lines
100
AcDbVertex
100
AcDb2dVertex
 10
649.110731248848
 20
1564.544500919523
 30
0.0
  0
VERTEX
  5
1AD
330
ED
100
AcDbEntity
  8
Make2D$visible$lines
100
AcDbVertex
100
AcDb2dVertex
 10
649.5928179247064
 20
1564.991842747094
 30
0.0
  0
VERTEX
  5
1AE
330
ED
100
AcDbEntity
  8
Make2D$visible$lines
100
AcDbVertex
100
AcDb2dVertex
 10
650.0661789532107
 20
1565.450190263895
 30
0.0
  0
VERTEX
  5
1AF
330
ED
100
AcDbEntity
  8
Make2D$visible$lines
100
AcDbVertex
100
AcDb2dVertex
 10
650.5305430752181
 20
1565.919920233754
 30
0.0
  0
VERTEX
  5
1B0
330
ED
100
AcDbEntity
  8
Make2D$visible$lines
100
AcDbVertex
100
AcDb2dVertex
 10
650.9856390315858
 20
1566.401409420495
 30
0.0
  0
VERTEX
  5
1B1
330
ED
100
AcDbEntity
  8
Make2D$visible$lines
100
AcDbVertex
100
AcDb2dVertex
 10
651.350739737944
 20
1566.804095916404
 30
0.0
  0
VERTEX
  5
1B2
330
ED
100
AcDbEntity
  8
Make2D$visible$lines
100
AcDbVertex
100
AcDb2dVertex
 10
651.7083641125718
 20
1567.213823003524
 30
0.0
  0
VERTEX
  5
1B3
330
ED
100
AcDbEntity
  8
Make2D$visible$lines
100
AcDbVertex
100
AcDb2dVertex
 10
652.0583111982397
 20
1567.630380217299
 30
0.0
  0
VERTEX
  5
1B4
330
ED
100
AcDbEntity
  8
Make2D$visible$lines
100
AcDbVertex
100
AcDb2dVertex
 10
652.4003879762035
 20
1568.053549474609
 30
0.0
  0
VERTEX
  5
1B5
330
ED
100
AcDbEntity
  8
Make2D$visible$lines
100
AcDbVertex
100
AcDb2dVertex
 10
652.7344097214766
 20
1568.483105452967
 30
0.0
  0
VERTEX
  5
1B6
330
ED
100
AcDbEntity
  8
Make2D$visible$lines
100
AcDbVertex
100
AcDb2dVertex
 10
653.0602003362751
 20
1568.9188159895
 30
0.0
  0
VERTEX
  5
1B7
330
ED
100
AcDbEntity
  8
Make2D$visible$lines
100
AcDbVertex
100
AcDb2dVertex
 10
653.3775926603738
 20
1569.360442498234
 30
0.0
  0
VERTEX
  5
1B8
330
ED
100
AcDbEntity
  8
Make2D$visible$lines
100
AcDbVertex
100
AcDb2dVertex
 10
653.6864287572241
 20
1569.807740404127
 30
0.0
 42
0.6011754407340053
  0
VERTEX
  5
1B9
330
ED
100
AcDbEntity
  8
Make2D$visible$lines
100
AcDbVertex
100
AcDb2dVertex
 10
645.3987581579293
 20
1585.405907713271
 30
0.0
  0
VERTEX
  5
1BA
330
ED
100
AcDbEntity
  8
Make2D$visible$lines
100
AcDbVertex
100
AcDb2dVertex
 10
645.387748386855
 20
1585.405910715396
 30
0.0
  0
VERTEX
  5
1BB
330
ED
100
AcDbEntity
  8
Make2D$visible$lines
100
AcDbVertex
100
AcDb2dVertex
 10
645.4023793071818
 20
1585.405910464808
 30
0.0
  0
VERTEX
  5
1BC
330
ED
100
AcDbEntity
  8
Make2D$visible$lines
100
AcDbVertex
100
AcDb2dVertex
 10
645.4023789365858
 20
1585.405910460705
 30
0.0
  0
VERTEX
  5
1BD
330
ED
100
AcDbEntity
  8
Make2D$visible$lines
100
AcDbVertex
100
AcDb2dVertex
 10
644.9106092819288
 20
1585.405909972949
 30
0.0
  0
VERTEX
  5
1BE
330
ED
100
AcDbEntity
  8
Make2D$visible$lines
100
AcDbVertex
100
AcDb2dVertex
 10
644.8708396915165
 20
1585.405909963768
 30
0.0
  0
SEQEND
  5
1BF
330
ED
100
AcDbEntity
  8
Make2D$visible$lines
  0
POLYLINE
  5
1C0
330
1F
100
AcDbEntity
  8
Make2D$visible$lines
100
AcDb2dPolyline
 66
     1
 10
0.0
 20
0.0
 30
0.0
  0
VERTEX
  5
1C1
330
1C0
100
AcDbEntity
  8
Make2D$visible$lines
100
AcDbVertex
100
AcDb2dVertex
 10
643.9770207471986
 20
1585.406078897929
 30
0.0
  0
VERTEX
  5
1C2
330
1C0
100
AcDbEntity
  8
Make2D$visible$lines
100
AcDbVertex
100
AcDb2dVertex
 10
644.7231393821961
 20
1585.406078897928
 30
0.0
  0
VERTEX
  5
1C3
330
1C0
100
AcDbEntity
  8
Make2D$visible$lines
100
AcDbVertex
100
AcDb2dVertex
 10
644.8471005599206
 20
1585.406210881731
 30
0.0
 42
0.2213024857648738
  0
VERTEX
  5
1C4
330
1C0
100
AcDbEntity
  8
Make2D$visible$lines
100
AcDbVertex
100
AcDb2dVertex
 10
644.909525459507
 20
1585.455403946075
 30
0.0
  0
SEQEND
  5
1C5
330
1C0
100
AcDbEntity
  8
Make2D$visible$lines
  0
POLYLINE
  5
1C6
330
1F
100
AcDbEntity
  8
Make2D$visible$lines
100
AcDb2dPolyline
 66
     1
 10
0.0
 20
0.0
 30
0.0
  0
VERTEX
  5
1C7
330
1C6
100
AcDbEntity
  8
Make2D$visible$lines
100
AcDbVertex
100
AcDb2dVertex
 10
646.2891370970727
 20
1585.584254398491
 30
0.0
  0
VERTEX
  5
1C8
330
1C6
100
AcDbEntity
  8
Make2D$visible$lines
100
AcDbVertex
100
AcDb2dVertex
 10
646.6684614872727
 20
1585.687167785218
 30
0.0
  0
VERTEX
  5
1C9
330
1C6
100
AcDbEntity
  8
Make2D$visible$lines
100
AcDbVertex
100
AcDb2dVertex
 10
647.3514894050472
 20
1585.893321672249
 30
0.0
  0
SEQEND
  5
1CA
330
1C6
100
AcDbEntity
  8
Make2D$visible$lines
  0
POLYLINE
  5
1CB
330
1F
100
AcDbEntity
  8
Make2D$visible$lines
100
AcDb2dPolyline
 66
     1
 10
0.0
 20
0.0
 30
0.0
  0
VERTEX
  5
1CC
330
1CB
100
AcDbEntity
  8
Make2D$visible$lines
100
AcDbVertex
100
AcDb2dVertex
 10
553.5031208925839
 20
1585.406078897928
 30
0.0
 42
-0.3280502044008371
  0
VERTEX
  5
1CD
330
1CB
100
AcDbEntity
  8
Make2D$visible$lines
100
AcDbVertex
100
AcDb2dVertex
 10
539.1857286441867
 20
1595.932570315097
 30
0.0
  0
VERTEX
  5
1CE
330
1CB
100
AcDbEntity
  8
Make2D$visible$lines
100
AcDbVertex
100
AcDb2dVertex
 10
538.5689116075708
 20
1597.928519908216
 30
0.0
  0
VERTEX
  5
1CF
330
1CB
100
AcDbEntity
  8
Make2D$visible$lines
100
AcDbVertex
100
AcDb2dVertex
 10
537.9621007460476
 20
1599.927727648506
 30
0.0
  0
VERTEX
  5
1D0
330
1CB
100
AcDbEntity
  8
Make2D$visible$lines
100
AcDbVertex
100
AcDb2dVertex
 10
537.3653216223383
 20
1601.930118278179
 30
0.0
  0
VERTEX
  5
1D1
330
1CB
100
AcDbEntity
  8
Make2D$visible$lines
100
AcDbVertex
100
AcDb2dVertex
 10
536.7785990432129
 20
1603.935616274215
 30
0.0
  0
VERTEX
  5
1D2
330
1CB
100
AcDbEntity
  8
Make2D$visible$lines
100
AcDbVertex
100
AcDb2dVertex
 10
536.2019570560786
 20
1605.944145857842
 30
0.0
  0
VERTEX
  5
1D3
330
1CB
100
AcDbEntity
  8
Make2D$visible$lines
100
AcDbVertex
100
AcDb2dVertex
 10
535.6354189457112
 20
1607.955631004087
 30
0.0
  0
VERTEX
  5
1D4
330
1CB
100
AcDbEntity
  8
Make2D$visible$lines
100
AcDbVertex
100
AcDb2dVertex
 10
535.0790072311306
 20
1609.969995451366
 30
0.0
  0
VERTEX
  5
1D5
330
1CB
100
AcDbEntity
  8
Make2D$visible$lines
100
AcDbVertex
100
AcDb2dVertex
 10
534.5327436626226
 20
1611.987162711122
 30
0.0
  0
VERTEX
  5
1D6
330
1CB
100
AcDbEntity
  8
Make2D$visible$lines
100
AcDbVertex
100
AcDb2dVertex
 10
533.9966492189047
 20
1614.007056077513
 30
0.0
  0
VERTEX
  5
1D7
330
1CB
100
AcDbEntity
  8
Make2D$visible$lines
100
AcDbVertex
100
AcDb2dVertex
 10
533.4707441044405
 20
1616.029598637135
 30
0.0
  0
VERTEX
  5
1D8
330
1CB
100
AcDbEntity
  8
Make2D$visible$lines
100
AcDbVertex
100
AcDb2dVertex
 10
532.9550477468997
 20
1618.054713278795
 30
0.0
  0
VERTEX
  5
1D9
330
1CB
100
AcDbEntity
  8
Make2D$visible$lines
100
AcDbVertex
100
AcDb2dVertex
 10
532.449578794767
 20
1620.082322703306
 30
0.0
  0
VERTEX
  5
1DA
330
1CB
100
AcDbEntity
  8
Make2D$visible$lines
100
AcDbVertex
100
AcDb2dVertex
 10
531.9543551150998
 20
1622.11234943333
 30
0.0
  0
VERTEX
  5
1DB
330
1CB
100
AcDbEntity
  8
Make2D$visible$lines
100
AcDbVertex
100
AcDb2dVertex
 10
531.4693937914348
 20
1624.144715823243
 30
0.0
  0
VERTEX
  5
1DC
330
1CB
100
AcDbEntity
  8
Make2D$visible$lines
100
AcDbVertex
100
AcDb2dVertex
 10
530.9947111218441
 20
1626.17934406904
 30
0.0
  0
VERTEX
  5
1DD
330
1CB
100
AcDbEntity
  8
Make2D$visible$lines
100
AcDbVertex
100
AcDb2dVertex
 10
530.5303226171429
 20
1628.216156218253
 30
0.0
  0
VERTEX
  5
1DE
330
1CB
100
AcDbEntity
  8
Make2D$visible$lines
100
AcDbVertex
100
AcDb2dVertex
 10
529.9078744078672
 20
1631.022539011747
 30
0.0
  0
VERTEX
  5
1DF
330
1CB
100
AcDbEntity
  8
Make2D$visible$lines
100
AcDbVertex
100
AcDb2dVertex
 10
529.3032463685338
 20
1633.833233613071
 30
0.0
  0
VERTEX
  5
1E0
330
1CB
100
AcDbEntity
  8
Make2D$visible$lines
100
AcDbVertex
100
AcDb2dVertex
 10
528.7164824667531
 20
1636.648070203771
 30
0.0
  0
VERTEX
  5
1E1
330
1CB
100
AcDbEntity
  8
Make2D$visible$lines
100
AcDbVertex
100
AcDb2dVertex
 10
528.1476245110072
 20
1639.466878376885
 30
0.0
  0
VERTEX
  5
1E2
330
1CB
100
AcDbEntity
  8
Make2D$visible$lines
100
AcDbVertex
100
AcDb2dVertex
 10
527.5967121409351
 20
1642.28948717128
 30
0.0
  0
VERTEX
  5
1E3
330
1CB
100
AcDbEntity
  8
Make2D$visible$lines
100
AcDbVertex
100
AcDb2dVertex
 10
527.0637828182741
 20
1645.115725106187
 30
0.0
  0
VERTEX
  5
1E4
330
1CB
100
AcDbEntity
  8
Make2D$visible$lines
100
AcDbVertex
100
AcDb2dVertex
 10
526.5488718184625
 20
1647.945420215906
 30
0.0
  0
VERTEX
  5
1E5
330
1CB
100
AcDbEntity
  8
Make2D$visible$lines
100
AcDbVertex
100
AcDb2dVertex
 10
526.0520122229055
 20
1650.778400084672
 30
0.0
  0
VERTEX
  5
1E6
330
1CB
100
AcDbEntity
  8
Make2D$visible$lines
100
AcDbVertex
100
AcDb2dVertex
 10
525.5732349119088
 20
1653.614491881671
 30
0.0
  0
VERTEX
  5
1E7
330
1CB
100
AcDbEntity
  8
Make2D$visible$lines
100
AcDbVertex
100
AcDb2dVertex
 10
525.1125685582844
 20
1656.453522396184
 30
0.0
  0
VERTEX
  5
1E8
330
1CB
100
AcDbEntity
  8
Make2D$visible$lines
100
AcDbVertex
100
AcDb2dVertex
 10
524.670039621628
 20
1659.295318072843
 30
0.0
  0
VERTEX
  5
1E9
330
1CB
100
AcDbEntity
  8
Make2D$visible$lines
100
AcDbVertex
100
AcDb2dVertex
 10
524.2456723432751
 20
1662.139705047002
 30
0.0
  0
VERTEX
  5
1EA
330
1CB
100
AcDbEntity
  8
Make2D$visible$lines
100
AcDbVertex
100
AcDb2dVertex
 10
523.8394887419324
 20
1664.986509180171
 30
0.0
  0
VERTEX
  5
1EB
330
1CB
100
AcDbEntity
  8
Make2D$visible$lines
100
AcDbVertex
100
AcDb2dVertex
 10
523.4515086099914
 20
1667.835556095543
 30
0.0
  0
VERTEX
  5
1EC
330
1CB
100
AcDbEntity
  8
Make2D$visible$lines
100
AcDbVertex
100
AcDb2dVertex
 10
523.0817495105211
 20
1670.686671213566
 30
0.0
  0
VERTEX
  5
1ED
330
1CB
100
AcDbEntity
  8
Make2D$visible$lines
100
AcDbVertex
100
AcDb2dVertex
 10
522.7302267749441
 20
1673.53967978755
 30
0.0
  0
VERTEX
  5
1EE
330
1CB
100
AcDbEntity
  8
Make2D$visible$lines
100
AcDbVertex
100
AcDb2dVertex
 10
522.3903620288385
 20
1676.435249753712
 30
0.0
  0
VERTEX
  5
1EF
330
1CB
100
AcDbEntity
  8
Make2D$visible$lines
100
AcDbVertex
100
AcDb2dVertex
 10
522.0684148995431
 20
1679.332922782952
 30
0.0
  0
VERTEX
  5
1F0
330
1CB
100
AcDbEntity
  8
Make2D$visible$lines
100
AcDbVertex
100
AcDb2dVertex
 10
521.7644043927646
 20
1682.232532506728
 30
0.0
  0
VERTEX
  5
1F1
330
1CB
100
AcDbEntity
  8
Make2D$visible$lines
100
AcDbVertex
100
AcDb2dVertex
 10
521.4783474538756
 20
1685.133912334034
 30
0.0
 42
-0.0027765966119553
  0
VERTEX
  5
1F2
330
1CB
100
AcDbEntity
  8
Make2D$visible$lines
100
AcDbVertex
100
AcDb2dVertex
 10
520.9575652455438
 20
1690.957714611046
 30
0.0
 42
-0.0142972786198283
  0
VERTEX
  5
1F3
330
1CB
100
AcDbEntity
  8
Make2D$visible$lines
100
AcDbVertex
100
AcDb2dVertex
 10
508.2112488830907
 20
1918.581931078189
 30
0.0
 42
-0.40711241220122
  0
VERTEX
  5
1F4
330
1CB
100
AcDbEntity
  8
Make2D$visible$lines
100
AcDbVertex
100
AcDb2dVertex
 10
512.955449472189
 20
1923.715650506853
 30
0.0
  0
VERTEX
  5
1F5
330
1CB
100
AcDbEntity
  8
Make2D$visible$lines
100
AcDbVertex
100
AcDb2dVertex
 10
512.9779818664856
 20
1923.718872290847
 30
0.0
  0
VERTEX
  5
1F6
330
1CB
100
AcDbEntity
  8
Make2D$visible$lines
100
AcDbVertex
100
AcDb2dVertex
 10
667.2388468251216
 20
1923.718872290847
 30
0.0
 42
0.4109247430037053
  0
VERTEX
  5
1F7
330
1CB
100
AcDbEntity
  8
Make2D$visible$lines
100
AcDbVertex
100
AcDb2dVertex
 10
672.238607806352
 20
1928.66171538037
 30
0.0
  0
VERTEX
  5
1F8
330
1CB
100
AcDbEntity
  8
Make2D$visible$lines
100
AcDbVertex
100
AcDb2dVertex
 10
672.3547750390985
 20
1939.567969598934
 30
0.0
 42
0.4171648408057599
  0
VERTEX
  5
1F9
330
1CB
100
AcDbEntity
  8
Make2D$visible$lines
100
AcDbVertex
100
AcDb2dVertex
 10
657.3555042444071
 20
1954.718872290847
 30
0.0
  0
VERTEX
  5
1FA
330
1CB
100
AcDbEntity
  8
Make2D$visible$lines
100
AcDbVertex
100
AcDb2dVertex
 10
522.6951823924039
 20
1954.718872290847
 30
0.0
 42
0.4208044030630012
  0
VERTEX
  5
1FB
330
1CB
100
AcDbEntity
  8
Make2D$visible$lines
100
AcDbVertex
100
AcDb2dVertex
 10
507.6951973561337
 20
1939.38583146793
 30
0.0
  0
VERTEX
  5
1FC
330
1CB
100
AcDbEntity
  8
Make2D$visible$lines
100
AcDbVertex
100
AcDb2dVertex
 10
507.9493929141672
 20
1928.594409315564
 30
0.0
 42
0.4069399175336057
  0
VERTEX
  5
1FD
330
1CB
100
AcDbEntity
  8
Make2D$visible$lines
100
AcDbVertex
100
AcDb2dVertex
 10
512.9478435689867
 20
1923.718872290847
 30
0.0
  0
SEQEND
  5
1FE
330
1CB
100
AcDbEntity
  8
Make2D$visible$lines
  0
POLYLINE
  5
1FF
330
1F
100
AcDbEntity
  8
Make2D$visible$lines
100
AcDb2dPolyline
 66
     1
 10
0.0
 20
0.0
 30
0.0
  0
VERTEX
  5
200
330
1FF
100
AcDbEntity
  8
Make2D$visible$lines
100
AcDbVertex
100
AcDb2dVertex
 10
595.819348757379
 20
1959.718872290847
 30
0.0
  0
VERTEX
  5
201
330
1FF
100
AcDbEntity
  8
Make2D$visible$lines
100
AcDbVertex
100
AcDb2dVertex
 10
595.8195117587874
 20
1961.718872290847
 30
0.0
 42
0.4142519871600005
  0
VERTEX
  5
202
330
1FF
100
AcDbEntity
  8
Make2D$visible$lines
100
AcDbVertex
100
AcDb2dVertex
 10
592.8196095596394
 20
1964.718872290847
 30
0.0
  0
VERTEX
  5
203
330
1FF
100
AcDbEntity
  8
Make2D$visible$lines
100
AcDbVertex
100
AcDb2dVertex
 10
568.8190879551187
 20
1964.718872290847
 30
0.0
 42
0.4142519871602843
  0
VERTEX
  5
204
330
1FF
100
AcDbEntity
  8
Make2D$visible$lines
100
AcDbVertex
100
AcDb2dVertex
 10
565.8191857559705
 20
1961.718872290847
 30
0.0
  0
VERTEX
  5
205
330
1FF
100
AcDbEntity
  8
Make2D$visible$lines
100
AcDbVertex
100
AcDb2dVertex
 10
565.819348757379
 20
1959.718872290847
 30
0.0
  0
SEQEND
  5
206
330
1FF
100
AcDbEntity
  8
Make2D$visible$lines
  0
POLYLINE
  5
207
330
1F
100
AcDbEntity
  8
Make2D$visible$lines
100
AcDb2dPolyline
 66
     1
 10
0.0
 20
0.0
 30
0.0
  0
VERTEX
  5
208
330
207
100
AcDbEntity
  8
Make2D$visible$lines
100
AcDbVertex
100
AcDb2dVertex
 10
507.536935968638
 20
1546.639966931234
 30
0.0
 42
-0.2497383059959561
  0
VERTEX
  5
209
330
207
100
AcDbEntity
  8
Make2D$visible$lines
100
AcDbVertex
100
AcDb2dVertex
 10
509.850990077524
 20
1541.513714574518
 30
0.0
 42
-0.0813119213656494
  0
VERTEX
  5
20A
330
207
100
AcDbEntity
  8
Make2D$visible$lines
100
AcDbVertex
100
AcDb2dVertex
 10
509.5054158902548
 20
1539.846078182763
 30
0.0
 42
-0.0185929221741166
  0
VERTEX
  5
20B
330
207
100
AcDbEntity
  8
Make2D$visible$lines
100
AcDbVertex
100
AcDb2dVertex
 10
488.8521952399187
 20
1488.794720159003
 30
0.0
 42
-0.1031550453522445
  0
VERTEX
  5
20C
330
207
100
AcDbEntity
  8
Make2D$visible$lines
100
AcDbVertex
100
AcDb2dVertex
 10
462.5052464289574
 20
1452.402907637158
 30
0.0
 42
-0.1036745592600419
  0
VERTEX
  5
20D
330
207
100
AcDbEntity
  8
Make2D$visible$lines
100
AcDbVertex
100
AcDb2dVertex
 10
423.6199044317818
 20
1429.51016038276
 30
0.0
  0
VERTEX
  5
20E
330
207
100
AcDbEntity
  8
Make2D$visible$lines
100
AcDbVertex
100
AcDb2dVertex
 10
422.4791732896815
 20
1429.118641771782
 30
0.0
  0
VERTEX
  5
20F
330
207
100
AcDbEntity
  8
Make2D$visible$lines
100
AcDbVertex
100
AcDb2dVertex
 10
421.3424118378143
 20
1428.7157425749
 30
0.0
  0
VERTEX
  5
210
330
207
100
AcDbEntity
  8
Make2D$visible$lines
100
AcDbVertex
100
AcDb2dVertex
 10
419.8960042790289
 20
1428.184381737359
 30
0.0
  0
VERTEX
  5
211
330
207
100
AcDbEntity
  8
Make2D$visible$lines
100
AcDbVertex
100
AcDb2dVertex
 10
418.4567861402109
 20
1427.633450712009
 30
0.0
  0
VERTEX
  5
212
330
207
100
AcDbEntity
  8
Make2D$visible$lines
100
AcDbVertex
100
AcDb2dVertex
 10
417.0251535990424
 20
1427.0630980905
 30
0.0
  0
VERTEX
  5
213
330
207
100
AcDbEntity
  8
Make2D$visible$lines
100
AcDbVertex
100
AcDb2dVertex
 10
415.6014986679629
 20
1426.473483128854
 30
0.0
  0
VERTEX
  5
214
330
207
100
AcDbEntity
  8
Make2D$visible$lines
100
AcDbVertex
100
AcDb2dVertex
 10
414.1427062019572
 20
1425.844729262574
 30
0.0
  0
VERTEX
  5
215
330
207
100
AcDbEntity
  8
Make2D$visible$lines
100
AcDbVertex
100
AcDb2dVertex
 10
412.6934365276038
 20
1425.193881255069
 30
0.0
  0
VERTEX
  5
216
330
207
100
AcDbEntity
  8
Make2D$visible$lines
100
AcDbVertex
100
AcDb2dVertex
 10
411.2541899181388
 20
1424.521159235943
 30
0.0
  0
VERTEX
  5
217
330
207
100
AcDbEntity
  8
Make2D$visible$lines
100
AcDbVertex
100
AcDb2dVertex
 10
409.8254597509226
 20
1423.826798384135
 30
0.0
  0
VERTEX
  5
218
330
207
100
AcDbEntity
  8
Make2D$visible$lines
100
AcDbVertex
100
AcDb2dVertex
 10
408.3520424718334
 20
1423.081211658553
 30
0.0
  0
VERTEX
  5
219
330
207
100
AcDbEntity
  8
Make2D$visible$lines
100
AcDbVertex
100
AcDb2dVertex
 10
406.8913567356871
 20
1422.310465049191
 30
0.0
  0
VERTEX
  5
21A
330
207
100
AcDbEntity
  8
Make2D$visible$lines
100
AcDbVertex
100
AcDb2dVertex
 10
405.4440441518689
 20
1421.514890137355
 30
0.0
  0
VERTEX
  5
21B
330
207
100
AcDbEntity
  8
Make2D$visible$lines
100
AcDbVertex
100
AcDb2dVertex
 10
404.0107346349266
 20
1420.694840216725
 30
0.0
  0
VERTEX
  5
21C
330
207
100
AcDbEntity
  8
Make2D$visible$lines
100
AcDbVertex
100
AcDb2dVertex
 10
402.5201005782688
 20
1419.80558582986
 30
0.0
  0
VERTEX
  5
21D
330
207
100
AcDbEntity
  8
Make2D$visible$lines
100
AcDbVertex
100
AcDb2dVertex
 10
401.046721570274
 20
1418.88740725261
 30
0.0
  0
VERTEX
  5
21E
330
207
100
AcDbEntity
  8
Make2D$visible$lines
100
AcDbVertex
100
AcDb2dVertex
 10
399.5914345249631
 20
1417.940814828876
 30
0.0
  0
VERTEX
  5
21F
330
207
100
AcDbEntity
  8
Make2D$visible$lines
100
AcDbVertex
100
AcDb2dVertex
 10
398.1550559284537
 20
1416.966350985055
 30
0.0
  0
VERTEX
  5
220
330
207
100
AcDbEntity
  8
Make2D$visible$lines
100
AcDbVertex
100
AcDb2dVertex
 10
397.396638806447
 20
1416.434760957352
 30
0.0
  0
VERTEX
  5
221
330
207
100
AcDbEntity
  8
Make2D$visible$lines
100
AcDbVertex
100
AcDb2dVertex
 10
396.6440395226296
 20
1415.894671065482
 30
0.0
  0
VERTEX
  5
222
330
207
100
AcDbEntity
  8
Make2D$visible$lines
100
AcDbVertex
100
AcDb2dVertex
 10
395.8974004163005
 20
1415.346177577376
 30
0.0
  0
VERTEX
  5
223
330
207
100
AcDbEntity
  8
Make2D$visible$lines
100
AcDbVertex
100
AcDb2dVertex
 10
395.156861685364
 20
1414.78937992718
 30
0.0
  0
VERTEX
  5
224
330
207
100
AcDbEntity
  8
Make2D$visible$lines
100
AcDbVertex
100
AcDb2dVertex
 10
394.4225612986265
 20
1414.224380655217
 30
0.0
  0
VERTEX
  5
225
330
207
100
AcDbEntity
  8
Make2D$visible$lines
100
AcDbVertex
100
AcDb2dVertex
 10
393.6946349101287
 20
1413.651285345062
 30
0.0
  0
VERTEX
  5
226
330
207
100
AcDbEntity
  8
Make2D$visible$lines
100
AcDbVertex
100
AcDb2dVertex
 10
392.9732157756246
 20
1413.070202557781
 30
0.0
  0
VERTEX
  5
227
330
207
100
AcDbEntity
  8
Make2D$visible$lines
100
AcDbVertex
100
AcDb2dVertex
 10
391.6129604336199
 20
1411.937035943343
 30
0.0
  0
VERTEX
  5
228
330
207
100
AcDbEntity
  8
Make2D$visible$lines
100
AcDbVertex
100
AcDb2dVertex
 10
390.9272153415104
 20
1411.346233878214
 30
0.0
  0
VERTEX
  5
229
330
207
100
AcDbEntity
  8
Make2D$visible$lines
100
AcDbVertex
100
AcDb2dVertex
 10
390.2482172534371
 20
1410.747414710259
 30
0.0
  0
VERTEX
  5
22A
330
207
100
AcDbEntity
  8
Make2D$visible$lines
100
AcDbVertex
100
AcDb2dVertex
 10
389.5761060660579
 20
1410.140694796555
 30
0.0
  0
VERTEX
  5
22B
330
207
100
AcDbEntity
  8
Make2D$visible$lines
100
AcDbVertex
100
AcDb2dVertex
 10
388.9110189818581
 20
1409.526193733391
 30
0.0
  0
VERTEX
  5
22C
330
207
100
AcDbEntity
  8
Make2D$visible$lines
100
AcDbVertex
100
AcDb2dVertex
 10
388.2530904158523
 20
1408.904034277759
 30
0.0
  0
VERTEX
  5
22D
330
207
100
AcDbEntity
  8
Make2D$visible$lines
100
AcDbVertex
100
AcDb2dVertex
 10
387.602451905051
 20
1408.274342265623
 30
0.0
  0
VERTEX
  5
22E
330
207
100
AcDbEntity
  8
Make2D$visible$lines
100
AcDbVertex
100
AcDb2dVertex
 10
386.9592320208183
 20
1407.637246527099
 30
0.0
  0
VERTEX
  5
22F
330
207
100
AcDbEntity
  8
Make2D$visible$lines
100
AcDbVertex
100
AcDb2dVertex
 10
386.323556284246
 20
1406.992878798667
 30
0.0
  0
VERTEX
  5
230
330
207
100
AcDbEntity
  8
Make2D$visible$lines
100
AcDbVertex
100
AcDb2dVertex
 10
385.5315397558811
 20
1406.168203598296
 30
0.0
  0
VERTEX
  5
231
330
207
100
AcDbEntity
  8
Make2D$visible$lines
100
AcDbVertex
100
AcDb2dVertex
 10
384.7518703365415
 20
1405.331304195415
 30
0.0
  0
VERTEX
  5
232
330
207
100
AcDbEntity
  8
Make2D$visible$lines
100
AcDbVertex
100
AcDb2dVertex
 10
383.9848288121586
 20
1404.482459921586
 30
0.0
  0
VERTEX
  5
233
330
207
100
AcDbEntity
  8
Make2D$visible$lines
100
AcDbVertex
100
AcDb2dVertex
 10
383.2306874784605
 20
1403.621958642776
 30
0.0
  0
VERTEX
  5
234
330
207
100
AcDbEntity
  8
Make2D$visible$lines
100
AcDbVertex
100
AcDb2dVertex
 10
382.4897098191899
 20
1402.750096434347
 30
0.0
  0
VERTEX
  5
235
330
207
100
AcDbEntity
  8
Make2D$visible$lines
100
AcDbVertex
100
AcDb2dVertex
 10
381.7621501993606
 20
1401.867177241593
 30
0.0
  0
VERTEX
  5
236
330
207
100
AcDbEntity
  8
Make2D$visible$lines
100
AcDbVertex
100
AcDb2dVertex
 10
381.0482535743006
 20
1400.973512526656
 30
0.0
  0
VERTEX
  5
237
330
207
100
AcDbEntity
  8
Make2D$visible$lines
100
AcDbVertex
100
AcDb2dVertex
 10
380.3482552151823
 20
1400.069420902681
 30
0.0
  0
VERTEX
  5
238
330
207
100
AcDbEntity
  8
Make2D$visible$lines
100
AcDbVertex
100
AcDb2dVertex
 10
379.5205680982278
 20
1398.961524071174
 30
0.0
  0
VERTEX
  5
239
330
207
100
AcDbEntity
  8
Make2D$visible$lines
100
AcDbVertex
100
AcDb2dVertex
 10
378.7131278428326
 20
1397.837908185284
 30
0.0
  0
VERTEX
  5
23A
330
207
100
AcDbEntity
  8
Make2D$visible$lines
100
AcDbVertex
100
AcDb2dVertex
 10
377.9263767307779
 20
1396.699132151911
 30
0.0
  0
VERTEX
  5
23B
330
207
100
AcDbEntity
  8
Make2D$visible$lines
100
AcDbVertex
100
AcDb2dVertex
 10
377.1607363217402
 20
1395.545771276049
 30
0.0
  0
VERTEX
  5
23C
330
207
100
AcDbEntity
  8
Make2D$visible$lines
100
AcDbVertex
100
AcDb2dVertex
 10
376.4166067022871
 20
1394.378416293463
 30
0.0
  0
VERTEX
  5
23D
330
207
100
AcDbEntity
  8
Make2D$visible$lines
100
AcDbVertex
100
AcDb2dVertex
 10
375.694365789422
 20
1393.197672362591
 30
0.0
  0
VERTEX
  5
23E
330
207
100
AcDbEntity
  8
Make2D$visible$lines
100
AcDbVertex
100
AcDb2dVertex
 10
374.9943686912289
 20
1392.004158019326
 30
0.0
  0
VERTEX
  5
23F
330
207
100
AcDbEntity
  8
Make2D$visible$lines
100
AcDbVertex
100
AcDb2dVertex
 10
374.2745168391712
 20
1390.721262347556
 30
0.0
  0
VERTEX
  5
240
330
207
100
AcDbEntity
  8
Make2D$visible$lines
100
AcDbVertex
100
AcDb2dVertex
 10
373.8036962656251
 20
1389.84909786009
 30
0.0
  0
VERTEX
  5
241
330
207
100
AcDbEntity
  8
Make2D$visible$lines
100
AcDbVertex
100
AcDb2dVertex
 10
373.3440270500215
 20
1388.970726787393
 30
0.0
  0
VERTEX
  5
242
330
207
100
AcDbEntity
  8
Make2D$visible$lines
100
AcDbVertex
100
AcDb2dVertex
 10
372.8956304620429
 20
1388.08636375077
 30
0.0
  0
VERTEX
  5
243
330
207
100
AcDbEntity
  8
Make2D$visible$lines
100
AcDbVertex
100
AcDb2dVertex
 10
372.4586222438072
 20
1387.196226494824
 30
0.0
  0
VERTEX
  5
244
330
207
100
AcDbEntity
  8
Make2D$visible$lines
100
AcDbVertex
100
AcDb2dVertex
 10
372.0331125104677
 20
1386.300535708859
 30
0.0
  0
VERTEX
  5
245
330
207
100
AcDbEntity
  8
Make2D$visible$lines
100
AcDbVertex
100
AcDb2dVertex
 10
371.6192056577599
 20
1385.39951484454
 30
0.0
  0
VERTEX
  5
246
330
207
100
AcDbEntity
  8
Make2D$visible$lines
100
AcDbVertex
100
AcDb2dVertex
 10
371.2170002766595
 20
1384.493389930117
 30
0.0
  0
VERTEX
  5
247
330
207
100
AcDbEntity
  8
Make2D$visible$lines
100
AcDbVertex
100
AcDb2dVertex
 10
370.8265890752973
 20
1383.582389381532
 30
0.0
  0
VERTEX
  5
248
330
207
100
AcDbEntity
  8
Make2D$visible$lines
100
AcDbVertex
100
AcDb2dVertex
 10
370.4580757366613
 20
1382.692141240534
 30
0.0
  0
VERTEX
  5
249
330
207
100
AcDbEntity
  8
Make2D$visible$lines
100
AcDbVertex
100
AcDb2dVertex
 10
370.1000871162535
 20
1381.797389238959
 30
0.0
  0
VERTEX
  5
24A
330
207
100
AcDbEntity
  8
Make2D$visible$lines
100
AcDbVertex
100
AcDb2dVertex
 10
369.7527046003215
 20
1380.89832048076
 30
0.0
  0
VERTEX
  5
24B
330
207
100
AcDbEntity
  8
Make2D$visible$lines
100
AcDbVertex
100
AcDb2dVertex
 10
369.4160051286461
 20
1379.995124004011
 30
0.0
  0
VERTEX
  5
24C
330
207
100
AcDbEntity
  8
Make2D$visible$lines
100
AcDbVertex
100
AcDb2dVertex
 10
369.0900611378729
 20
1379.087990648479
 30
0.0
  0
VERTEX
  5
24D
330
207
100
AcDbEntity
  8
Make2D$visible$lines
100
AcDbVertex
100
AcDb2dVertex
 10
368.7749405095885
 20
1378.177112921244
 30
0.0
  0
VERTEX
  5
24E
330
207
100
AcDbEntity
  8
Make2D$visible$lines
100
AcDbVertex
100
AcDb2dVertex
 10
368.4707065232184
 20
1377.26268486054
 30
0.0
  0
VERTEX
  5
24F
330
207
100
AcDbEntity
  8
Make2D$visible$lines
100
AcDbVertex
100
AcDb2dVertex
 10
368.1774178138146
 20
1376.344901898049
 30
0.0
  0
VERTEX
  5
250
330
207
100
AcDbEntity
  8
Make2D$visible$lines
100
AcDbVertex
100
AcDb2dVertex
 10
367.7023989067777
 20
1374.776094995294
 30
0.0
  0
VERTEX
  5
251
330
207
100
AcDbEntity
  8
Make2D$visible$lines
100
AcDbVertex
100
AcDb2dVertex
 10
367.2571220897778
 20
1373.198282487657
 30
0.0
  0
VERTEX
  5
252
330
207
100
AcDbEntity
  8
Make2D$visible$lines
100
AcDbVertex
100
AcDb2dVertex
 10
366.8418354210393
 20
1371.612312520798
 30
0.0
  0
VERTEX
  5
253
330
207
100
AcDbEntity
  8
Make2D$visible$lines
100
AcDbVertex
100
AcDb2dVertex
 10
366.4567546330982
 20
1370.019042033112
 30
0.0
  0
VERTEX
  5
254
330
207
100
AcDbEntity
  8
Make2D$visible$lines
100
AcDbVertex
100
AcDb2dVertex
 10
366.17482160077
 20
1368.76370050395
 30
0.0
  0
VERTEX
  5
255
330
207
100
AcDbEntity
  8
Make2D$visible$lines
100
AcDbVertex
100
AcDb2dVertex
 10
365.9108770123858
 20
1367.505170658696
 30
0.0
  0
VERTEX
  5
256
330
207
100
AcDbEntity
  8
Make2D$visible$lines
100
AcDbVertex
100
AcDb2dVertex
 10
365.6646787331875
 20
1366.243684233983
 30
0.0
  0
VERTEX
  5
257
330
207
100
AcDbEntity
  8
Make2D$visible$lines
100
AcDbVertex
100
AcDb2dVertex
 10
365.4359846284169
 20
1364.979472966449
 30
0.0
  0
VERTEX
  5
258
330
207
100
AcDbEntity
  8
Make2D$visible$lines
100
AcDbVertex
100
AcDb2dVertex
 10
365.2245525633155
 20
1363.712768592726
 30
0.0
  0
VERTEX
  5
259
330
207
100
AcDbEntity
  8
Make2D$visible$lines
100
AcDbVertex
100
AcDb2dVertex
 10
365.0301404031253
 20
1362.443802849453
 30
0.0
  0
VERTEX
  5
25A
330
207
100
AcDbEntity
  8
Make2D$visible$lines
100
AcDbVertex
100
AcDb2dVertex
 10
364.852506013088
 20
1361.172807473262
 30
0.0
  0
VERTEX
  5
25B
330
207
100
AcDbEntity
  8
Make2D$visible$lines
100
AcDbVertex
100
AcDb2dVertex
 10
364.6914072584452
 20
1359.90001420079
 30
0.0
  0
VERTEX
  5
25C
330
207
100
AcDbEntity
  8
Make2D$visible$lines
100
AcDbVertex
100
AcDb2dVertex
 10
364.5466020044387
 20
1358.625654768672
 30
0.0
  0
VERTEX
  5
25D
330
207
100
AcDbEntity
  8
Make2D$visible$lines
100
AcDbVertex
100
AcDb2dVertex
 10
364.4178481163106
 20
1357.349960913543
 30
0.0
  0
VERTEX
  5
25E
330
207
100
AcDbEntity
  8
Make2D$visible$lines
100
AcDbVertex
100
AcDb2dVertex
 10
364.3049034593022
 20
1356.073164372038
 30
0.0
  0
VERTEX
  5
25F
330
207
100
AcDbEntity
  8
Make2D$visible$lines
100
AcDbVertex
100
AcDb2dVertex
 10
364.2075258986555
 20
1354.795496880792
 30
0.0
  0
VERTEX
  5
260
330
207
100
AcDbEntity
  8
Make2D$visible$lines
100
AcDbVertex
100
AcDb2dVertex
 10
364.1254732996123
 20
1353.517190176442
 30
0.0
  0
VERTEX
  5
261
330
207
100
AcDbEntity
  8
Make2D$visible$lines
100
AcDbVertex
100
AcDb2dVertex
 10
364.0585035274142
 20
1352.238475995621
 30
0.0
  0
VERTEX
  5
262
330
207
100
AcDbEntity
  8
Make2D$visible$lines
100
AcDbVertex
100
AcDb2dVertex
 10
364.006374447303
 20
1350.959586074966
 30
0.0
  0
VERTEX
  5
263
330
207
100
AcDbEntity
  8
Make2D$visible$lines
100
AcDbVertex
100
AcDb2dVertex
 10
363.9688439245206
 20
1349.680752151111
 30
0.0
  0
VERTEX
  5
264
330
207
100
AcDbEntity
  8
Make2D$visible$lines
100
AcDbVertex
100
AcDb2dVertex
 10
363.9458745396792
 20
1348.419027262478
 30
0.0
  0
VERTEX
  5
265
330
207
100
AcDbEntity
  8
Make2D$visible$lines
100
AcDbVertex
100
AcDb2dVertex
 10
363.9366323967498
 20
1347.157102782674
 30
0.0
  0
VERTEX
  5
266
330
207
100
AcDbEntity
  8
Make2D$visible$lines
100
AcDbVertex
100
AcDb2dVertex
 10
363.9409011180218
 20
1345.895154320974
 30
0.0
  0
VERTEX
  5
267
330
207
100
AcDbEntity
  8
Make2D$visible$lines
100
AcDbVertex
100
AcDb2dVertex
 10
363.9584643257847
 20
1344.633357486653
 30
0.0
  0
VERTEX
  5
268
330
207
100
AcDbEntity
  8
Make2D$visible$lines
100
AcDbVertex
100
AcDb2dVertex
 10
363.9891056423282
 20
1343.371887888988
 30
0.0
  0
VERTEX
  5
269
330
207
100
AcDbEntity
  8
Make2D$visible$lines
100
AcDbVertex
100
AcDb2dVertex
 10
364.0326086899416
 20
1342.110921137252
 30
0.0
  0
VERTEX
  5
26A
330
207
100
AcDbEntity
  8
Make2D$visible$lines
100
AcDbVertex
100
AcDb2dVertex
 10
364.0887570909146
 20
1340.850632840722
 30
0.0
  0
VERTEX
  5
26B
330
207
100
AcDbEntity
  8
Make2D$visible$lines
100
AcDbVertex
100
AcDb2dVertex
 10
364.1573344675367
 20
1339.591198608673
 30
0.0
  0
VERTEX
  5
26C
330
207
100
AcDbEntity
  8
Make2D$visible$lines
100
AcDbVertex
100
AcDb2dVertex
 10
364.2381244420974
 20
1338.33279405038
 30
0.0
  0
VERTEX
  5
26D
330
207
100
AcDbEntity
  8
Make2D$visible$lines
100
AcDbVertex
100
AcDb2dVertex
 10
364.3309106368863
 20
1337.075594775118
 30
0.0
  0
VERTEX
  5
26E
330
207
100
AcDbEntity
  8
Make2D$visible$lines
100
AcDbVertex
100
AcDb2dVertex
 10
364.4354766741929
 20
1335.819776392162
 30
0.0
  0
VERTEX
  5
26F
330
207
100
AcDbEntity
  8
Make2D$visible$lines
100
AcDbVertex
100
AcDb2dVertex
 10
364.5516061763067
 20
1334.565514510789
 30
0.0
  0
VERTEX
  5
270
330
207
100
AcDbEntity
  8
Make2D$visible$lines
100
AcDbVertex
100
AcDb2dVertex
 10
364.6790827655173
 20
1333.312984740273
 30
0.0
  0
VERTEX
  5
271
330
207
100
AcDbEntity
  8
Make2D$visible$lines
100
AcDbVertex
100
AcDb2dVertex
 10
364.8176900641141
 20
1332.062362689889
 30
0.0
  0
VERTEX
  5
272
330
207
100
AcDbEntity
  8
Make2D$visible$lines
100
AcDbVertex
100
AcDb2dVertex
 10
364.9672116943867
 20
1330.813823968913
 30
0.0
  0
VERTEX
  5
273
330
207
100
AcDbEntity
  8
Make2D$visible$lines
100
AcDbVertex
100
AcDb2dVertex
 10
365.1274312786247
 20
1329.56754418662
 30
0.0
  0
VERTEX
  5
274
330
207
100
AcDbEntity
  8
Make2D$visible$lines
100
AcDbVertex
100
AcDb2dVertex
 10
365.3863702036563
 20
1327.711230639904
 30
0.0
  0
VERTEX
  5
275
330
207
100
AcDbEntity
  8
Make2D$visible$lines
100
AcDbVertex
100
AcDb2dVertex
 10
365.6678688823565
 20
1325.858063974475
 30
0.0
  0
VERTEX
  5
276
330
207
100
AcDbEntity
  8
Make2D$visible$lines
100
AcDbVertex
100
AcDb2dVertex
 10
365.9718674519528
 20
1324.008455079155
 30
0.0
  0
VERTEX
  5
277
330
207
100
AcDbEntity
  8
Make2D$visible$lines
100
AcDbVertex
100
AcDb2dVertex
 10
366.2982960817751
 20
1322.1628132666
 30
0.0
 42
0.0215999802480842
  0
VERTEX
  5
278
330
207
100
AcDbEntity
  8
Make2D$visible$lines
100
AcDbVertex
100
AcDb2dVertex
 10
369.6989321542886
 20
1307.321503431575
 30
0.0
 42
-0.9994322048894291
  0
VERTEX
  5
279
330
207
100
AcDbEntity
  8
Make2D$visible$lines
100
AcDbVertex
100
AcDb2dVertex
 10
345.9561956623863
 20
1306.874046814592
 30
0.0
  0
VERTEX
  5
27A
330
207
100
AcDbEntity
  8
Make2D$visible$lines
100
AcDbVertex
100
AcDb2dVertex
 10
345.955507267591
 20
1307.314619483621
 30
0.0
  0
VERTEX
  5
27B
330
207
100
AcDbEntity
  8
Make2D$visible$lines
100
AcDbVertex
100
AcDb2dVertex
 10
346.0068842025044
 20
1310.673931252217
 30
0.0
  0
VERTEX
  5
27C
330
207
100
AcDbEntity
  8
Make2D$visible$lines
100
AcDbVertex
100
AcDb2dVertex
 10
346.0158514934932
 20
1312.374477193994
 30
0.0
  0
VERTEX
  5
27D
330
207
100
AcDbEntity
  8
Make2D$visible$lines
100
AcDbVertex
100
AcDb2dVertex
 10
346.0047533727208
 20
1314.100091204746
 30
0.0
  0
VERTEX
  5
27E
330
207
100
AcDbEntity
  8
Make2D$visible$lines
100
AcDbVertex
100
AcDb2dVertex
 10
345.9669013695998
 20
1315.859129307465
 30
0.0
  0
VERTEX
  5
27F
330
207
100
AcDbEntity
  8
Make2D$visible$lines
100
AcDbVertex
100
AcDb2dVertex
 10
345.8956070135434
 20
1317.659947525141
 30
0.0
  0
VERTEX
  5
280
330
207
100
AcDbEntity
  8
Make2D$visible$lines
100
AcDbVertex
100
AcDb2dVertex
 10
345.8453288061058
 20
1318.578635434274
 30
0.0
  0
VERTEX
  5
281
330
207
100
AcDbEntity
  8
Make2D$visible$lines
100
AcDbVertex
100
AcDb2dVertex
 10
345.7841818339642
 20
1319.510901880768
 30
0.0
  0
VERTEX
  5
282
330
207
100
AcDbEntity
  8
Make2D$visible$lines
100
AcDbVertex
100
AcDb2dVertex
 10
345.7113300382952
 20
1320.457791367498
 30
0.0
  0
VERTEX
  5
283
330
207
100
AcDbEntity
  8
Make2D$visible$lines
100
AcDbVertex
100
AcDb2dVertex
 10
345.6259373602752
 20
1321.420348397337
 30
0.0
  0
VERTEX
  5
284
330
207
100
AcDbEntity
  8
Make2D$visible$lines
100
AcDbVertex
100
AcDb2dVertex
 10
345.5663261985674
 20
1321.426381516443
 30
0.0
  0
VERTEX
  5
285
330
207
100
AcDbEntity
  8
Make2D$visible$lines
100
AcDbVertex
100
AcDb2dVertex
 10
345.7154621363394
 20
1319.699109527458
 30
0.0
  0
VERTEX
  5
286
330
207
100
AcDbEntity
  8
Make2D$visible$lines
100
AcDbVertex
100
AcDb2dVertex
 10
345.8257389598081
 20
1318.018170103781
 30
0.0
  0
VERTEX
  5
287
330
207
100
AcDbEntity
  8
Make2D$visible$lines
100
AcDbVertex
100
AcDb2dVertex
 10
345.9017470774729
 20
1316.368095871222
 30
0.0
  0
VERTEX
  5
288
330
207
100
AcDbEntity
  8
Make2D$visible$lines
100
AcDbVertex
100
AcDb2dVertex
 10
345.9480768978335
 20
1314.73341945559
 30
0.0
  0
VERTEX
  5
289
330
207
100
AcDbEntity
  8
Make2D$visible$lines
100
AcDbVertex
100
AcDb2dVertex
 10
345.9693188293896
 20
1313.098673482693
 30
0.0
  0
VERTEX
  5
28A
330
207
100
AcDbEntity
  8
Make2D$visible$lines
100
AcDbVertex
100
AcDb2dVertex
 10
345.9700632806407
 20
1311.448390578342
 30
0.0
  0
VERTEX
  5
28B
330
207
100
AcDbEntity
  8
Make2D$visible$lines
100
AcDbVertex
100
AcDb2dVertex
 10
345.9549006600865
 20
1309.767103368344
 30
0.0
  0
VERTEX
  5
28C
330
207
100
AcDbEntity
  8
Make2D$visible$lines
100
AcDbVertex
100
AcDb2dVertex
 10
345.9125254608666
 20
1307.147068826408
 30
0.0
  0
VERTEX
  5
28D
330
207
100
AcDbEntity
  8
Make2D$visible$lines
100
AcDbVertex
100
AcDb2dVertex
 10
346.0330169470508
 20
1230.032002115865
 30
0.0
 42
0.4146481064425576
  0
VERTEX
  5
28E
330
207
100
AcDbEntity
  8
Make2D$visible$lines
100
AcDbVertex
100
AcDb2dVertex
 10
356.0634635587815
 20
1220.047673379406
 30
0.0
  0
VERTEX
  5
28F
330
207
100
AcDbEntity
  8
Make2D$visible$lines
100
AcDbVertex
100
AcDb2dVertex
 10
392.009595731533
 20
1220.157161559126
 30
0.0
 42
0.3737065190001427
  0
VERTEX
  5
290
330
207
100
AcDbEntity
  8
Make2D$visible$lines
100
AcDbVertex
100
AcDb2dVertex
 10
401.8851692829534
 20
1228.789444639865
 30
0.0
  0
VERTEX
  5
291
330
207
100
AcDbEntity
  8
Make2D$visible$lines
100
AcDbVertex
100
AcDb2dVertex
 10
404.8770395163427
 20
1250.179709192047
 30
0.0
 42
-0.0020104629716016
  0
VERTEX
  5
292
330
207
100
AcDbEntity
  8
Make2D$visible$lines
100
AcDbVertex
100
AcDb2dVertex
 10
406.7968027551631
 20
1263.471203333955
 30
0.0
  0
VERTEX
  5
293
330
207
100
AcDbEntity
  8
Make2D$visible$lines
100
AcDbVertex
100
AcDb2dVertex
 10
407.8588760454591
 20
1270.621156904513
 30
0.0
  0
VERTEX
  5
294
330
207
100
AcDbEntity
  8
Make2D$visible$lines
100
AcDbVertex
100
AcDb2dVertex
 10
409.1354086949452
 20
1278.986956768965
 30
0.0
 42
-0.0032066243163438
  0
VERTEX
  5
295
330
207
100
AcDbEntity
  8
Make2D$visible$lines
100
AcDbVertex
100
AcDb2dVertex
 10
411.0948022839534
 20
1291.278237516211
 30
0.0
  0
VERTEX
  5
296
330
207
100
AcDbEntity
  8
Make2D$visible$lines
100
AcDbVertex
100
AcDb2dVertex
 10
411.7763223257829
 20
1295.383870931034
 30
0.0
 42
-0.0050625099481769
  0
VERTEX
  5
297
330
207
100
AcDbEntity
  8
Make2D$visible$lines
100
AcDbVertex
100
AcDb2dVertex
 10
414.7406451257782
 20
1312.155521089336
 30
0.0
  0
VERTEX
  5
298
330
207
100
AcDbEntity
  8
Make2D$visible$lines
100
AcDbVertex
100
AcDb2dVertex
 10
414.8696139035401
 20
1312.844433508817
 30
0.0
 42
-0.0072807282908829
  0
VERTEX
  5
299
330
207
100
AcDbEntity
  8
Make2D$visible$lines
100
AcDbVertex
100
AcDb2dVertex
 10
418.6402282442093
 20
1331.514599274159
 30
0.0
  0
VERTEX
  5
29A
330
207
100
AcDbEntity
  8
Make2D$visible$lines
100
AcDbVertex
100
AcDb2dVertex
 10
419.0088079189136
 20
1333.192704515933
 30
0.0
 42
-0.0098989851050437
  0
VERTEX
  5
29B
330
207
100
AcDbEntity
  8
Make2D$visible$lines
100
AcDbVertex
100
AcDb2dVertex
 10
423.4071938705603
 20
1351.42515198772
 30
0.0
  0
VERTEX
  5
29C
330
207
100
AcDbEntity
  8
Make2D$visible$lines
100
AcDbVertex
100
AcDb2dVertex
 10
424.1811137071094
 20
1354.323098711529
 30
0.0
 42
-0.0138013656582918
  0
VERTEX
  5
29D
330
207
100
AcDbEntity
  8
Make2D$visible$lines
100
AcDbVertex
100
AcDb2dVertex
 10
429.5890677453282
 20
1372.480871994209
 30
0.0
  0
VERTEX
  5
29E
330
207
100
AcDbEntity
  8
Make2D$visible$lines
100
AcDbVertex
100
AcDb2dVertex
 10
439.9285212191228
 20
1403.849094112999
 30
0.0
  0
VERTEX
  5
29F
330
207
100
AcDbEntity
  8
Make2D$visible$lines
100
AcDbVertex
100
AcDb2dVertex
 10
456.8148375584981
 20
1434.087425852843
 30
0.0
  0
VERTEX
  5
2A0
330
207
100
AcDbEntity
  8
Make2D$visible$lines
100
AcDbVertex
100
AcDb2dVertex
 10
458.3846516277409
 20
1436.874421106849
 30
0.0
 42
-0.0112379660545479
  0
VERTEX
  5
2A1
330
207
100
AcDbEntity
  8
Make2D$visible$lines
100
AcDbVertex
100
AcDb2dVertex
 10
469.5311351247205
 20
1455.515296131958
 30
0.0
  0
VERTEX
  5
2A2
330
207
100
AcDbEntity
  8
Make2D$visible$lines
100
AcDbVertex
100
AcDb2dVertex
 10
470.8756861866027
 20
1457.653267050575
 30
0.0
  0
VERTEX
  5
2A3
330
207
100
AcDbEntity
  8
Make2D$visible$lines
100
AcDbVertex
100
AcDb2dVertex
 10
475.6305320680789
 20
1465.136168593964
 30
0.0
  0
VERTEX
  5
2A4
330
207
100
AcDbEntity
  8
Make2D$visible$lines
100
AcDbVertex
100
AcDb2dVertex
 10
477.9805767971858
 20
1468.879842328793
 30
0.0
  0
VERTEX
  5
2A5
330
207
100
AcDbEntity
  8
Make2D$visible$lines
100
AcDbVertex
100
AcDb2dVertex
 10
479.1439031388019
 20
1470.767195591787
 30
0.0
  0
VERTEX
  5
2A6
330
207
100
AcDbEntity
  8
Make2D$visible$lines
100
AcDbVertex
100
AcDb2dVertex
 10
480.2975839527342
 20
1472.670592415568
 30
0.0
 42
0.024500793182942
  0
VERTEX
  5
2A7
330
207
100
AcDbEntity
  8
Make2D$visible$lines
100
AcDbVertex
100
AcDb2dVertex
 10
487.8553000102479
 20
1486.592678256816
 30
0.0
  0
VERTEX
  5
2A8
330
207
100
AcDbEntity
  8
Make2D$visible$lines
100
AcDbVertex
100
AcDb2dVertex
 10
488.8695960553008
 20
1488.793634264242
 30
0.0
 42
0.0045918537357102
  0
VERTEX
  5
2A9
330
207
100
AcDbEntity
  8
Make2D$visible$lines
100
AcDbVertex
100
AcDb2dVertex
 10
492.4710354388829
 20
1496.952821557451
 30
0.0
  0
VERTEX
  5
2AA
330
207
100
AcDbEntity
  8
Make2D$visible$lines
100
AcDbVertex
100
AcDb2dVertex
 10
494.2766416098273
 20
1501.147341268152
 30
0.0
  0
VERTEX
  5
2AB
330
207
100
AcDbEntity
  8
Make2D$visible$lines
100
AcDbVertex
100
AcDb2dVertex
 10
495.9864451419598
 20
1505.186770412414
 30
0.0
 42
0.0027989589799183
  0
VERTEX
  5
2AC
330
207
100
AcDbEntity
  8
Make2D$visible$lines
100
AcDbVertex
100
AcDb2dVertex
 10
498.9223138326746
 20
1512.283892179105
 30
0.0
  0
VERTEX
  5
2AD
330
207
100
AcDbEntity
  8
Make2D$visible$lines
100
AcDbVertex
100
AcDb2dVertex
 10
499.1472600102006
 20
1512.836409591097
 30
0.0
  0
VERTEX
  5
2AE
330
207
100
AcDbEntity
  8
Make2D$visible$lines
100
AcDbVertex
100
AcDb2dVertex
 10
501.5070554804301
 20
1518.711079211297
 30
0.0
  0
VERTEX
  5
2AF
330
207
100
AcDbEntity
  8
Make2D$visible$lines
100
AcDbVertex
100
AcDb2dVertex
 10
503.3451532390925
 20
1523.390186497366
 30
0.0
  0
VERTEX
  5
2B0
330
207
100
AcDbEntity
  8
Make2D$visible$lines
100
AcDbVertex
100
AcDb2dVertex
 10
503.8825038385075
 20
1524.775881097379
 30
0.0
  0
VERTEX
  5
2B1
330
207
100
AcDbEntity
  8
Make2D$visible$lines
100
AcDbVertex
100
AcDb2dVertex
 10
506.1440492777716
 20
1530.699972953119
 30
0.0
  0
VERTEX
  5
2B2
330
207
100
AcDbEntity
  8
Make2D$visible$lines
100
AcDbVertex
100
AcDb2dVertex
 10
507.1189009357845
 20
1533.301172532086
 30
0.0
  0
VERTEX
  5
2B3
330
207
100
AcDbEntity
  8
Make2D$visible$lines
100
AcDbVertex
100
AcDb2dVertex
 10
508.3645905582885
 20
1536.668620144127
 30
0.0
  0
VERTEX
  5
2B4
330
207
100
AcDbEntity
  8
Make2D$visible$lines
100
AcDbVertex
100
AcDb2dVertex
 10
509.5228167056373
 20
1539.844992288002
 30
0.0
 42
0.0813452014954044
  0
VERTEX
  5
2B5
330
207
100
AcDbEntity
  8
Make2D$visible$lines
100
AcDbVertex
100
AcDb2dVertex
 10
509.8683908929072
 20
1541.512628679757
 30
0.0
 42
0.4154129874919581
  0
VERTEX
  5
2B6
330
207
100
AcDbEntity
  8
Make2D$visible$lines
100
AcDbVertex
100
AcDb2dVertex
 10
504.2514335601818
 20
1547.879936339422
 30
0.0
  0
VERTEX
  5
2B7
330
207
100
AcDbEntity
  8
Make2D$visible$lines
100
AcDbVertex
100
AcDb2dVertex
 10
389.207927952122
 20
1555.059205660212
 30
0.0
 42
0.3431981517220538
  0
VERTEX
  5
2B8
330
207
100
AcDbEntity
  8
Make2D$visible$lines
100
AcDbVertex
100
AcDb2dVertex
 10
383.1232063559514
 20
1550.935376638619
 30
0.0
 42
-0.0076659723176463
  0
VERTEX
  5
2B9
330
207
100
AcDbEntity
  8
Make2D$visible$lines
100
AcDbVertex
100
AcDb2dVertex
 10
378.8717489392993
 20
1538.570360484917
 30
0.0
  0
VERTEX
  5
2BA
330
207
100
AcDbEntity
  8
Make2D$visible$lines
100
AcDbVertex
100
AcDb2dVertex
 10
378.6671089788131
 20
1538.021567231515
 30
0.0
  0
VERTEX
  5
2BB
330
207
100
AcDbEntity
  8
Make2D$visible$lines
100
AcDbVertex
100
AcDb2dVertex
 10
373.8644098116075
 20
1524.773783032957
 30
0.0
 42
-0.0000032107602355
  0
VERTEX
  5
2BC
330
207
100
AcDbEntity
  8
Make2D$visible$lines
100
AcDbVertex
100
AcDb2dVertex
 10
373.8360620301119
 20
1524.695631180711
 30
0.0
 42
-0.0014755389312945
  0
VERTEX
  5
2BD
330
207
100
AcDbEntity
  8
Make2D$visible$lines
100
AcDbVertex
100
AcDb2dVertex
 10
364.0710159581343
 20
1498.003233660762
 30
0.0
 42
-0.0022789688781349
  0
VERTEX
  5
2BE
330
207
100
AcDbEntity
  8
Make2D$visible$lines
100
AcDbVertex
100
AcDb2dVertex
 10
353.459923453472
 20
1469.649624403088
 30
0.0
 42
-0.00182103679865
  0
VERTEX
  5
2BF
330
207
100
AcDbEntity
  8
Make2D$visible$lines
100
AcDbVertex
100
AcDb2dVertex
 10
347.6061663871758
 20
1454.397215129425
 30
0.0
 42
-0.0039939544979757
  0
VERTEX
  5
2C0
330
207
100
AcDbEntity
  8
Make2D$visible$lines
100
AcDbVertex
100
AcDb2dVertex
 10
339.2007967000181
 20
1433.203780436352
 30
0.0
  0
VERTEX
  5
2C1
330
207
100
AcDbEntity
  8
Make2D$visible$lines
100
AcDbVertex
100
AcDb2dVertex
 10
339.1669993044897
 20
1433.182793832721
 30
0.0
 42
-0.0093241412787417
  0
VERTEX
  5
2C2
330
207
100
AcDbEntity
  8
Make2D$visible$lines
100
AcDbVertex
100
AcDb2dVertex
 10
330.5072802142408
 20
1412.849285348105
 30
0.0
  0
VERTEX
  5
2C3
330
207
100
AcDbEntity
  8
Make2D$visible$lines
100
AcDbVertex
100
AcDb2dVertex
 10
330.0284538059154
 20
1411.763063367965
 30
0.0
  0
VERTEX
  5
2C4
330
207
100
AcDbEntity
  8
Make2D$visible$lines
100
AcDbVertex
100
AcDb2dVertex
 10
329.5764447668761
 20
1410.664210851329
 30
0.0
  0
VERTEX
  5
2C5
330
207
100
AcDbEntity
  8
Make2D$visible$lines
100
AcDbVertex
100
AcDb2dVertex
 10
329.1517388205344
 20
1409.553726543144
 30
0.0
  0
VERTEX
  5
2C6
330
207
100
AcDbEntity
  8
Make2D$visible$lines
100
AcDbVertex
100
AcDb2dVertex
 10
328.754771794762
 20
1408.432633454247
 30
0.0
  0
VERTEX
  5
2C7
330
207
100
AcDbEntity
  8
Make2D$visible$lines
100
AcDbVertex
100
AcDb2dVertex
 10
328.3859281456862
 20
1407.301975727054
 30
0.0
  0
VERTEX
  5
2C8
330
207
100
AcDbEntity
  8
Make2D$visible$lines
100
AcDbVertex
100
AcDb2dVertex
 10
328.0455397189762
 20
1406.162815396572
 30
0.0
  0
VERTEX
  5
2C9
330
207
100
AcDbEntity
  8
Make2D$visible$lines
100
AcDbVertex
100
AcDb2dVertex
 10
327.7338847569837
 20
1405.016229067787
 30
0.0
  0
VERTEX
  5
2CA
330
207
100
AcDbEntity
  8
Make2D$visible$lines
100
AcDbVertex
100
AcDb2dVertex
 10
327.4511871579598
 20
1403.863304531248
 30
0.0
  0
VERTEX
  5
2CB
330
207
100
AcDbEntity
  8
Make2D$visible$lines
100
AcDbVertex
100
AcDb2dVertex
 10
327.2028860496039
 20
1402.720011954662
 30
0.0
  0
VERTEX
  5
2CC
330
207
100
AcDbEntity
  8
Make2D$visible$lines
100
AcDbVertex
100
AcDb2dVertex
 10
326.983797515035
 20
1401.570944691396
 30
0.0
  0
VERTEX
  5
2CD
330
207
100
AcDbEntity
  8
Make2D$visible$lines
100
AcDbVertex
100
AcDb2dVertex
 10
326.7938267867234
 20
1400.416066120609
 30
0.0
  0
VERTEX
  5
2CE
330
207
100
AcDbEntity
  8
Make2D$visible$lines
100
AcDbVertex
100
AcDb2dVertex
 10
326.6328790971396
 20
1399.255339621464
 30
0.0
  0
VERTEX
  5
2CF
330
207
100
AcDbEntity
  8
Make2D$visible$lines
100
AcDbVertex
100
AcDb2dVertex
 10
326.5008596787538
 20
1398.088728573123
 30
0.0
  0
VERTEX
  5
2D0
330
207
100
AcDbEntity
  8
Make2D$visible$lines
100
AcDbVertex
100
AcDb2dVertex
 10
326.3976737640367
 20
1396.916196354746
 30
0.0
  0
VERTEX
  5
2D1
330
207
100
AcDbEntity
  8
Make2D$visible$lines
100
AcDbVertex
100
AcDb2dVertex
 10
326.3232265854586
 20
1395.737706345496
 30
0.0
  0
VERTEX
  5
2D2
330
207
100
AcDbEntity
  8
Make2D$visible$lines
100
AcDbVertex
100
AcDb2dVertex
 10
326.2774233754899
 20
1394.553221924533
 30
0.0
  0
VERTEX
  5
2D3
330
207
100
AcDbEntity
  8
Make2D$visible$lines
100
AcDbVertex
100
AcDb2dVertex
 10
326.260120681375
 20
1393.367226334915
 30
0.0
  0
VERTEX
  5
2D4
330
207
100
AcDbEntity
  8
Make2D$visible$lines
100
AcDbVertex
100
AcDb2dVertex
 10
326.2706966655347
 20
1392.182496624051
 30
0.0
  0
VERTEX
  5
2D5
330
207
100
AcDbEntity
  8
Make2D$visible$lines
100
AcDbVertex
100
AcDb2dVertex
 10
326.3084071083822
 20
1390.999004031024
 30
0.0
  0
VERTEX
  5
2D6
330
207
100
AcDbEntity
  8
Make2D$visible$lines
100
AcDbVertex
100
AcDb2dVertex
 10
326.3725077903309
 20
1389.816719794918
 30
0.0
  0
VERTEX
  5
2D7
330
207
100
AcDbEntity
  8
Make2D$visible$lines
100
AcDbVertex
100
AcDb2dVertex
 10
326.4622544917942
 20
1388.635615154816
 30
0.0
  0
VERTEX
  5
2D8
330
207
100
AcDbEntity
  8
Make2D$visible$lines
100
AcDbVertex
100
AcDb2dVertex
 10
326.5769029931853
 20
1387.455661349799
 30
0.0
  0
VERTEX
  5
2D9
330
207
100
AcDbEntity
  8
Make2D$visible$lines
100
AcDbVertex
100
AcDb2dVertex
 10
326.7157090749176
 20
1386.276829618952
 30
0.0
  0
VERTEX
  5
2DA
330
207
100
AcDbEntity
  8
Make2D$visible$lines
100
AcDbVertex
100
AcDb2dVertex
 10
326.8779285174044
 20
1385.099091201358
 30
0.0
  0
VERTEX
  5
2DB
330
207
100
AcDbEntity
  8
Make2D$visible$lines
100
AcDbVertex
100
AcDb2dVertex
 10
327.0283770929198
 20
1384.142056155785
 30
0.0
  0
VERTEX
  5
2DC
330
207
100
AcDbEntity
  8
Make2D$visible$lines
100
AcDbVertex
100
AcDb2dVertex
 10
327.1916453638459
 20
1383.186861141689
 30
0.0
  0
VERTEX
  5
2DD
330
207
100
AcDbEntity
  8
Make2D$visible$lines
100
AcDbVertex
100
AcDb2dVertex
 10
327.3676981498423
 20
1382.233763483918
 30
0.0
  0
VERTEX
  5
2DE
330
207
100
AcDbEntity
  8
Make2D$visible$lines
100
AcDbVertex
100
AcDb2dVertex
 10
327.5564933899515
 20
1381.283019566637
 30
0.0
  0
VERTEX
  5
2DF
330
207
100
AcDbEntity
  8
Make2D$visible$lines
100
AcDbVertex
100
AcDb2dVertex
 10
327.7579821755758
 20
1380.334884603562
 30
0.0
  0
VERTEX
  5
2E0
330
207
100
AcDbEntity
  8
Make2D$visible$lines
100
AcDbVertex
100
AcDb2dVertex
 10
327.9721087926506
 20
1379.38961240966
 30
0.0
  0
VERTEX
  5
2E1
330
207
100
AcDbEntity
  8
Make2D$visible$lines
100
AcDbVertex
100
AcDb2dVertex
 10
328.1988107729372
 20
1378.447455174703
 30
0.0
  0
VERTEX
  5
2E2
330
207
100
AcDbEntity
  8
Make2D$visible$lines
100
AcDbVertex
100
AcDb2dVertex
 10
328.4380189543356
 20
1377.50866323914
 30
0.0
  0
VERTEX
  5
2E3
330
207
100
AcDbEntity
  8
Make2D$visible$lines
100
AcDbVertex
100
AcDb2dVertex
 10
328.8194578458342
 20
1376.085260069153
 30
0.0
  0
VERTEX
  5
2E4
330
207
100
AcDbEntity
  8
Make2D$visible$lines
100
AcDbVertex
100
AcDb2dVertex
 10
329.2239122667494
 20
1374.667117298433
 30
0.0
  0
VERTEX
  5
2E5
330
207
100
AcDbEntity
  8
Make2D$visible$lines
100
AcDbVertex
100
AcDb2dVertex
 10
329.649415420934
 20
1373.254654449197
 30
0.0
  0
VERTEX
  5
2E6
330
207
100
AcDbEntity
  8
Make2D$visible$lines
100
AcDbVertex
100
AcDb2dVertex
 10
330.0940005122409
 20
1371.848291043659
 30
0.0
  0
VERTEX
  5
2E7
330
207
100
AcDbEntity
  8
Make2D$visible$lines
100
AcDbVertex
100
AcDb2dVertex
 10
330.5557007445227
 20
1370.448446604033
 30
0.0
  0
VERTEX
  5
2E8
330
207
100
AcDbEntity
  8
Make2D$visible$lines
100
AcDbVertex
100
AcDb2dVertex
 10
331.0325493216322
 20
1369.055540652535
 30
0.0
  0
VERTEX
  5
2E9
330
207
100
AcDbEntity
  8
Make2D$visible$lines
100
AcDbVertex
100
AcDb2dVertex
 10
331.5225794474223
 20
1367.669992711379
 30
0.0
  0
VERTEX
  5
2EA
330
207
100
AcDbEntity
  8
Make2D$visible$lines
100
AcDbVertex
100
AcDb2dVertex
 10
332.0646456034201
 20
1366.18154634037
 30
0.0
  0
VERTEX
  5
2EB
330
207
100
AcDbEntity
  8
Make2D$visible$lines
100
AcDbVertex
100
AcDb2dVertex
 10
333.025487272781
 20
1363.630234825814
 30
0.0
  0
VERTEX
  5
2EC
330
207
100
AcDbEntity
  8
Make2D$visible$lines
100
AcDbVertex
100
AcDb2dVertex
 10
334.0083977944424
 20
1361.101027493688
 30
0.0
  0
VERTEX
  5
2ED
330
207
100
AcDbEntity
  8
Make2D$visible$lines
100
AcDbVertex
100
AcDb2dVertex
 10
336.8437290425528
 20
1353.978399857813
 30
0.0
  0
VERTEX
  5
2EE
330
207
100
AcDbEntity
  8
Make2D$visible$lines
100
AcDbVertex
100
AcDb2dVertex
 10
337.6545356703429
 20
1351.90199869144
 30
0.0
  0
VERTEX
  5
2EF
330
207
100
AcDbEntity
  8
Make2D$visible$lines
100
AcDbVertex
100
AcDb2dVertex
 10
338.4494095970948
 20
1349.819446259457
 30
0.0
  0
VERTEX
  5
2F0
330
207
100
AcDbEntity
  8
Make2D$visible$lines
100
AcDbVertex
100
AcDb2dVertex
 10
339.3652592027684
 20
1347.352649848052
 30
0.0
  0
VERTEX
  5
2F1
330
207
100
AcDbEntity
  8
Make2D$visible$lines
100
AcDbVertex
100
AcDb2dVertex
 10
340.2074446637973
 20
1344.961248941673
 30
0.0
  0
VERTEX
  5
2F2
330
207
100
AcDbEntity
  8
Make2D$visible$lines
100
AcDbVertex
100
AcDb2dVertex
 10
340.9087910001796
 20
1342.86954640834
 30
0.0
  0
VERTEX
  5
2F3
330
207
100
AcDbEntity
  8
Make2D$visible$lines
100
AcDbVertex
100
AcDb2dVertex
 10
341.5787921108856
 20
1340.765007088312
 30
0.0
  0
VERTEX
  5
2F4
330
207
100
AcDbEntity
  8
Make2D$visible$lines
100
AcDbVertex
100
AcDb2dVertex
 10
342.2139171214488
 20
1338.648761574649
 30
0.0
  0
VERTEX
  5
2F5
330
207
100
AcDbEntity
  8
Make2D$visible$lines
100
AcDbVertex
100
AcDb2dVertex
 10
342.5172976909059
 20
1337.586602305536
 30
0.0
  0
VERTEX
  5
2F6
330
207
100
AcDbEntity
  8
Make2D$visible$lines
100
AcDbVertex
100
AcDb2dVertex
 10
342.8106351574023
 20
1336.521940460412
 30
0.0
  0
VERTEX
  5
2F7
330
207
100
AcDbEntity
  8
Make2D$visible$lines
100
AcDbVertex
100
AcDb2dVertex
 10
343.0934881616296
 20
1335.454917363411
 30
0.0
  0
VERTEX
  5
2F8
330
207
100
AcDbEntity
  8
Make2D$visible$lines
100
AcDbVertex
100
AcDb2dVertex
 10
343.3654153442793
 20
1334.385674338663
 30
0.0
  0
VERTEX
  5
2F9
330
207
100
AcDbEntity
  8
Make2D$visible$lines
100
AcDbVertex
100
AcDb2dVertex
 10
343.6259753460432
 20
1333.314352710303
 30
0.0
  0
VERTEX
  5
2FA
330
207
100
AcDbEntity
  8
Make2D$visible$lines
100
AcDbVertex
100
AcDb2dVertex
 10
343.874726807613
 20
1332.241093802462
 30
0.0
  0
VERTEX
  5
2FB
330
207
100
AcDbEntity
  8
Make2D$visible$lines
100
AcDbVertex
100
AcDb2dVertex
 10
344.1112283696802
 20
1331.166038939273
 30
0.0
  0
VERTEX
  5
2FC
330
207
100
AcDbEntity
  8
Make2D$visible$lines
100
AcDbVertex
100
AcDb2dVertex
 10
344.3350386729367
 20
1330.08932944487
 30
0.0
  0
VERTEX
  5
2FD
330
207
100
AcDbEntity
  8
Make2D$visible$lines
100
AcDbVertex
100
AcDb2dVertex
 10
344.5457163580738
 20
1329.011106643384
 30
0.0
  0
VERTEX
  5
2FE
330
207
100
AcDbEntity
  8
Make2D$visible$lines
100
AcDbVertex
100
AcDb2dVertex
 10
344.8548899168807
 20
1327.280296702622
 30
0.0
  0
VERTEX
  5
2FF
330
207
100
AcDbEntity
  8
Make2D$visible$lines
100
AcDbVertex
100
AcDb2dVertex
 10
345.0873709400526
 20
1325.820901917841
 30
0.0
  0
VERTEX
  5
300
330
207
100
AcDbEntity
  8
Make2D$visible$lines
100
AcDbVertex
100
AcDb2dVertex
 10
345.2934399941343
 20
1324.357299716629
 30
0.0
  0
VERTEX
  5
301
330
207
100
AcDbEntity
  8
Make2D$visible$lines
100
AcDbVertex
100
AcDb2dVertex
 10
345.4729893580019
 20
1322.890208075191
 30
0.0
  0
VERTEX
  5
302
330
207
100
AcDbEntity
  8
Make2D$visible$lines
100
AcDbVertex
100
AcDb2dVertex
 10
345.6259373602753
 20
1321.420348397337
 30
0.0
  0
SEQEND
  5
303
330
207
100
AcDbEntity
  8
Make2D$visible$lines
  0
POLYLINE
  5
304
330
1F
100
AcDbEntity
  8
Make2D$visible$lines
100
AcDb2dPolyline
 66
     1
 10
0.0
 20
0.0
 30
0.0
  0
VERTEX
  5
305
330
304
100
AcDbEntity
  8
Make2D$visible$lines
100
AcDbVertex
100
AcDb2dVertex
 10
646.5810361858787
 20
1585.66637094492
 30
0.0
  0
VERTEX
  5
306
330
304
100
AcDbEntity
  8
Make2D$visible$lines
100
AcDbVertex
100
AcDb2dVertex
 10
646.2986808446104
 20
1585.571230659721
 30
0.0
  0
VERTEX
  5
307
330
304
100
AcDbEntity
  8
Make2D$visible$lines
100
AcDbVertex
100
AcDb2dVertex
 10
646.2493201138507
 20
1585.560865996388
 30
0.0
  0
VERTEX
  5
308
330
304
100
AcDbEntity
  8
Make2D$visible$lines
100
AcDbVertex
100
AcDb2dVertex
 10
646.0434898220431
 20
1585.492388550786
 30
0.0
  0
SEQEND
  5
309
330
304
100
AcDbEntity
  8
Make2D$visible$lines
  0
POLYLINE
  5
30A
330
1F
100
AcDbEntity
  8
Make2D$visible$lines
100
AcDb2dPolyline
 66
     1
 10
0.0
 20
0.0
 30
0.0
  0
VERTEX
  5
30B
330
30A
100
AcDbEntity
  8
Make2D$visible$lines
100
AcDbVertex
100
AcDb2dVertex
 10
466.9715551721749
 20
1322.130340754296
 30
0.0
  0
VERTEX
  5
30C
330
30A
100
AcDbEntity
  8
Make2D$visible$lines
100
AcDbVertex
100
AcDb2dVertex
 10
580.819348757379
 20
1322.130340754296
 30
0.0
  0
VERTEX
  5
30D
330
30A
100
AcDbEntity
  8
Make2D$visible$lines
100
AcDbVertex
100
AcDb2dVertex
 10
580.819348757379
 20
1418.130340754296
 30
0.0
  0
VERTEX
  5
30E
330
30A
100
AcDbEntity
  8
Make2D$visible$lines
100
AcDbVertex
100
AcDb2dVertex
 10
477.8190159951846
 20
1418.130340754296
 30
0.0
  0
SEQEND
  5
30F
330
30A
100
AcDbEntity
  8
Make2D$visible$lines
  0
ENDSEC
  0
SECTION
  2
OBJECTS
  0
DICTIONARY
  5
C
330
0
100
AcDbDictionary
281
     1
  3
ACAD_GROUP
350
D
  3
ACAD_LAYOUT
350
1A
  3
ACAD_MATERIAL
350
3B
  3
ACAD_MLEADERSTYLE
350
33A
  3
ACAD_MLINESTYLE
350
17
  3
ACAD_PLOTSETTINGS
350
19
  3
ACAD_PLOTSTYLENAME
350
E
  3
ACAD_SCALELIST
350
3F
  3
ACAD_TABLESTYLE
350
339
  3
ACAD_VISUALSTYLE
350
2A
  3
AcDbVariableDictionary
350
310
  0
DICTIONARY
  5
D
102
{ACAD_REACTORS
330
C
102
}
330
C
100
AcDbDictionary
281
     1
  0
DICTIONARY
  5
1A
102
{ACAD_REACTORS
330
C
102
}
330
C
100
AcDbDictionary
281
     1
  3
Layout1
350
1E
  3
Layout2
350
26
  3
Model
350
22
  0
DICTIONARY
  5
3B
102
{ACAD_REACTORS
330
C
102
}
330
C
100
AcDbDictionary
281
     1
  3
ByBlock
350
3D
  3
ByLayer
350
3C
  3
Global
350
3E
  0
DICTIONARY
  5
33A
102
{ACAD_REACTORS
330
C
102
}
330
C
100
AcDbDictionary
281
     1
  0
DICTIONARY
  5
17
102
{ACAD_REACTORS
330
C
102
}
330
C
100
AcDbDictionary
281
     1
  3
Standard
350
18
  0
DICTIONARY
  5
19
102
{ACAD_REACTORS
330
C
102
}
330
C
100
AcDbDictionary
281
     1
  0
ACDBDICTIONARYWDFLT
  5
E
102
{ACAD_REACTORS
330
C
102
}
330
C
100
AcDbDictionary
281
     1
  3
Normal
350
F
100
AcDbDictionaryWithDefault
340
F
  0
DICTIONARY
  5
3F
102
{ACAD_REACTORS
330
C
102
}
330
C
100
AcDbDictionary
281
     1
  3
A0
350
40
  3
A1
350
41
  3
A2
350
42
  3
A3
350
43
  3
A4
350
44
  3
A5
350
45
  3
A6
350
46
  3
A7
350
47
  3
A8
350
48
  3
A9
350
49
  3
B0
350
4A
  3
B1
350
4B
  3
B2
350
4C
  3
B3
350
4D
  3
B4
350
4E
  3
B5
350
4F
  3
B6
350
50
  3
B7
350
51
  3
B8
350
52
  3
B9
350
53
  3
C0
350
54
  3
C1
350
55
  3
C2
350
56
  3
C3
350
57
  3
C4
350
58
  3
C5
350
59
  3
C6
350
5A
  3
C7
350
5B
  3
C8
350
5C
  3
C9
350
5D
  3
D0
350
5E
  3
D1
350
5F
  3
D2
350
60
  0
DICTIONARY
  5
339
102
{ACAD_REACTORS
330
C
102
}
330
C
100
AcDbDictionary
281
     1
  0
DICTIONARY
  5
2A
102
{ACAD_REACTORS
330
C
102
}
330
C
100
AcDbDictionary
281
     1
  3
2dWireframe
350
2F
  3
3D Hidden
350
31
  3
3dWireframe
350
30
  3
Basic
350
32
  3
Brighten
350
36
  3
ColorChange
350
3A
  3
Conceptual
350
34
  3
Dim
350
35
  3
Facepattern
350
39
  3
Flat
350
2B
  3
FlatWithEdges
350
2C
  3
Gouraud
350
2D
  3
GouraudWithEdges
350
2E
  3
Linepattern
350
38
  3
Realistic
350
33
  3
Thicken
350
37
  0
DICTIONARY
  5
310
102
{ACAD_REACTORS
330
C
102
}
330
C
100
AcDbDictionary
281
     1
  3
CANNOSCALE
350
311
  3
MSLTSCALE
350
312
  0
LAYOUT
  5
1E
102
{ACAD_REACTORS
330
1A
102
}
330
1A
100
AcDbPlotSettings
  1

  2
none_device
  4

  6

 40
0.0
 41
0.0
 42
0.0
 43
0.0
 44
0.0
 45
0.0
 46
0.0
 47
0.0
 48
0.0
 49
0.0
140
0.0
141
0.0
142
1.0
143
1.0
 70
   688
 72
     0
 73
     0
 74
     5
  7

 75
    16
 76
     0
 77
     2
 78
   300
147
1.0
148
0.0
149
0.0
100
AcDbLayout
  1
Layout1
 70
     1
 71
     1
 10
0.0
 20
0.0
 11
12.0
 21
9.0
 12
0.0
 22
0.0
 32
0.0
 14
1.000000000000000E+20
 24
1.000000000000000E+20
 34
1.000000000000000E+20
 15
-1.000000000000000E+20
 25
-1.000000000000000E+20
 35
-1.000000000000000E+20
146
0.0
 13
0.0
 23
0.0
 33
0.0
 16
1.0
 26
0.0
 36
0.0
 17
0.0
 27
1.0
 37
0.0
 76
     0
330
1B
  0
LAYOUT
  5
26
102
{ACAD_REACTORS
330
1A
102
}
330
1A
100
AcDbPlotSettings
  1

  2
none_device
  4

  6

 40
0.0
 41
0.0
 42
0.0
 43
0.0
 44
0.0
 45
0.0
 46
0.0
 47
0.0
 48
0.0
 49
0.0
140
0.0
141
0.0
142
1.0
143
1.0
 70
   688
 72
     0
 73
     0
 74
     5
  7

 75
    16
 76
     0
 77
     2
 78
   300
147
1.0
148
0.0
149
0.0
100
AcDbLayout
  1
Layout2
 70
     1
 71
     2
 10
0.0
 20
0.0
 11
0.0
 21
0.0
 12
0.0
 22
0.0
 32
0.0
 14
0.0
 24
0.0
 34
0.0
 15
0.0
 25
0.0
 35
0.0
146
0.0
 13
0.0
 23
0.0
 33
0.0
 16
1.0
 26
0.0
 36
0.0
 17
0.0
 27
1.0
 37
0.0
 76
     0
330
23
  0
LAYOUT
  5
22
102
{ACAD_REACTORS
330
1A
102
}
330
1A
100
AcDbPlotSettings
  1

  2
none_device
  4
Letter_(8.50_x_11.00_Inches)
  6

 40
6.35
 41
6.35
 42
6.35000508
 43
6.35000508
 44
215.9
 45
279.4
 46
0.0
 47
0.0
 48
0.0
 49
0.0
140
0.0
141
0.0
142
1.0
143
1.0
 70
  1712
 72
     0
 73
     0
 74
     0
  7

 75
     0
 76
     0
 77
     2
 78
   300
147
1.0
148
0.0
149
0.0
100
AcDbLayout
  1
Model
 70
     1
 71
     0
 10
0.0
 20
0.0
 11
12.0
 21
9.0
 12
0.0
 22
0.0
 32
0.0
 14
0.0000000007164136
 24
1190.129449943328
 34
0.0
 15
672.3555343699355
 25
1964.718872294492
 35
0.0
146
0.0
 13
0.0
 23
0.0
 33
0.0
 16
1.0
 26
0.0
 36
0.0
 17
0.0
 27
1.0
 37
0.0
 76
     0
330
1F
331
29
  0
MATERIAL
  5
3D
102
{ACAD_REACTORS
330
3B
102
}
102
{ACAD_XDICTIONARY
360
335
102
}
330
3B
100
AcDbMaterial
  1
ByBlock
  0
MATERIAL
  5
3C
102
{ACAD_REACTORS
330
3B
102
}
102
{ACAD_XDICTIONARY
360
333
102
}
330
3B
100
AcDbMaterial
  1
ByLayer
  0
MATERIAL
  5
3E
102
{ACAD_REACTORS
330
3B
102
}
102
{ACAD_XDICTIONARY
360
337
102
}
330
3B
100
AcDbMaterial
  1
Global
  0
MLINESTYLE
  5
18
102
{ACAD_REACTORS
330
17
102
}
330
17
100
AcDbMlineStyle
  2
Standard
 70
     0
  3

 62
   256
 51
90.0
 52
90.0
 71
     2
 49
0.5
 62
   256
  6
BYLAYER
 49
-0.5
 62
   256
  6
BYLAYER
  0
ACDBPLACEHOLDER
  5
F
102
{ACAD_REACTORS
330
E
102
}
330
E
  0
SCALE
  5
40
102
{ACAD_REACTORS
330
3F
102
}
330
3F
100
AcDbScale
 70
     0
300
1:1
140
1.0
141
1.0
290
     1
  0
SCALE
  5
41
102
{ACAD_REACTORS
330
3F
102
}
330
3F
100
AcDbScale
 70
     0
300
1:2
140
1.0
141
2.0
290
     0
  0
SCALE
  5
42
102
{ACAD_REACTORS
330
3F
102
}
330
3F
100
AcDbScale
 70
     0
300
1:4
140
1.0
141
4.0
290
     0
  0
SCALE
  5
43
102
{ACAD_REACTORS
330
3F
102
}
330
3F
100
AcDbScale
 70
     0
300
1:5
140
1.0
141
5.0
290
     0
  0
SCALE
  5
44
102
{ACAD_REACTORS
330
3F
102
}
330
3F
100
AcDbScale
 70
     0
300
1:8
140
1.0
141
8.0
290
     0
  0
SCALE
  5
45
102
{ACAD_REACTORS
330
3F
102
}
330
3F
100
AcDbScale
 70
     0
300
1:10
140
1.0
141
10.0
290
     0
  0
SCALE
  5
46
102
{ACAD_REACTORS
330
3F
102
}
330
3F
100
AcDbScale
 70
     0
300
1:16
140
1.0
141
16.0
290
     0
  0
SCALE
  5
47
102
{ACAD_REACTORS
330
3F
102
}
330
3F
100
AcDbScale
 70
     0
300
1:20
140
1.0
141
20.0
290
     0
  0
SCALE
  5
48
102
{ACAD_REACTORS
330
3F
102
}
330
3F
100
AcDbScale
 70
     0
300
1:30
140
1.0
141
30.0
290
     0
  0
SCALE
  5
49
102
{ACAD_REACTORS
330
3F
102
}
330
3F
100
AcDbScale
 70
     0
300
1:40
140
1.0
141
40.0
290
     0
  0
SCALE
  5
4A
102
{ACAD_REACTORS
330
3F
102
}
330
3F
100
AcDbScale
 70
     0
300
1:50
140
1.0
141
50.0
290
     0
  0
SCALE
  5
4B
102
{ACAD_REACTORS
330
3F
102
}
330
3F
100
AcDbScale
 70
     0
300
1:100
140
1.0
141
100.0
290
     0
  0
SCALE
  5
4C
102
{ACAD_REACTORS
330
3F
102
}
330
3F
100
AcDbScale
 70
     0
300
2:1
140
2.0
141
1.0
290
     0
  0
SCALE
  5
4D
102
{ACAD_REACTORS
330
3F
102
}
330
3F
100
AcDbScale
 70
     0
300
4:1
140
4.0
141
1.0
290
     0
  0
SCALE
  5
4E
102
{ACAD_REACTORS
330
3F
102
}
330
3F
100
AcDbScale
 70
     0
300
8:1
140
8.0
141
1.0
290
     0
  0
SCALE
  5
4F
102
{ACAD_REACTORS
330
3F
102
}
330
3F
100
AcDbScale
 70
     0
300
10:1
140
10.0
141
1.0
290
     0
  0
SCALE
  5
50
102
{ACAD_REACTORS
330
3F
102
}
330
3F
100
AcDbScale
 70
     0
300
100:1
140
100.0
141
1.0
290
     0
  0
SCALE
  5
51
102
{ACAD_REACTORS
330
3F
102
}
330
3F
100
AcDbScale
 70
     0
300
1/128" = 1'-0"
140
0.0078125
141
12.0
290
     0
  0
SCALE
  5
52
102
{ACAD_REACTORS
330
3F
102
}
330
3F
100
AcDbScale
 70
     0
300
1/64" = 1'-0"
140
0.015625
141
12.0
290
     0
  0
SCALE
  5
53
102
{ACAD_REACTORS
330
3F
102
}
330
3F
100
AcDbScale
 70
     0
300
1/32" = 1'-0"
140
0.03125
141
12.0
290
     0
  0
SCALE
  5
54
102
{ACAD_REACTORS
330
3F
102
}
330
3F
100
AcDbScale
 70
     0
300
1/16" = 1'-0"
140
0.0625
141
12.0
290
     0
  0
SCALE
  5
55
102
{ACAD_REACTORS
330
3F
102
}
330
3F
100
AcDbScale
 70
     0
300
3/32" = 1'-0"
140
0.09375
141
12.0
290
     0
  0
SCALE
  5
56
102
{ACAD_REACTORS
330
3F
102
}
330
3F
100
AcDbScale
 70
     0
300
1/8" = 1'-0"
140
0.125
141
12.0
290
     0
  0
SCALE
  5
57
102
{ACAD_REACTORS
330
3F
102
}
330
3F
100
AcDbScale
 70
     0
300
3/16" = 1'-0"
140
0.1875
141
12.0
290
     0
  0
SCALE
  5
58
102
{ACAD_REACTORS
330
3F
102
}
330
3F
100
AcDbScale
 70
     0
300
1/4" = 1'-0"
140
0.25
141
12.0
290
     0
  0
SCALE
  5
59
102
{ACAD_REACTORS
330
3F
102
}
330
3F
100
AcDbScale
 70
     0
300
3/8" = 1'-0"
140
0.375
141
12.0
290
     0
  0
SCALE
  5
5A
102
{ACAD_REACTORS
330
3F
102
}
330
3F
100
AcDbScale
 70
     0
300
1/2" = 1'-0"
140
0.5
141
12.0
290
     0
  0
SCALE
  5
5B
102
{ACAD_REACTORS
330
3F
102
}
330
3F
100
AcDbScale
 70
     0
300
3/4" = 1'-0"
140
0.75
141
12.0
290
     0
  0
SCALE
  5
5C
102
{ACAD_REACTORS
330
3F
102
}
330
3F
100
AcDbScale
 70
     0
300
1" = 1'-0"
140
1.0
141
12.0
290
     0
  0
SCALE
  5
5D
102
{ACAD_REACTORS
330
3F
102
}
330
3F
100
AcDbScale
 70
     0
300
1-1/2" = 1'-0"
140
1.5
141
12.0
290
     0
  0
SCALE
  5
5E
102
{ACAD_REACTORS
330
3F
102
}
330
3F
100
AcDbScale
 70
     0
300
3" = 1'-0"
140
3.0
141
12.0
290
     0
  0
SCALE
  5
5F
102
{ACAD_REACTORS
330
3F
102
}
330
3F
100
AcDbScale
 70
     0
300
6" = 1'-0"
140
6.0
141
12.0
290
     0
  0
SCALE
  5
60
102
{ACAD_REACTORS
330
3F
102
}
330
3F
100
AcDbScale
 70
     0
300
1'-0" = 1'-0"
140
12.0
141
12.0
290
     0
  0
VISUALSTYLE
  5
2F
102
{ACAD_REACTORS
330
2A
102
}
102
{ACAD_XDICTIONARY
360
31B
102
}
330
2A
100
AcDbVisualStyle
  2
2dWireframe
 70
     4
 71
     0
 72
     2
 73
     0
 90
        0
 40
0.6
 41
30.0
 62
     5
 63
     7
421
 16777215
 74
     1
 91
        4
 64
     7
 65
   257
 75
     1
175
     1
 42
1.0
 92
        0
 66
   257
 43
1.0
 76
     1
 77
     6
 78
     2
 67
     7
 79
     5
170
     0
171
     0
290
     0
174
     0
 93
        1
 44
0.0
173
     0
291
     0
 45
0.0
1001
ACAD
1000
AcDbSavedByObjectVersion
1070
     0
  0
VISUALSTYLE
  5
31
102
{ACAD_REACTORS
330
2A
102
}
102
{ACAD_XDICTIONARY
360
31F
102
}
330
2A
100
AcDbVisualStyle
  2
3D Hidden
 70
     6
 71
     1
 72
     2
 73
     2
 90
        0
 40
0.6
 41
30.0
 62
     5
 63
     7
421
 16777215
 74
     2
 91
        2
 64
     7
 65
   257
 75
     2
175
     1
 42
40.0
 92
        0
 66
   257
 43
1.0
 76
     1
 77
     6
 78
     2
 67
     7
 79
     3
170
     0
171
     0
290
     0
174
     0
 93
        1
 44
0.0
173
     0
291
     0
 45
0.0
1001
ACAD
1000
AcDbSavedByObjectVersion
1070
     0
  0
VISUALSTYLE
  5
30
102
{ACAD_REACTORS
330
2A
102
}
102
{ACAD_XDICTIONARY
360
31D
102
}
330
2A
100
AcDbVisualStyle
  2
3dWireframe
 70
     5
 71
     0
 72
     2
 73
     0
 90
        0
 40
0.6
 41
30.0
 62
     5
 63
     7
421
 16777215
 74
     1
 91
        4
 64
     7
 65
   257
 75
     1
175
     1
 42
1.0
 92
        0
 66
   257
 43
1.0
 76
     1
 77
     6
 78
     2
 67
     7
 79
     5
170
     0
171
     0
290
     0
174
     0
 93
        1
 44
0.0
173
     0
291
     0
 45
0.0
1001
ACAD
1000
AcDbSavedByObjectVersion
1070
     0
  0
VISUALSTYLE
  5
32
102
{ACAD_REACTORS
330
2A
102
}
102
{ACAD_XDICTIONARY
360
321
102
}
330
2A
100
AcDbVisualStyle
  2
Basic
 70
     7
 71
     1
 72
     0
 73
     1
 90
        0
 40
0.6
 41
30.0
 62
     5
 63
     7
421
 16777215
 74
     0
 91
        4
 64
     7
 65
   257
 75
     1
175
     1
 42
1.0
 92
        8
 66
     7
 43
1.0
 76
     1
 77
     6
 78
     2
 67
     7
 79
     5
170
     0
171
     0
290
     0
174
     0
 93
        1
 44
0.0
173
     0
291
     1
 45
0.0
1001
ACAD
1000
AcDbSavedByObjectVersion
1070
     0
  0
VISUALSTYLE
  5
36
102
{ACAD_REACTORS
330
2A
102
}
102
{ACAD_XDICTIONARY
360
329
102
}
330
2A
100
AcDbVisualStyle
  2
Brighten
 70
    12
 71
     2
 72
     2
 73
     0
 90
        0
 40
0.6
 41
30.0
 62
     5
 63
     7
421
 16777215
 74
     1
 91
        4
 64
     7
 65
   257
 75
     1
175
     1
 42
1.0
 92
        8
 66
     7
 43
1.0
 76
     1
 77
     6
 78
     2
 67
     7
 79
     5
170
     0
171
     0
290
     0
174
     0
 93
        1
 44
50.0
173
     0
291
     1
 45
0.0
1001
ACAD
1000
AcDbSavedByObjectVersion
1070
     0
  0
VISUALSTYLE
  5
3A
102
{ACAD_REACTORS
330
2A
102
}
102
{ACAD_XDICTIONARY
360
331
102
}
330
2A
100
AcDbVisualStyle
  2
ColorChange
 70
    16
 71
     2
 72
     2
 73
     3
 90
        0
 40
0.6
 41
30.0
 62
     5
 63
     8
421
  8421504
 74
     1
 91
        4
 64
     7
 65
   257
 75
     1
175
     1
 42
1.0
 92
        8
 66
     8
424
  8421504
 43
1.0
 76
     1
 77
     6
 78
     2
 67
     7
 79
     5
170
     0
171
     0
290
     0
174
     0
 93
        1
 44
0.0
173
     0
291
     1
 45
0.0
1001
ACAD
1000
AcDbSavedByObjectVersion
1070
     0
  0
VISUALSTYLE
  5
34
102
{ACAD_REACTORS
330
2A
102
}
102
{ACAD_XDICTIONARY
360
325
102
}
330
2A
100
AcDbVisualStyle
  2
Conceptual
 70
     9
 71
     3
 72
     2
 73
     0
 90
        0
 40
0.6
 41
30.0
 62
     5
 63
     7
421
 16777215
 74
     2
 91
        2
 64
     7
 65
   257
 75
     1
175
     1
 42
40.0
 92
        8
 66
     7
 43
1.0
 76
     1
 77
     6
 78
     2
 67
     7
 79
     3
170
     0
171
     0
290
     0
174
     0
 93
        1
 44
0.0
173
     0
291
     0
 45
0.0
1001
ACAD
1000
AcDbSavedByObjectVersion
1070
     0
  0
VISUALSTYLE
  5
35
102
{ACAD_REACTORS
330
2A
102
}
102
{ACAD_XDICTIONARY
360
327
102
}
330
2A
100
AcDbVisualStyle
  2
Dim
 70
    11
 71
     2
 72
     2
 73
     0
 90
        0
 40
0.6
 41
30.0
 62
     5
 63
     7
421
 16777215
 74
     1
 91
        4
 64
     7
 65
   257
 75
     1
175
     1
 42
1.0
 92
        8
 66
     7
 43
1.0
 76
     1
 77
     6
 78
     2
 67
     7
 79
     5
170
     0
171
     0
290
     0
174
     0
 93
        1
 44
-50.0
173
     0
291
     1
 45
0.0
1001
ACAD
1000
AcDbSavedByObjectVersion
1070
     0
  0
VISUALSTYLE
  5
39
102
{ACAD_REACTORS
330
2A
102
}
102
{ACAD_XDICTIONARY
360
32F
102
}
330
2A
100
AcDbVisualStyle
  2
Facepattern
 70
    15
 71
     2
 72
     2
 73
     0
 90
        0
 40
0.6
 41
30.0
 62
     5
 63
     7
421
 16777215
 74
     1
 91
        4
 64
     7
 65
   257
 75
     1
175
     1
 42
1.0
 92
        8
 66
     7
 43
1.0
 76
     1
 77
     6
 78
     2
 67
     7
 79
     5
170
     0
171
     0
290
     0
174
     0
 93
        1
 44
0.0
173
     0
291
     1
 45
0.0
1001
ACAD
1000
AcDbSavedByObjectVersion
1070
     0
  0
VISUALSTYLE
  5
2B
102
{ACAD_REACTORS
330
2A
102
}
102
{ACAD_XDICTIONARY
360
313
102
}
330
2A
100
AcDbVisualStyle
  2
Flat
 70
     0
 71
     2
 72
     1
 73
     1
 90
        2
 40
0.6
 41
30.0
 62
     5
 63
     7
421
 16777215
 74
     0
 91
        4
 64
     7
 65
   257
 75
     1
175
     1
 42
1.0
 92
        8
 66
     7
 43
1.0
 76
     1
 77
     6
 78
     2
 67
     7
 79
     5
170
     0
171
     0
290
     0
174
     0
 93
       13
 44
0.0
173
     0
291
     1
 45
0.0
1001
ACAD
1000
AcDbSavedByObjectVersion
1070
     0
  0
VISUALSTYLE
  5
2C
102
{ACAD_REACTORS
330
2A
102
}
102
{ACAD_XDICTIONARY
360
315
102
}
330
2A
100
AcDbVisualStyle
  2
FlatWithEdges
 70
     1
 71
     2
 72
     1
 73
     1
 90
        2
 40
0.6
 41
30.0
 62
     5
 63
     7
421
 16777215
 74
     1
 91
        4
 64
     7
 65
   257
 75
     1
175
     1
 42
1.0
 92
        0
 66
   257
 43
1.0
 76
     1
 77
     6
 78
     2
 67
     7
 79
     5
170
     0
171
     0
290
     0
174
     0
 93
       13
 44
0.0
173
     0
291
     1
 45
0.0
1001
ACAD
1000
AcDbSavedByObjectVersion
1070
     0
  0
VISUALSTYLE
  5
2D
102
{ACAD_REACTORS
330
2A
102
}
102
{ACAD_XDICTIONARY
360
317
102
}
330
2A
100
AcDbVisualStyle
  2
Gouraud
 70
     2
 71
     2
 72
     2
 73
     1
 90
        2
 40
0.6
 41
30.0
 62
     5
 63
     7
421
 16777215
 74
     0
 91
        4
 64
     7
 65
   257
 75
     1
175
     1
 42
1.0
 92
        0
 66
     7
 43
1.0
 76
     1
 77
     6
 78
     2
 67
     7
 79
     5
170
     0
171
     0
290
     0
174
     0
 93
       13
 44
0.0
173
     0
291
     1
 45
0.0
1001
ACAD
1000
AcDbSavedByObjectVersion
1070
     0
  0
VISUALSTYLE
  5
2E
102
{ACAD_REACTORS
330
2A
102
}
102
{ACAD_XDICTIONARY
360
319
102
}
330
2A
100
AcDbVisualStyle
  2
GouraudWithEdges
 70
     3
 71
     2
 72
     2
 73
     1
 90
        2
 40
0.6
 41
30.0
 62
     5
 63
     7
421
 16777215
 74
     1
 91
        4
 64
     7
 65
   257
 75
     1
175
     1
 42
1.0
 92
        0
 66
   257
 43
1.0
 76
     1
 77
     6
 78
     2
 67
     7
 79
     5
170
     0
171
     0
290
     0
174
     0
 93
       13
 44
0.0
173
     0
291
     1
 45
0.0
1001
ACAD
1000
AcDbSavedByObjectVersion
1070
     0
  0
VISUALSTYLE
  5
38
102
{ACAD_REACTORS
330
2A
102
}
102
{ACAD_XDICTIONARY
360
32D
102
}
330
2A
100
AcDbVisualStyle
  2
Linepattern
 70
    14
 71
     2
 72
     2
 73
     0
 90
        0
 40
0.6
 41
30.0
 62
     5
 63
     7
421
 16777215
 74
     1
 91
        4
 64
     7
 65
   257
 75
     7
175
     7
 42
1.0
 92
        8
 66
     7
 43
1.0
 76
     1
 77
     6
 78
     2
 67
     7
 79
     5
170
     0
171
     0
290
     0
174
     0
 93
        1
 44
0.0
173
     0
291
     1
 45
0.0
1001
ACAD
1000
AcDbSavedByObjectVersion
1070
     0
  0
VISUALSTYLE
  5
33
102
{ACAD_REACTORS
330
2A
102
}
102
{ACAD_XDICTIONARY
360
323
102
}
330
2A
100
AcDbVisualStyle
  2
Realistic
 70
     8
 71
     2
 72
     3
 73
     0
 90
        2
 40
0.6
 41
30.0
 62
     5
 63
     7
421
 16777215
 74
     0
 91
        0
 64
     7
 65
   257
 75
     1
175
     1
 42
1.0
 92
        8
 66
   257
 43
1.0
 76
     1
 77
     6
 78
     2
 67
     7
 79
     3
170
     0
171
     0
290
     0
174
     0
 93
       13
 44
0.0
173
     0
291
     0
 45
0.0
1001
ACAD
1000
AcDbSavedByObjectVersion
1070
     0
  0
VISUALSTYLE
  5
37
102
{ACAD_REACTORS
330
2A
102
}
102
{ACAD_XDICTIONARY
360
32B
102
}
330
2A
100
AcDbVisualStyle
  2
Thicken
 70
    13
 71
     2
 72
     2
 73
     0
 90
        0
 40
0.6
 41
30.0
 62
     5
 63
     7
421
 16777215
 74
     1
 91
        4
 64
     7
 65
   257
 75
     1
175
     1
 42
1.0
 92
       12
 66
     7
 43
1.0
 76
     1
 77
     6
 78
     2
 67
     7
 79
     5
170
     0
171
     0
290
     0
174
     0
 93
        1
 44
0.0
173
     0
291
     1
 45
0.0
1001
ACAD
1000
AcDbSavedByObjectVersion
1070
     0
  0
DICTIONARYVAR
  5
311
102
{ACAD_REACTORS
330
310
102
}
330
310
100
DictionaryVariables
280
     0
  1
1:1
  0
DICTIONARYVAR
  5
312
102
{ACAD_REACTORS
330
310
102
}
330
310
100
DictionaryVariables
280
     0
  1
1
  0
DICTIONARY
  5
335
330
3D
100
AcDbDictionary
280
     1
281
     1
  3
ACAD_XREC_ROUNDTRIP
360
336
  0
DICTIONARY
  5
333
330
3C
100
AcDbDictionary
280
     1
281
     1
  3
ACAD_XREC_ROUNDTRIP
360
334
  0
DICTIONARY
  5
337
330
3E
100
AcDbDictionary
280
     1
281
     1
  3
ACAD_XREC_ROUNDTRIP
360
338
  0
DICTIONARY
  5
31B
330
2F
100
AcDbDictionary
280
     1
281
     1
  3
ACAD_XREC_ROUNDTRIP
360
31C
  0
DICTIONARY
  5
31F
330
31
100
AcDbDictionary
280
     1
281
     1
  3
ACAD_XREC_ROUNDTRIP
360
320
  0
DICTIONARY
  5
31D
330
30
100
AcDbDictionary
280
     1
281
     1
  3
ACAD_XREC_ROUNDTRIP
360
31E
  0
DICTIONARY
  5
321
330
32
100
AcDbDictionary
280
     1
281
     1
  3
ACAD_XREC_ROUNDTRIP
360
322
  0
DICTIONARY
  5
329
330
36
100
AcDbDictionary
280
     1
281
     1
  3
ACAD_XREC_ROUNDTRIP
360
32A
  0
DICTIONARY
  5
331
330
3A
100
AcDbDictionary
280
     1
281
     1
  3
ACAD_XREC_ROUNDTRIP
360
332
  0
DICTIONARY
  5
325
330
34
100
AcDbDictionary
280
     1
281
     1
  3
ACAD_XREC_ROUNDTRIP
360
326
  0
DICTIONARY
  5
327
330
35
100
AcDbDictionary
280
     1
281
     1
  3
ACAD_XREC_ROUNDTRIP
360
328
  0
DICTIONARY
  5
32F
330
39
100
AcDbDictionary
280
     1
281
     1
  3
ACAD_XREC_ROUNDTRIP
360
330
  0
DICTIONARY
  5
313
330
2B
100
AcDbDictionary
280
     1
281
     1
  3
ACAD_XREC_ROUNDTRIP
360
314
  0
DICTIONARY
  5
315
330
2C
100
AcDbDictionary
280
     1
281
     1
  3
ACAD_XREC_ROUNDTRIP
360
316
  0
DICTIONARY
  5
317
330
2D
100
AcDbDictionary
280
     1
281
     1
  3
ACAD_XREC_ROUNDTRIP
360
318
  0
DICTIONARY
  5
319
330
2E
100
AcDbDictionary
280
     1
281
     1
  3
ACAD_XREC_ROUNDTRIP
360
31A
  0
DICTIONARY
  5
32D
330
38
100
AcDbDictionary
280
     1
281
     1
  3
ACAD_XREC_ROUNDTRIP
360
32E
  0
DICTIONARY
  5
323
330
33
100
AcDbDictionary
280
     1
281
     1
  3
ACAD_XREC_ROUNDTRIP
360
324
  0
DICTIONARY
  5
32B
330
37
100
AcDbDictionary
280
     1
281
     1
  3
ACAD_XREC_ROUNDTRIP
360
32C
  0
XRECORD
  5
336
102
{ACAD_REACTORS
330
335
102
}
330
335
100
AcDbXrecord
280
     1
102
MATERIAL
148
0.0
149
0.0
149
0.0
 93
        0
 94
      127
282
     0
 72
     1
 77
     1
171
     1
175
     1
179
     1
273
     0
  0
XRECORD
  5
334
102
{ACAD_REACTORS
330
333
102
}
330
333
100
AcDbXrecord
280
     1
102
MATERIAL
148
0.0
149
0.0
149
0.0
 93
        0
 94
      127
282
     0
 72
     1
 77
     1
171
     1
175
     1
179
     1
273
     0
  0
XRECORD
  5
338
102
{ACAD_REACTORS
330
337
102
}
330
337
100
AcDbXrecord
280
     1
102
MATERIAL
148
0.0
149
0.0
149
0.0
 93
        0
 94
      127
282
     0
 72
     1
 77
     1
171
     1
175
     1
179
     1
273
     0
  0
XRECORD
  5
31C
102
{ACAD_REACTORS
330
31B
102
}
330
31B
100
AcDbXrecord
280
     1
102
RTVSPropertyOp0
 70
     1
102
RTVSPropertyOp1
 70
     1
102
RTVSPropertyOp2
 70
     1
102
RTVSPropertyOp3
 70
     1
102
RTVSPropertyOp4
 70
     1
102
RTVSPropertyOp5
 70
     1
102
RTVSPropertyOp6
 70
     1
102
RTVSPropertyOp7
 70
     1
102
RTVSPropertyOp8
 70
     1
102
RTVSPropertyOp9
 70
     1
102
RTVSPropertyOp10
 70
     1
102
RTVSPropertyOp11
 70
     1
102
RTVSPropertyOp12
 70
     1
102
RTVSPropertyOp13
 70
     1
102
RTVSPropertyOp14
 70
     1
102
RTVSPropertyOp15
 70
     1
102
RTVSPropertyOp16
 70
     1
102
RTVSPropertyOp17
 70
     1
102
RTVSPropertyOp18
 70
     1
102
RTVSPropertyOp19
 70
     1
102
RTVSPropertyOp20
 70
     1
102
RTVSPropertyOp21
 70
     1
102
RTVSPropertyOp22
 70
     1
102
RTVSPropertyOp23
 70
     1
102
RTVSPropertyOp24
 70
     1
102
RTVSPropertyOp25
 70
     1
102
RTVSPropertyOp26
 70
     1
102
RTVSPropertyOp27
 70
     1
102
RTVSPropertyOp28
 70
     1
102
RTVSPropertyOp29
 70
     1
102
RTVSPropertyOp30
 70
     1
102
RTVSPropertyOp31
 70
     1
102
RTVSPropertyOp32
 70
     1
102
RTVSPropertyOp33
 70
     1
102
RTVSPropertyOp34
 70
     1
102
RTVSPropertyOp35
 70
     1
102
RTVSPropertyOp36
 70
     1
102
RTVSPropertyOp37
 70
     1
102
RTVSPropertyOp38
 70
     1
102
RTVSPropertyOp39
 70
     1
102
RTVSPropertyOp40
 70
     1
102
RTVSPropertyOp41
 70
     1
102
RTVSPropertyOp42
 70
     1
102
RTVSPropertyOp43
 70
     1
102
RTVSPropertyOp44
 70
     1
102
RTVSPropertyOp45
 70
     1
102
RTVSPropertyOp46
 70
     1
102
RTVSPropertyOp47
 70
     1
102
RTVSPropertyOp48
 70
     1
102
RTVSPropertyOp49
 70
     1
102
RTVSPropertyOp50
 70
     1
102
RTVSPropertyOp51
 70
     0
102
RTVSPropertyOp52
 70
     0
102
RTVSPropertyOp53
 70
     1
102
RTVSPropertyOp54
 70
     1
102
RTVSPropertyOp55
 70
     1
102
RTVSPropertyOp56
 70
     1
102
RTVSPropertyOp57
 70
     1
102
RTVSPost2010Prop28
280
     1
102
RTVSPost2010PropOp28
 70
     1
102
RTVSPost2010Prop29
280
     1
102
RTVSPost2010PropOp29
 70
     1
102
RTVSPost2010Prop30
280
     0
102
RTVSPost2010PropOp30
 70
     1
102
RTVSPost2010Prop31
280
     0
102
RTVSPost2010PropOp31
 70
     1
102
RTVSPost2010Prop32
280
     0
102
RTVSPost2010PropOp32
 70
     1
102
RTVSPost2010Prop33
280
     0
102
RTVSPost2010PropOp33
 70
     1
102
RTVSPost2010Prop34
280
     0
102
RTVSPost2010PropOp34
 70
     1
102
RTVSPost2010Prop35
280
     0
102
RTVSPost2010PropOp35
 70
     1
102
RTVSPost2010Prop36
280
     0
102
RTVSPost2010PropOp36
 70
     1
102
RTVSPost2010Prop37
 90
       50
102
RTVSPost2010PropOp37
 70
     1
102
RTVSPost2010Prop38
140
0.0
102
RTVSPost2010PropOp38
 70
     1
102
RTVSPost2010Prop39
140
1.0
102
RTVSPost2010PropOp39
 70
     1
102
RTVSPost2010Prop40
 90
        0
102
RTVSPost2010PropOp40
 70
     1
102
RTVSPost2010Prop41ColorIndex
 90
       18
102
RTVSPost2010Prop41ColorRGB
 90
        0
102
RTVSPost2010PropOp41
 70
     1
102
RTVSPost2010Prop42
 90
       50
102
RTVSPost2010PropOp42
 70
     1
102
RTVSPost2010Prop43
 90
        3
102
RTVSPost2010PropOp43
 70
     1
102
RTVSPost2010Prop44ColorIndex
 90
        5
102
RTVSPost2010Prop44ColorRGB
 90
      255
102
RTVSPost2010PropOp44
 70
     1
102
RTVSPost2010Prop45
280
     0
102
RTVSPost2010PropOp45
 70
     1
102
RTVSPost2010Prop46
 90
       50
102
RTVSPost2010PropOp46
 70
     1
102
RTVSPost2010Prop47
 90
       50
102
RTVSPost2010PropOp47
 70
     1
102
RTVSPost2010Prop48
 90
       50
102
RTVSPost2010PropOp48
 70
     1
102
RTVSPost2010Prop49
280
     0
102
RTVSPost2010PropOp49
 70
     1
102
RTVSPost2010Prop50
 90
       50
102
RTVSPost2010PropOp50
 70
     1
102
RTVSPost2010Prop51ColorIndex
 90
      256
102
RTVSPost2010Prop51ColorRGB
 90
-16777216
102
RTVSPost2010PropOp51
 70
     0
102
RTVSPost2010Prop52
140
1.0
102
RTVSPost2010PropOp52
 70
     0
102
RTVSPost2010Prop53
 90
        2
102
RTVSPost2010PropOp53
 70
     1
102
RTVSPost2010Prop54
  1
strokes_ogs.tif
102
RTVSPost2010PropOp54
 70
     1
102
RTVSPost2010Prop55
280
     0
102
RTVSPost2010PropOp55
 70
     1
102
RTVSPost2010Prop56
140
1.0
102
RTVSPost2010PropOp56
 70
     1
102
RTVSPost2010Prop57
140
1.0
102
RTVSPost2010PropOp57
 70
     1
  0
XRECORD
  5
320
102
{ACAD_REACTORS
330
31F
102
}
330
31F
100
AcDbXrecord
280
     1
102
RTVSPropertyOp0
 70
     1
102
RTVSPropertyOp1
 70
     1
102
RTVSPropertyOp2
 70
     1
102
RTVSPropertyOp3
 70
     1
102
RTVSPropertyOp4
 70
     1
102
RTVSPropertyOp5
 70
     1
102
RTVSPropertyOp6
 70
     1
102
RTVSPropertyOp7
 70
     1
102
RTVSPropertyOp8
 70
     1
102
RTVSPropertyOp9
 70
     1
102
RTVSPropertyOp10
 70
     1
102
RTVSPropertyOp11
 70
     1
102
RTVSPropertyOp12
 70
     1
102
RTVSPropertyOp13
 70
     1
102
RTVSPropertyOp14
 70
     1
102
RTVSPropertyOp15
 70
     1
102
RTVSPropertyOp16
 70
     1
102
RTVSPropertyOp17
 70
     1
102
RTVSPropertyOp18
 70
     1
102
RTVSPropertyOp19
 70
     1
102
RTVSPropertyOp20
 70
     1
102
RTVSPropertyOp21
 70
     1
102
RTVSPropertyOp22
 70
     1
102
RTVSPropertyOp23
 70
     1
102
RTVSPropertyOp24
 70
     1
102
RTVSPropertyOp25
 70
     1
102
RTVSPropertyOp26
 70
     1
102
RTVSPropertyOp27
 70
     1
102
RTVSPropertyOp28
 70
     1
102
RTVSPropertyOp29
 70
     1
102
RTVSPropertyOp30
 70
     1
102
RTVSPropertyOp31
 70
     1
102
RTVSPropertyOp32
 70
     1
102
RTVSPropertyOp33
 70
     1
102
RTVSPropertyOp34
 70
     1
102
RTVSPropertyOp35
 70
     1
102
RTVSPropertyOp36
 70
     1
102
RTVSPropertyOp37
 70
     1
102
RTVSPropertyOp38
 70
     1
102
RTVSPropertyOp39
 70
     1
102
RTVSPropertyOp40
 70
     1
102
RTVSPropertyOp41
 70
     1
102
RTVSPropertyOp42
 70
     1
102
RTVSPropertyOp43
 70
     1
102
RTVSPropertyOp44
 70
     1
102
RTVSPropertyOp45
 70
     1
102
RTVSPropertyOp46
 70
     1
102
RTVSPropertyOp47
 70
     1
102
RTVSPropertyOp48
 70
     1
102
RTVSPropertyOp49
 70
     1
102
RTVSPropertyOp50
 70
     1
102
RTVSPropertyOp51
 70
     0
102
RTVSPropertyOp52
 70
     0
102
RTVSPropertyOp53
 70
     1
102
RTVSPropertyOp54
 70
     1
102
RTVSPropertyOp55
 70
     1
102
RTVSPropertyOp56
 70
     1
102
RTVSPropertyOp57
 70
     1
102
RTVSPost2010Prop28
280
     0
102
RTVSPost2010PropOp28
 70
     1
102
RTVSPost2010Prop29
280
     1
102
RTVSPost2010PropOp29
 70
     1
102
RTVSPost2010Prop30
280
     1
102
RTVSPost2010PropOp30
 70
     1
102
RTVSPost2010Prop31
280
     0
102
RTVSPost2010PropOp31
 70
     1
102
RTVSPost2010Prop32
280
     0
102
RTVSPost2010PropOp32
 70
     1
102
RTVSPost2010Prop33
280
     0
102
RTVSPost2010PropOp33
 70
     1
102
RTVSPost2010Prop34
280
     0
102
RTVSPost2010PropOp34
 70
     1
102
RTVSPost2010Prop35
280
     0
102
RTVSPost2010PropOp35
 70
     1
102
RTVSPost2010Prop36
280
     0
102
RTVSPost2010PropOp36
 70
     1
102
RTVSPost2010Prop37
 90
       50
102
RTVSPost2010PropOp37
 70
     1
102
RTVSPost2010Prop38
140
0.0
102
RTVSPost2010PropOp38
 70
     1
102
RTVSPost2010Prop39
140
1.0
102
RTVSPost2010PropOp39
 70
     1
102
RTVSPost2010Prop40
 90
        0
102
RTVSPost2010PropOp40
 70
     1
102
RTVSPost2010Prop41ColorIndex
 90
       18
102
RTVSPost2010Prop41ColorRGB
 90
        0
102
RTVSPost2010PropOp41
 70
     1
102
RTVSPost2010Prop42
 90
       50
102
RTVSPost2010PropOp42
 70
     1
102
RTVSPost2010Prop43
 90
        3
102
RTVSPost2010PropOp43
 70
     1
102
RTVSPost2010Prop44ColorIndex
 90
        5
102
RTVSPost2010Prop44ColorRGB
 90
      255
102
RTVSPost2010PropOp44
 70
     1
102
RTVSPost2010Prop45
280
     0
102
RTVSPost2010PropOp45
 70
     1
102
RTVSPost2010Prop46
 90
       50
102
RTVSPost2010PropOp46
 70
     1
102
RTVSPost2010Prop47
 90
       50
102
RTVSPost2010PropOp47
 70
     1
102
RTVSPost2010Prop48
 90
       50
102
RTVSPost2010PropOp48
 70
     1
102
RTVSPost2010Prop49
280
     0
102
RTVSPost2010PropOp49
 70
     1
102
RTVSPost2010Prop50
 90
       50
102
RTVSPost2010PropOp50
 70
     1
102
RTVSPost2010Prop51ColorIndex
 90
      256
102
RTVSPost2010Prop51ColorRGB
 90
-16777216
102
RTVSPost2010PropOp51
 70
     0
102
RTVSPost2010Prop52
140
1.0
102
RTVSPost2010PropOp52
 70
     0
102
RTVSPost2010Prop53
 90
        2
102
RTVSPost2010PropOp53
 70
     1
102
RTVSPost2010Prop54
  1
strokes_ogs.tif
102
RTVSPost2010PropOp54
 70
     1
102
RTVSPost2010Prop55
280
     0
102
RTVSPost2010PropOp55
 70
     1
102
RTVSPost2010Prop56
140
1.0
102
RTVSPost2010PropOp56
 70
     1
102
RTVSPost2010Prop57
140
1.0
102
RTVSPost2010PropOp57
 70
     1
  0
XRECORD
  5
31E
102
{ACAD_REACTORS
330
31D
102
}
330
31D
100
AcDbXrecord
280
     1
102
RTVSPropertyOp0
 70
     1
102
RTVSPropertyOp1
 70
     1
102
RTVSPropertyOp2
 70
     1
102
RTVSPropertyOp3
 70
     1
102
RTVSPropertyOp4
 70
     1
102
RTVSPropertyOp5
 70
     1
102
RTVSPropertyOp6
 70
     1
102
RTVSPropertyOp7
 70
     1
102
RTVSPropertyOp8
 70
     1
102
RTVSPropertyOp9
 70
     1
102
RTVSPropertyOp10
 70
     1
102
RTVSPropertyOp11
 70
     1
102
RTVSPropertyOp12
 70
     1
102
RTVSPropertyOp13
 70
     1
102
RTVSPropertyOp14
 70
     1
102
RTVSPropertyOp15
 70
     1
102
RTVSPropertyOp16
 70
     1
102
RTVSPropertyOp17
 70
     1
102
RTVSPropertyOp18
 70
     1
102
RTVSPropertyOp19
 70
     1
102
RTVSPropertyOp20
 70
     1
102
RTVSPropertyOp21
 70
     1
102
RTVSPropertyOp22
 70
     1
102
RTVSPropertyOp23
 70
     1
102
RTVSPropertyOp24
 70
     1
102
RTVSPropertyOp25
 70
     1
102
RTVSPropertyOp26
 70
     1
102
RTVSPropertyOp27
 70
     1
102
RTVSPropertyOp28
 70
     1
102
RTVSPropertyOp29
 70
     1
102
RTVSPropertyOp30
 70
     1
102
RTVSPropertyOp31
 70
     1
102
RTVSPropertyOp32
 70
     1
102
RTVSPropertyOp33
 70
     1
102
RTVSPropertyOp34
 70
     1
102
RTVSPropertyOp35
 70
     1
102
RTVSPropertyOp36
 70
     1
102
RTVSPropertyOp37
 70
     1
102
RTVSPropertyOp38
 70
     1
102
RTVSPropertyOp39
 70
     1
102
RTVSPropertyOp40
 70
     1
102
RTVSPropertyOp41
 70
     1
102
RTVSPropertyOp42
 70
     1
102
RTVSPropertyOp43
 70
     1
102
RTVSPropertyOp44
 70
     1
102
RTVSPropertyOp45
 70
     1
102
RTVSPropertyOp46
 70
     1
102
RTVSPropertyOp47
 70
     1
102
RTVSPropertyOp48
 70
     1
102
RTVSPropertyOp49
 70
     1
102
RTVSPropertyOp50
 70
     1
102
RTVSPropertyOp51
 70
     0
102
RTVSPropertyOp52
 70
     0
102
RTVSPropertyOp53
 70
     1
102
RTVSPropertyOp54
 70
     1
102
RTVSPropertyOp55
 70
     1
102
RTVSPropertyOp56
 70
     1
102
RTVSPropertyOp57
 70
     1
102
RTVSPost2010Prop28
280
     0
102
RTVSPost2010PropOp28
 70
     1
102
RTVSPost2010Prop29
280
     1
102
RTVSPost2010PropOp29
 70
     1
102
RTVSPost2010Prop30
280
     1
102
RTVSPost2010PropOp30
 70
     1
102
RTVSPost2010Prop31
280
     0
102
RTVSPost2010PropOp31
 70
     1
102
RTVSPost2010Prop32
280
     0
102
RTVSPost2010PropOp32
 70
     1
102
RTVSPost2010Prop33
280
     0
102
RTVSPost2010PropOp33
 70
     1
102
RTVSPost2010Prop34
280
     0
102
RTVSPost2010PropOp34
 70
     1
102
RTVSPost2010Prop35
280
     0
102
RTVSPost2010PropOp35
 70
     1
102
RTVSPost2010Prop36
280
     0
102
RTVSPost2010PropOp36
 70
     1
102
RTVSPost2010Prop37
 90
       50
102
RTVSPost2010PropOp37
 70
     1
102
RTVSPost2010Prop38
140
0.0
102
RTVSPost2010PropOp38
 70
     1
102
RTVSPost2010Prop39
140
1.0
102
RTVSPost2010PropOp39
 70
     1
102
RTVSPost2010Prop40
 90
        0
102
RTVSPost2010PropOp40
 70
     1
102
RTVSPost2010Prop41ColorIndex
 90
       18
102
RTVSPost2010Prop41ColorRGB
 90
        0
102
RTVSPost2010PropOp41
 70
     1
102
RTVSPost2010Prop42
 90
       50
102
RTVSPost2010PropOp42
 70
     1
102
RTVSPost2010Prop43
 90
        3
102
RTVSPost2010PropOp43
 70
     1
102
RTVSPost2010Prop44ColorIndex
 90
        5
102
RTVSPost2010Prop44ColorRGB
 90
      255
102
RTVSPost2010PropOp44
 70
     1
102
RTVSPost2010Prop45
280
     0
102
RTVSPost2010PropOp45
 70
     1
102
RTVSPost2010Prop46
 90
       50
102
RTVSPost2010PropOp46
 70
     1
102
RTVSPost2010Prop47
 90
       50
102
RTVSPost2010PropOp47
 70
     1
102
RTVSPost2010Prop48
 90
       50
102
RTVSPost2010PropOp48
 70
     1
102
RTVSPost2010Prop49
280
     0
102
RTVSPost2010PropOp49
 70
     1
102
RTVSPost2010Prop50
 90
       50
102
RTVSPost2010PropOp50
 70
     1
102
RTVSPost2010Prop51ColorIndex
 90
      256
102
RTVSPost2010Prop51ColorRGB
 90
-16777216
102
RTVSPost2010PropOp51
 70
     0
102
RTVSPost2010Prop52
140
1.0
102
RTVSPost2010PropOp52
 70
     0
102
RTVSPost2010Prop53
 90
        2
102
RTVSPost2010PropOp53
 70
     1
102
RTVSPost2010Prop54
  1
strokes_ogs.tif
102
RTVSPost2010PropOp54
 70
     1
102
RTVSPost2010Prop55
280
     0
102
RTVSPost2010PropOp55
 70
     1
102
RTVSPost2010Prop56
140
1.0
102
RTVSPost2010PropOp56
 70
     1
102
RTVSPost2010Prop57
140
1.0
102
RTVSPost2010PropOp57
 70
     1
  0
XRECORD
  5
322
102
{ACAD_REACTORS
330
321
102
}
330
321
100
AcDbXrecord
280
     1
102
RTVSPropertyOp0
 70
     1
102
RTVSPropertyOp1
 70
     1
102
RTVSPropertyOp2
 70
     1
102
RTVSPropertyOp3
 70
     1
102
RTVSPropertyOp4
 70
     1
102
RTVSPropertyOp5
 70
     1
102
RTVSPropertyOp6
 70
     1
102
RTVSPropertyOp7
 70
     1
102
RTVSPropertyOp8
 70
     1
102
RTVSPropertyOp9
 70
     1
102
RTVSPropertyOp10
 70
     1
102
RTVSPropertyOp11
 70
     1
102
RTVSPropertyOp12
 70
     1
102
RTVSPropertyOp13
 70
     1
102
RTVSPropertyOp14
 70
     1
102
RTVSPropertyOp15
 70
     1
102
RTVSPropertyOp16
 70
     1
102
RTVSPropertyOp17
 70
     1
102
RTVSPropertyOp18
 70
     1
102
RTVSPropertyOp19
 70
     1
102
RTVSPropertyOp20
 70
     1
102
RTVSPropertyOp21
 70
     1
102
RTVSPropertyOp22
 70
     1
102
RTVSPropertyOp23
 70
     1
102
RTVSPropertyOp24
 70
     1
102
RTVSPropertyOp25
 70
     1
102
RTVSPropertyOp26
 70
     1
102
RTVSPropertyOp27
 70
     1
102
RTVSPropertyOp28
 70
     1
102
RTVSPropertyOp29
 70
     1
102
RTVSPropertyOp30
 70
     1
102
RTVSPropertyOp31
 70
     1
102
RTVSPropertyOp32
 70
     1
102
RTVSPropertyOp33
 70
     1
102
RTVSPropertyOp34
 70
     1
102
RTVSPropertyOp35
 70
     1
102
RTVSPropertyOp36
 70
     1
102
RTVSPropertyOp37
 70
     1
102
RTVSPropertyOp38
 70
     1
102
RTVSPropertyOp39
 70
     1
102
RTVSPropertyOp40
 70
     1
102
RTVSPropertyOp41
 70
     1
102
RTVSPropertyOp42
 70
     1
102
RTVSPropertyOp43
 70
     1
102
RTVSPropertyOp44
 70
     1
102
RTVSPropertyOp45
 70
     1
102
RTVSPropertyOp46
 70
     1
102
RTVSPropertyOp47
 70
     1
102
RTVSPropertyOp48
 70
     1
102
RTVSPropertyOp49
 70
     1
102
RTVSPropertyOp50
 70
     1
102
RTVSPropertyOp51
 70
     0
102
RTVSPropertyOp52
 70
     0
102
RTVSPropertyOp53
 70
     1
102
RTVSPropertyOp54
 70
     1
102
RTVSPropertyOp55
 70
     1
102
RTVSPropertyOp56
 70
     1
102
RTVSPropertyOp57
 70
     1
102
RTVSPost2010Prop28
280
     0
102
RTVSPost2010PropOp28
 70
     1
102
RTVSPost2010Prop29
280
     1
102
RTVSPost2010PropOp29
 70
     1
102
RTVSPost2010Prop30
280
     1
102
RTVSPost2010PropOp30
 70
     1
102
RTVSPost2010Prop31
280
     0
102
RTVSPost2010PropOp31
 70
     1
102
RTVSPost2010Prop32
280
     0
102
RTVSPost2010PropOp32
 70
     1
102
RTVSPost2010Prop33
280
     0
102
RTVSPost2010PropOp33
 70
     1
102
RTVSPost2010Prop34
280
     0
102
RTVSPost2010PropOp34
 70
     1
102
RTVSPost2010Prop35
280
     0
102
RTVSPost2010PropOp35
 70
     1
102
RTVSPost2010Prop36
280
     0
102
RTVSPost2010PropOp36
 70
     1
102
RTVSPost2010Prop37
 90
       50
102
RTVSPost2010PropOp37
 70
     1
102
RTVSPost2010Prop38
140
0.0
102
RTVSPost2010PropOp38
 70
     1
102
RTVSPost2010Prop39
140
1.0
102
RTVSPost2010PropOp39
 70
     1
102
RTVSPost2010Prop40
 90
        0
102
RTVSPost2010PropOp40
 70
     1
102
RTVSPost2010Prop41ColorIndex
 90
       18
102
RTVSPost2010Prop41ColorRGB
 90
        0
102
RTVSPost2010PropOp41
 70
     1
102
RTVSPost2010Prop42
 90
       50
102
RTVSPost2010PropOp42
 70
     1
102
RTVSPost2010Prop43
 90
        3
102
RTVSPost2010PropOp43
 70
     1
102
RTVSPost2010Prop44ColorIndex
 90
        5
102
RTVSPost2010Prop44ColorRGB
 90
      255
102
RTVSPost2010PropOp44
 70
     1
102
RTVSPost2010Prop45
280
     0
102
RTVSPost2010PropOp45
 70
     1
102
RTVSPost2010Prop46
 90
       50
102
RTVSPost2010PropOp46
 70
     1
102
RTVSPost2010Prop47
 90
       50
102
RTVSPost2010PropOp47
 70
     1
102
RTVSPost2010Prop48
 90
       50
102
RTVSPost2010PropOp48
 70
     1
102
RTVSPost2010Prop49
280
     0
102
RTVSPost2010PropOp49
 70
     1
102
RTVSPost2010Prop50
 90
       50
102
RTVSPost2010PropOp50
 70
     1
102
RTVSPost2010Prop51ColorIndex
 90
      256
102
RTVSPost2010Prop51ColorRGB
 90
-16777216
102
RTVSPost2010PropOp51
 70
     0
102
RTVSPost2010Prop52
140
1.0
102
RTVSPost2010PropOp52
 70
     0
102
RTVSPost2010Prop53
 90
        2
102
RTVSPost2010PropOp53
 70
     1
102
RTVSPost2010Prop54
  1
strokes_ogs.tif
102
RTVSPost2010PropOp54
 70
     1
102
RTVSPost2010Prop55
280
     0
102
RTVSPost2010PropOp55
 70
     1
102
RTVSPost2010Prop56
140
1.0
102
RTVSPost2010PropOp56
 70
     1
102
RTVSPost2010Prop57
140
1.0
102
RTVSPost2010PropOp57
 70
     1
  0
XRECORD
  5
32A
102
{ACAD_REACTORS
330
329
102
}
330
329
100
AcDbXrecord
280
     1
102
RTVSPropertyOp0
 70
     1
102
RTVSPropertyOp1
 70
     1
102
RTVSPropertyOp2
 70
     1
102
RTVSPropertyOp3
 70
     1
102
RTVSPropertyOp4
 70
     1
102
RTVSPropertyOp5
 70
     1
102
RTVSPropertyOp6
 70
     1
102
RTVSPropertyOp7
 70
     1
102
RTVSPropertyOp8
 70
     1
102
RTVSPropertyOp9
 70
     1
102
RTVSPropertyOp10
 70
     1
102
RTVSPropertyOp11
 70
     1
102
RTVSPropertyOp12
 70
     1
102
RTVSPropertyOp13
 70
     1
102
RTVSPropertyOp14
 70
     1
102
RTVSPropertyOp15
 70
     1
102
RTVSPropertyOp16
 70
     1
102
RTVSPropertyOp17
 70
     1
102
RTVSPropertyOp18
 70
     1
102
RTVSPropertyOp19
 70
     1
102
RTVSPropertyOp20
 70
     1
102
RTVSPropertyOp21
 70
     1
102
RTVSPropertyOp22
 70
     1
102
RTVSPropertyOp23
 70
     1
102
RTVSPropertyOp24
 70
     1
102
RTVSPropertyOp25
 70
     1
102
RTVSPropertyOp26
 70
     1
102
RTVSPropertyOp27
 70
     1
102
RTVSPropertyOp28
 70
     1
102
RTVSPropertyOp29
 70
     1
102
RTVSPropertyOp30
 70
     1
102
RTVSPropertyOp31
 70
     1
102
RTVSPropertyOp32
 70
     1
102
RTVSPropertyOp33
 70
     1
102
RTVSPropertyOp34
 70
     1
102
RTVSPropertyOp35
 70
     1
102
RTVSPropertyOp36
 70
     1
102
RTVSPropertyOp37
 70
     1
102
RTVSPropertyOp38
 70
     1
102
RTVSPropertyOp39
 70
     1
102
RTVSPropertyOp40
 70
     1
102
RTVSPropertyOp41
 70
     1
102
RTVSPropertyOp42
 70
     1
102
RTVSPropertyOp43
 70
     1
102
RTVSPropertyOp44
 70
     1
102
RTVSPropertyOp45
 70
     1
102
RTVSPropertyOp46
 70
     1
102
RTVSPropertyOp47
 70
     1
102
RTVSPropertyOp48
 70
     1
102
RTVSPropertyOp49
 70
     1
102
RTVSPropertyOp50
 70
     1
102
RTVSPropertyOp51
 70
     0
102
RTVSPropertyOp52
 70
     0
102
RTVSPropertyOp53
 70
     1
102
RTVSPropertyOp54
 70
     1
102
RTVSPropertyOp55
 70
     1
102
RTVSPropertyOp56
 70
     1
102
RTVSPropertyOp57
 70
     1
102
RTVSPost2010Prop28
280
     0
102
RTVSPost2010PropOp28
 70
     1
102
RTVSPost2010Prop29
280
     1
102
RTVSPost2010PropOp29
 70
     1
102
RTVSPost2010Prop30
280
     1
102
RTVSPost2010PropOp30
 70
     1
102
RTVSPost2010Prop31
280
     0
102
RTVSPost2010PropOp31
 70
     1
102
RTVSPost2010Prop32
280
     0
102
RTVSPost2010PropOp32
 70
     1
102
RTVSPost2010Prop33
280
     0
102
RTVSPost2010PropOp33
 70
     1
102
RTVSPost2010Prop34
280
     0
102
RTVSPost2010PropOp34
 70
     1
102
RTVSPost2010Prop35
280
     0
102
RTVSPost2010PropOp35
 70
     1
102
RTVSPost2010Prop36
280
     0
102
RTVSPost2010PropOp36
 70
     1
102
RTVSPost2010Prop37
 90
       50
102
RTVSPost2010PropOp37
 70
     1
102
RTVSPost2010Prop38
140
0.0
102
RTVSPost2010PropOp38
 70
     1
102
RTVSPost2010Prop39
140
1.0
102
RTVSPost2010PropOp39
 70
     1
102
RTVSPost2010Prop40
 90
        0
102
RTVSPost2010PropOp40
 70
     1
102
RTVSPost2010Prop41ColorIndex
 90
       18
102
RTVSPost2010Prop41ColorRGB
 90
        0
102
RTVSPost2010PropOp41
 70
     1
102
RTVSPost2010Prop42
 90
       50
102
RTVSPost2010PropOp42
 70
     1
102
RTVSPost2010Prop43
 90
        3
102
RTVSPost2010PropOp43
 70
     1
102
RTVSPost2010Prop44ColorIndex
 90
        5
102
RTVSPost2010Prop44ColorRGB
 90
      255
102
RTVSPost2010PropOp44
 70
     1
102
RTVSPost2010Prop45
280
     0
102
RTVSPost2010PropOp45
 70
     1
102
RTVSPost2010Prop46
 90
       50
102
RTVSPost2010PropOp46
 70
     1
102
RTVSPost2010Prop47
 90
       50
102
RTVSPost2010PropOp47
 70
     1
102
RTVSPost2010Prop48
 90
       50
102
RTVSPost2010PropOp48
 70
     1
102
RTVSPost2010Prop49
280
     0
102
RTVSPost2010PropOp49
 70
     1
102
RTVSPost2010Prop50
 90
       50
102
RTVSPost2010PropOp50
 70
     1
102
RTVSPost2010Prop51ColorIndex
 90
      256
102
RTVSPost2010Prop51ColorRGB
 90
-16777216
102
RTVSPost2010PropOp51
 70
     0
102
RTVSPost2010Prop52
140
1.0
102
RTVSPost2010PropOp52
 70
     0
102
RTVSPost2010Prop53
 90
        2
102
RTVSPost2010PropOp53
 70
     1
102
RTVSPost2010Prop54
  1
strokes_ogs.tif
102
RTVSPost2010PropOp54
 70
     1
102
RTVSPost2010Prop55
280
     0
102
RTVSPost2010PropOp55
 70
     1
102
RTVSPost2010Prop56
140
1.0
102
RTVSPost2010PropOp56
 70
     1
102
RTVSPost2010Prop57
140
1.0
102
RTVSPost2010PropOp57
 70
     1
  0
XRECORD
  5
332
102
{ACAD_REACTORS
330
331
102
}
330
331
100
AcDbXrecord
280
     1
102
RTVSPropertyOp0
 70
     1
102
RTVSPropertyOp1
 70
     1
102
RTVSPropertyOp2
 70
     1
102
RTVSPropertyOp3
 70
     1
102
RTVSPropertyOp4
 70
     1
102
RTVSPropertyOp5
 70
     1
102
RTVSPropertyOp6
 70
     1
102
RTVSPropertyOp7
 70
     1
102
RTVSPropertyOp8
 70
     1
102
RTVSPropertyOp9
 70
     1
102
RTVSPropertyOp10
 70
     1
102
RTVSPropertyOp11
 70
     1
102
RTVSPropertyOp12
 70
     1
102
RTVSPropertyOp13
 70
     1
102
RTVSPropertyOp14
 70
     1
102
RTVSPropertyOp15
 70
     1
102
RTVSPropertyOp16
 70
     1
102
RTVSPropertyOp17
 70
     1
102
RTVSPropertyOp18
 70
     1
102
RTVSPropertyOp19
 70
     1
102
RTVSPropertyOp20
 70
     1
102
RTVSPropertyOp21
 70
     1
102
RTVSPropertyOp22
 70
     1
102
RTVSPropertyOp23
 70
     1
102
RTVSPropertyOp24
 70
     1
102
RTVSPropertyOp25
 70
     1
102
RTVSPropertyOp26
 70
     1
102
RTVSPropertyOp27
 70
     1
102
RTVSPropertyOp28
 70
     1
102
RTVSPropertyOp29
 70
     1
102
RTVSPropertyOp30
 70
     1
102
RTVSPropertyOp31
 70
     1
102
RTVSPropertyOp32
 70
     1
102
RTVSPropertyOp33
 70
     1
102
RTVSPropertyOp34
 70
     1
102
RTVSPropertyOp35
 70
     1
102
RTVSPropertyOp36
 70
     1
102
RTVSPropertyOp37
 70
     1
102
RTVSPropertyOp38
 70
     1
102
RTVSPropertyOp39
 70
     1
102
RTVSPropertyOp40
 70
     1
102
RTVSPropertyOp41
 70
     1
102
RTVSPropertyOp42
 70
     1
102
RTVSPropertyOp43
 70
     1
102
RTVSPropertyOp44
 70
     1
102
RTVSPropertyOp45
 70
     1
102
RTVSPropertyOp46
 70
     1
102
RTVSPropertyOp47
 70
     1
102
RTVSPropertyOp48
 70
     1
102
RTVSPropertyOp49
 70
     1
102
RTVSPropertyOp50
 70
     1
102
RTVSPropertyOp51
 70
     0
102
RTVSPropertyOp52
 70
     0
102
RTVSPropertyOp53
 70
     1
102
RTVSPropertyOp54
 70
     1
102
RTVSPropertyOp55
 70
     1
102
RTVSPropertyOp56
 70
     1
102
RTVSPropertyOp57
 70
     1
102
RTVSPost2010Prop28
280
     0
102
RTVSPost2010PropOp28
 70
     1
102
RTVSPost2010Prop29
280
     1
102
RTVSPost2010PropOp29
 70
     1
102
RTVSPost2010Prop30
280
     1
102
RTVSPost2010PropOp30
 70
     1
102
RTVSPost2010Prop31
280
     0
102
RTVSPost2010PropOp31
 70
     1
102
RTVSPost2010Prop32
280
     0
102
RTVSPost2010PropOp32
 70
     1
102
RTVSPost2010Prop33
280
     0
102
RTVSPost2010PropOp33
 70
     1
102
RTVSPost2010Prop34
280
     0
102
RTVSPost2010PropOp34
 70
     1
102
RTVSPost2010Prop35
280
     0
102
RTVSPost2010PropOp35
 70
     1
102
RTVSPost2010Prop36
280
     0
102
RTVSPost2010PropOp36
 70
     1
102
RTVSPost2010Prop37
 90
       50
102
RTVSPost2010PropOp37
 70
     1
102
RTVSPost2010Prop38
140
0.0
102
RTVSPost2010PropOp38
 70
     1
102
RTVSPost2010Prop39
140
1.0
102
RTVSPost2010PropOp39
 70
     1
102
RTVSPost2010Prop40
 90
        0
102
RTVSPost2010PropOp40
 70
     1
102
RTVSPost2010Prop41ColorIndex
 90
       18
102
RTVSPost2010Prop41ColorRGB
 90
        0
102
RTVSPost2010PropOp41
 70
     1
102
RTVSPost2010Prop42
 90
       50
102
RTVSPost2010PropOp42
 70
     1
102
RTVSPost2010Prop43
 90
        3
102
RTVSPost2010PropOp43
 70
     1
102
RTVSPost2010Prop44ColorIndex
 90
        5
102
RTVSPost2010Prop44ColorRGB
 90
      255
102
RTVSPost2010PropOp44
 70
     1
102
RTVSPost2010Prop45
280
     0
102
RTVSPost2010PropOp45
 70
     1
102
RTVSPost2010Prop46
 90
       50
102
RTVSPost2010PropOp46
 70
     1
102
RTVSPost2010Prop47
 90
       50
102
RTVSPost2010PropOp47
 70
     1
102
RTVSPost2010Prop48
 90
       50
102
RTVSPost2010PropOp48
 70
     1
102
RTVSPost2010Prop49
280
     0
102
RTVSPost2010PropOp49
 70
     1
102
RTVSPost2010Prop50
 90
       50
102
RTVSPost2010PropOp50
 70
     1
102
RTVSPost2010Prop51ColorIndex
 90
      256
102
RTVSPost2010Prop51ColorRGB
 90
-16777216
102
RTVSPost2010PropOp51
 70
     0
102
RTVSPost2010Prop52
140
1.0
102
RTVSPost2010PropOp52
 70
     0
102
RTVSPost2010Prop53
 90
        2
102
RTVSPost2010PropOp53
 70
     1
102
RTVSPost2010Prop54
  1
strokes_ogs.tif
102
RTVSPost2010PropOp54
 70
     1
102
RTVSPost2010Prop55
280
     0
102
RTVSPost2010PropOp55
 70
     1
102
RTVSPost2010Prop56
140
1.0
102
RTVSPost2010PropOp56
 70
     1
102
RTVSPost2010Prop57
140
1.0
102
RTVSPost2010PropOp57
 70
     1
  0
XRECORD
  5
326
102
{ACAD_REACTORS
330
325
102
}
330
325
100
AcDbXrecord
280
     1
102
RTVSPropertyOp0
 70
     1
102
RTVSPropertyOp1
 70
     1
102
RTVSPropertyOp2
 70
     1
102
RTVSPropertyOp3
 70
     1
102
RTVSPropertyOp4
 70
     1
102
RTVSPropertyOp5
 70
     1
102
RTVSPropertyOp6
 70
     1
102
RTVSPropertyOp7
 70
     1
102
RTVSPropertyOp8
 70
     1
102
RTVSPropertyOp9
 70
     1
102
RTVSPropertyOp10
 70
     1
102
RTVSPropertyOp11
 70
     1
102
RTVSPropertyOp12
 70
     1
102
RTVSPropertyOp13
 70
     1
102
RTVSPropertyOp14
 70
     1
102
RTVSPropertyOp15
 70
     1
102
RTVSPropertyOp16
 70
     1
102
RTVSPropertyOp17
 70
     1
102
RTVSPropertyOp18
 70
     1
102
RTVSPropertyOp19
 70
     1
102
RTVSPropertyOp20
 70
     1
102
RTVSPropertyOp21
 70
     1
102
RTVSPropertyOp22
 70
     1
102
RTVSPropertyOp23
 70
     1
102
RTVSPropertyOp24
 70
     1
102
RTVSPropertyOp25
 70
     1
102
RTVSPropertyOp26
 70
     1
102
RTVSPropertyOp27
 70
     1
102
RTVSPropertyOp28
 70
     1
102
RTVSPropertyOp29
 70
     1
102
RTVSPropertyOp30
 70
     1
102
RTVSPropertyOp31
 70
     1
102
RTVSPropertyOp32
 70
     1
102
RTVSPropertyOp33
 70
     1
102
RTVSPropertyOp34
 70
     1
102
RTVSPropertyOp35
 70
     1
102
RTVSPropertyOp36
 70
     1
102
RTVSPropertyOp37
 70
     1
102
RTVSPropertyOp38
 70
     1
102
RTVSPropertyOp39
 70
     1
102
RTVSPropertyOp40
 70
     1
102
RTVSPropertyOp41
 70
     1
102
RTVSPropertyOp42
 70
     1
102
RTVSPropertyOp43
 70
     1
102
RTVSPropertyOp44
 70
     1
102
RTVSPropertyOp45
 70
     1
102
RTVSPropertyOp46
 70
     1
102
RTVSPropertyOp47
 70
     1
102
RTVSPropertyOp48
 70
     1
102
RTVSPropertyOp49
 70
     1
102
RTVSPropertyOp50
 70
     1
102
RTVSPropertyOp51
 70
     0
102
RTVSPropertyOp52
 70
     0
102
RTVSPropertyOp53
 70
     1
102
RTVSPropertyOp54
 70
     1
102
RTVSPropertyOp55
 70
     1
102
RTVSPropertyOp56
 70
     1
102
RTVSPropertyOp57
 70
     1
102
RTVSPost2010Prop28
280
     0
102
RTVSPost2010PropOp28
 70
     1
102
RTVSPost2010Prop29
280
     1
102
RTVSPost2010PropOp29
 70
     1
102
RTVSPost2010Prop30
280
     1
102
RTVSPost2010PropOp30
 70
     1
102
RTVSPost2010Prop31
280
     0
102
RTVSPost2010PropOp31
 70
     1
102
RTVSPost2010Prop32
280
     0
102
RTVSPost2010PropOp32
 70
     1
102
RTVSPost2010Prop33
280
     0
102
RTVSPost2010PropOp33
 70
     1
102
RTVSPost2010Prop34
280
     0
102
RTVSPost2010PropOp34
 70
     1
102
RTVSPost2010Prop35
280
     0
102
RTVSPost2010PropOp35
 70
     1
102
RTVSPost2010Prop36
280
     0
102
RTVSPost2010PropOp36
 70
     1
102
RTVSPost2010Prop37
 90
       50
102
RTVSPost2010PropOp37
 70
     1
102
RTVSPost2010Prop38
140
0.0
102
RTVSPost2010PropOp38
 70
     1
102
RTVSPost2010Prop39
140
1.0
102
RTVSPost2010PropOp39
 70
     1
102
RTVSPost2010Prop40
 90
        0
102
RTVSPost2010PropOp40
 70
     1
102
RTVSPost2010Prop41ColorIndex
 90
       18
102
RTVSPost2010Prop41ColorRGB
 90
        0
102
RTVSPost2010PropOp41
 70
     1
102
RTVSPost2010Prop42
 90
       50
102
RTVSPost2010PropOp42
 70
     1
102
RTVSPost2010Prop43
 90
        3
102
RTVSPost2010PropOp43
 70
     1
102
RTVSPost2010Prop44ColorIndex
 90
        5
102
RTVSPost2010Prop44ColorRGB
 90
      255
102
RTVSPost2010PropOp44
 70
     1
102
RTVSPost2010Prop45
280
     0
102
RTVSPost2010PropOp45
 70
     1
102
RTVSPost2010Prop46
 90
       50
102
RTVSPost2010PropOp46
 70
     1
102
RTVSPost2010Prop47
 90
       50
102
RTVSPost2010PropOp47
 70
     1
102
RTVSPost2010Prop48
 90
       50
102
RTVSPost2010PropOp48
 70
     1
102
RTVSPost2010Prop49
280
     0
102
RTVSPost2010PropOp49
 70
     1
102
RTVSPost2010Prop50
 90
       50
102
RTVSPost2010PropOp50
 70
     1
102
RTVSPost2010Prop51ColorIndex
 90
      256
102
RTVSPost2010Prop51ColorRGB
 90
-16777216
102
RTVSPost2010PropOp51
 70
     0
102
RTVSPost2010Prop52
140
1.0
102
RTVSPost2010PropOp52
 70
     0
102
RTVSPost2010Prop53
 90
        2
102
RTVSPost2010PropOp53
 70
     1
102
RTVSPost2010Prop54
  1
strokes_ogs.tif
102
RTVSPost2010PropOp54
 70
     1
102
RTVSPost2010Prop55
280
     0
102
RTVSPost2010PropOp55
 70
     1
102
RTVSPost2010Prop56
140
1.0
102
RTVSPost2010PropOp56
 70
     1
102
RTVSPost2010Prop57
140
1.0
102
RTVSPost2010PropOp57
 70
     1
  0
XRECORD
  5
328
102
{ACAD_REACTORS
330
327
102
}
330
327
100
AcDbXrecord
280
     1
102
RTVSPropertyOp0
 70
     1
102
RTVSPropertyOp1
 70
     1
102
RTVSPropertyOp2
 70
     1
102
RTVSPropertyOp3
 70
     1
102
RTVSPropertyOp4
 70
     1
102
RTVSPropertyOp5
 70
     1
102
RTVSPropertyOp6
 70
     1
102
RTVSPropertyOp7
 70
     1
102
RTVSPropertyOp8
 70
     1
102
RTVSPropertyOp9
 70
     1
102
RTVSPropertyOp10
 70
     1
102
RTVSPropertyOp11
 70
     1
102
RTVSPropertyOp12
 70
     1
102
RTVSPropertyOp13
 70
     1
102
RTVSPropertyOp14
 70
     1
102
RTVSPropertyOp15
 70
     1
102
RTVSPropertyOp16
 70
     1
102
RTVSPropertyOp17
 70
     1
102
RTVSPropertyOp18
 70
     1
102
RTVSPropertyOp19
 70
     1
102
RTVSPropertyOp20
 70
     1
102
RTVSPropertyOp21
 70
     1
102
RTVSPropertyOp22
 70
     1
102
RTVSPropertyOp23
 70
     1
102
RTVSPropertyOp24
 70
     1
102
RTVSPropertyOp25
 70
     1
102
RTVSPropertyOp26
 70
     1
102
RTVSPropertyOp27
 70
     1
102
RTVSPropertyOp28
 70
     1
102
RTVSPropertyOp29
 70
     1
102
RTVSPropertyOp30
 70
     1
102
RTVSPropertyOp31
 70
     1
102
RTVSPropertyOp32
 70
     1
102
RTVSPropertyOp33
 70
     1
102
RTVSPropertyOp34
 70
     1
102
RTVSPropertyOp35
 70
     1
102
RTVSPropertyOp36
 70
     1
102
RTVSPropertyOp37
 70
     1
102
RTVSPropertyOp38
 70
     1
102
RTVSPropertyOp39
 70
     1
102
RTVSPropertyOp40
 70
     1
102
RTVSPropertyOp41
 70
     1
102
RTVSPropertyOp42
 70
     1
102
RTVSPropertyOp43
 70
     1
102
RTVSPropertyOp44
 70
     1
102
RTVSPropertyOp45
 70
     1
102
RTVSPropertyOp46
 70
     1
102
RTVSPropertyOp47
 70
     1
102
RTVSPropertyOp48
 70
     1
102
RTVSPropertyOp49
 70
     1
102
RTVSPropertyOp50
 70
     1
102
RTVSPropertyOp51
 70
     0
102
RTVSPropertyOp52
 70
     0
102
RTVSPropertyOp53
 70
     1
102
RTVSPropertyOp54
 70
     1
102
RTVSPropertyOp55
 70
     1
102
RTVSPropertyOp56
 70
     1
102
RTVSPropertyOp57
 70
     1
102
RTVSPost2010Prop28
280
     0
102
RTVSPost2010PropOp28
 70
     1
102
RTVSPost2010Prop29
280
     1
102
RTVSPost2010PropOp29
 70
     1
102
RTVSPost2010Prop30
280
     1
102
RTVSPost2010PropOp30
 70
     1
102
RTVSPost2010Prop31
280
     0
102
RTVSPost2010PropOp31
 70
     1
102
RTVSPost2010Prop32
280
     0
102
RTVSPost2010PropOp32
 70
     1
102
RTVSPost2010Prop33
280
     0
102
RTVSPost2010PropOp33
 70
     1
102
RTVSPost2010Prop34
280
     0
102
RTVSPost2010PropOp34
 70
     1
102
RTVSPost2010Prop35
280
     0
102
RTVSPost2010PropOp35
 70
     1
102
RTVSPost2010Prop36
280
     0
102
RTVSPost2010PropOp36
 70
     1
102
RTVSPost2010Prop37
 90
       50
102
RTVSPost2010PropOp37
 70
     1
102
RTVSPost2010Prop38
140
0.0
102
RTVSPost2010PropOp38
 70
     1
102
RTVSPost2010Prop39
140
1.0
102
RTVSPost2010PropOp39
 70
     1
102
RTVSPost2010Prop40
 90
        0
102
RTVSPost2010PropOp40
 70
     1
102
RTVSPost2010Prop41ColorIndex
 90
       18
102
RTVSPost2010Prop41ColorRGB
 90
        0
102
RTVSPost2010PropOp41
 70
     1
102
RTVSPost2010Prop42
 90
       50
102
RTVSPost2010PropOp42
 70
     1
102
RTVSPost2010Prop43
 90
        3
102
RTVSPost2010PropOp43
 70
     1
102
RTVSPost2010Prop44ColorIndex
 90
        5
102
RTVSPost2010Prop44ColorRGB
 90
      255
102
RTVSPost2010PropOp44
 70
     1
102
RTVSPost2010Prop45
280
     0
102
RTVSPost2010PropOp45
 70
     1
102
RTVSPost2010Prop46
 90
       50
102
RTVSPost2010PropOp46
 70
     1
102
RTVSPost2010Prop47
 90
       50
102
RTVSPost2010PropOp47
 70
     1
102
RTVSPost2010Prop48
 90
       50
102
RTVSPost2010PropOp48
 70
     1
102
RTVSPost2010Prop49
280
     0
102
RTVSPost2010PropOp49
 70
     1
102
RTVSPost2010Prop50
 90
       50
102
RTVSPost2010PropOp50
 70
     1
102
RTVSPost2010Prop51ColorIndex
 90
      256
102
RTVSPost2010Prop51ColorRGB
 90
-16777216
102
RTVSPost2010PropOp51
 70
     0
102
RTVSPost2010Prop52
140
1.0
102
RTVSPost2010PropOp52
 70
     0
102
RTVSPost2010Prop53
 90
        2
102
RTVSPost2010PropOp53
 70
     1
102
RTVSPost2010Prop54
  1
strokes_ogs.tif
102
RTVSPost2010PropOp54
 70
     1
102
RTVSPost2010Prop55
280
     0
102
RTVSPost2010PropOp55
 70
     1
102
RTVSPost2010Prop56
140
1.0
102
RTVSPost2010PropOp56
 70
     1
102
RTVSPost2010Prop57
140
1.0
102
RTVSPost2010PropOp57
 70
     1
  0
XRECORD
  5
330
102
{ACAD_REACTORS
330
32F
102
}
330
32F
100
AcDbXrecord
280
     1
102
RTVSPropertyOp0
 70
     1
102
RTVSPropertyOp1
 70
     1
102
RTVSPropertyOp2
 70
     1
102
RTVSPropertyOp3
 70
     1
102
RTVSPropertyOp4
 70
     1
102
RTVSPropertyOp5
 70
     1
102
RTVSPropertyOp6
 70
     1
102
RTVSPropertyOp7
 70
     1
102
RTVSPropertyOp8
 70
     1
102
RTVSPropertyOp9
 70
     1
102
RTVSPropertyOp10
 70
     1
102
RTVSPropertyOp11
 70
     1
102
RTVSPropertyOp12
 70
     1
102
RTVSPropertyOp13
 70
     1
102
RTVSPropertyOp14
 70
     1
102
RTVSPropertyOp15
 70
     1
102
RTVSPropertyOp16
 70
     1
102
RTVSPropertyOp17
 70
     1
102
RTVSPropertyOp18
 70
     1
102
RTVSPropertyOp19
 70
     1
102
RTVSPropertyOp20
 70
     1
102
RTVSPropertyOp21
 70
     1
102
RTVSPropertyOp22
 70
     1
102
RTVSPropertyOp23
 70
     1
102
RTVSPropertyOp24
 70
     1
102
RTVSPropertyOp25
 70
     1
102
RTVSPropertyOp26
 70
     1
102
RTVSPropertyOp27
 70
     1
102
RTVSPropertyOp28
 70
     1
102
RTVSPropertyOp29
 70
     1
102
RTVSPropertyOp30
 70
     1
102
RTVSPropertyOp31
 70
     1
102
RTVSPropertyOp32
 70
     1
102
RTVSPropertyOp33
 70
     1
102
RTVSPropertyOp34
 70
     1
102
RTVSPropertyOp35
 70
     1
102
RTVSPropertyOp36
 70
     1
102
RTVSPropertyOp37
 70
     1
102
RTVSPropertyOp38
 70
     1
102
RTVSPropertyOp39
 70
     1
102
RTVSPropertyOp40
 70
     1
102
RTVSPropertyOp41
 70
     1
102
RTVSPropertyOp42
 70
     1
102
RTVSPropertyOp43
 70
     1
102
RTVSPropertyOp44
 70
     1
102
RTVSPropertyOp45
 70
     1
102
RTVSPropertyOp46
 70
     1
102
RTVSPropertyOp47
 70
     1
102
RTVSPropertyOp48
 70
     1
102
RTVSPropertyOp49
 70
     1
102
RTVSPropertyOp50
 70
     1
102
RTVSPropertyOp51
 70
     0
102
RTVSPropertyOp52
 70
     0
102
RTVSPropertyOp53
 70
     1
102
RTVSPropertyOp54
 70
     1
102
RTVSPropertyOp55
 70
     1
102
RTVSPropertyOp56
 70
     1
102
RTVSPropertyOp57
 70
     1
102
RTVSPost2010Prop28
280
     0
102
RTVSPost2010PropOp28
 70
     1
102
RTVSPost2010Prop29
280
     1
102
RTVSPost2010PropOp29
 70
     1
102
RTVSPost2010Prop30
280
     1
102
RTVSPost2010PropOp30
 70
     1
102
RTVSPost2010Prop31
280
     0
102
RTVSPost2010PropOp31
 70
     1
102
RTVSPost2010Prop32
280
     0
102
RTVSPost2010PropOp32
 70
     1
102
RTVSPost2010Prop33
280
     0
102
RTVSPost2010PropOp33
 70
     1
102
RTVSPost2010Prop34
280
     0
102
RTVSPost2010PropOp34
 70
     1
102
RTVSPost2010Prop35
280
     0
102
RTVSPost2010PropOp35
 70
     1
102
RTVSPost2010Prop36
280
     0
102
RTVSPost2010PropOp36
 70
     1
102
RTVSPost2010Prop37
 90
       50
102
RTVSPost2010PropOp37
 70
     1
102
RTVSPost2010Prop38
140
0.0
102
RTVSPost2010PropOp38
 70
     1
102
RTVSPost2010Prop39
140
1.0
102
RTVSPost2010PropOp39
 70
     1
102
RTVSPost2010Prop40
 90
        0
102
RTVSPost2010PropOp40
 70
     1
102
RTVSPost2010Prop41ColorIndex
 90
       18
102
RTVSPost2010Prop41ColorRGB
 90
        0
102
RTVSPost2010PropOp41
 70
     1
102
RTVSPost2010Prop42
 90
       50
102
RTVSPost2010PropOp42
 70
     1
102
RTVSPost2010Prop43
 90
        3
102
RTVSPost2010PropOp43
 70
     1
102
RTVSPost2010Prop44ColorIndex
 90
        5
102
RTVSPost2010Prop44ColorRGB
 90
      255
102
RTVSPost2010PropOp44
 70
     1
102
RTVSPost2010Prop45
280
     0
102
RTVSPost2010PropOp45
 70
     1
102
RTVSPost2010Prop46
 90
       50
102
RTVSPost2010PropOp46
 70
     1
102
RTVSPost2010Prop47
 90
       50
102
RTVSPost2010PropOp47
 70
     1
102
RTVSPost2010Prop48
 90
       50
102
RTVSPost2010PropOp48
 70
     1
102
RTVSPost2010Prop49
280
     0
102
RTVSPost2010PropOp49
 70
     1
102
RTVSPost2010Prop50
 90
       50
102
RTVSPost2010PropOp50
 70
     1
102
RTVSPost2010Prop51ColorIndex
 90
      256
102
RTVSPost2010Prop51ColorRGB
 90
-16777216
102
RTVSPost2010PropOp51
 70
     0
102
RTVSPost2010Prop52
140
1.0
102
RTVSPost2010PropOp52
 70
     0
102
RTVSPost2010Prop53
 90
        2
102
RTVSPost2010PropOp53
 70
     1
102
RTVSPost2010Prop54
  1
strokes_ogs.tif
102
RTVSPost2010PropOp54
 70
     1
102
RTVSPost2010Prop55
280
     0
102
RTVSPost2010PropOp55
 70
     1
102
RTVSPost2010Prop56
140
1.0
102
RTVSPost2010PropOp56
 70
     1
102
RTVSPost2010Prop57
140
1.0
102
RTVSPost2010PropOp57
 70
     1
  0
XRECORD
  5
314
102
{ACAD_REACTORS
330
313
102
}
330
313
100
AcDbXrecord
280
     1
102
RTVSPropertyOp0
 70
     1
102
RTVSPropertyOp1
 70
     1
102
RTVSPropertyOp2
 70
     1
102
RTVSPropertyOp3
 70
     1
102
RTVSPropertyOp4
 70
     1
102
RTVSPropertyOp5
 70
     1
102
RTVSPropertyOp6
 70
     1
102
RTVSPropertyOp7
 70
     1
102
RTVSPropertyOp8
 70
     1
102
RTVSPropertyOp9
 70
     1
102
RTVSPropertyOp10
 70
     1
102
RTVSPropertyOp11
 70
     1
102
RTVSPropertyOp12
 70
     1
102
RTVSPropertyOp13
 70
     1
102
RTVSPropertyOp14
 70
     1
102
RTVSPropertyOp15
 70
     1
102
RTVSPropertyOp16
 70
     1
102
RTVSPropertyOp17
 70
     1
102
RTVSPropertyOp18
 70
     1
102
RTVSPropertyOp19
 70
     1
102
RTVSPropertyOp20
 70
     1
102
RTVSPropertyOp21
 70
     1
102
RTVSPropertyOp22
 70
     1
102
RTVSPropertyOp23
 70
     1
102
RTVSPropertyOp24
 70
     1
102
RTVSPropertyOp25
 70
     1
102
RTVSPropertyOp26
 70
     1
102
RTVSPropertyOp27
 70
     1
102
RTVSPropertyOp28
 70
     1
102
RTVSPropertyOp29
 70
     1
102
RTVSPropertyOp30
 70
     1
102
RTVSPropertyOp31
 70
     1
102
RTVSPropertyOp32
 70
     1
102
RTVSPropertyOp33
 70
     1
102
RTVSPropertyOp34
 70
     1
102
RTVSPropertyOp35
 70
     1
102
RTVSPropertyOp36
 70
     1
102
RTVSPropertyOp37
 70
     1
102
RTVSPropertyOp38
 70
     1
102
RTVSPropertyOp39
 70
     1
102
RTVSPropertyOp40
 70
     1
102
RTVSPropertyOp41
 70
     1
102
RTVSPropertyOp42
 70
     1
102
RTVSPropertyOp43
 70
     1
102
RTVSPropertyOp44
 70
     1
102
RTVSPropertyOp45
 70
     1
102
RTVSPropertyOp46
 70
     1
102
RTVSPropertyOp47
 70
     1
102
RTVSPropertyOp48
 70
     1
102
RTVSPropertyOp49
 70
     1
102
RTVSPropertyOp50
 70
     1
102
RTVSPropertyOp51
 70
     0
102
RTVSPropertyOp52
 70
     0
102
RTVSPropertyOp53
 70
     1
102
RTVSPropertyOp54
 70
     1
102
RTVSPropertyOp55
 70
     1
102
RTVSPropertyOp56
 70
     1
102
RTVSPropertyOp57
 70
     1
102
RTVSPost2010Prop28
280
     0
102
RTVSPost2010PropOp28
 70
     1
102
RTVSPost2010Prop29
280
     1
102
RTVSPost2010PropOp29
 70
     1
102
RTVSPost2010Prop30
280
     1
102
RTVSPost2010PropOp30
 70
     1
102
RTVSPost2010Prop31
280
     0
102
RTVSPost2010PropOp31
 70
     1
102
RTVSPost2010Prop32
280
     0
102
RTVSPost2010PropOp32
 70
     1
102
RTVSPost2010Prop33
280
     0
102
RTVSPost2010PropOp33
 70
     1
102
RTVSPost2010Prop34
280
     0
102
RTVSPost2010PropOp34
 70
     1
102
RTVSPost2010Prop35
280
     0
102
RTVSPost2010PropOp35
 70
     1
102
RTVSPost2010Prop36
280
     0
102
RTVSPost2010PropOp36
 70
     1
102
RTVSPost2010Prop37
 90
       50
102
RTVSPost2010PropOp37
 70
     1
102
RTVSPost2010Prop38
140
0.0
102
RTVSPost2010PropOp38
 70
     1
102
RTVSPost2010Prop39
140
1.0
102
RTVSPost2010PropOp39
 70
     1
102
RTVSPost2010Prop40
 90
        0
102
RTVSPost2010PropOp40
 70
     1
102
RTVSPost2010Prop41ColorIndex
 90
       18
102
RTVSPost2010Prop41ColorRGB
 90
        0
102
RTVSPost2010PropOp41
 70
     1
102
RTVSPost2010Prop42
 90
       50
102
RTVSPost2010PropOp42
 70
     1
102
RTVSPost2010Prop43
 90
        3
102
RTVSPost2010PropOp43
 70
     1
102
RTVSPost2010Prop44ColorIndex
 90
        5
102
RTVSPost2010Prop44ColorRGB
 90
      255
102
RTVSPost2010PropOp44
 70
     1
102
RTVSPost2010Prop45
280
     0
102
RTVSPost2010PropOp45
 70
     1
102
RTVSPost2010Prop46
 90
       50
102
RTVSPost2010PropOp46
 70
     1
102
RTVSPost2010Prop47
 90
       50
102
RTVSPost2010PropOp47
 70
     1
102
RTVSPost2010Prop48
 90
       50
102
RTVSPost2010PropOp48
 70
     1
102
RTVSPost2010Prop49
280
     0
102
RTVSPost2010PropOp49
 70
     1
102
RTVSPost2010Prop50
 90
       50
102
RTVSPost2010PropOp50
 70
     1
102
RTVSPost2010Prop51ColorIndex
 90
      256
102
RTVSPost2010Prop51ColorRGB
 90
-16777216
102
RTVSPost2010PropOp51
 70
     0
102
RTVSPost2010Prop52
140
1.0
102
RTVSPost2010PropOp52
 70
     0
102
RTVSPost2010Prop53
 90
        2
102
RTVSPost2010PropOp53
 70
     1
102
RTVSPost2010Prop54
  1
strokes_ogs.tif
102
RTVSPost2010PropOp54
 70
     1
102
RTVSPost2010Prop55
280
     0
102
RTVSPost2010PropOp55
 70
     1
102
RTVSPost2010Prop56
140
1.0
102
RTVSPost2010PropOp56
 70
     1
102
RTVSPost2010Prop57
140
1.0
102
RTVSPost2010PropOp57
 70
     1
  0
XRECORD
  5
316
102
{ACAD_REACTORS
330
315
102
}
330
315
100
AcDbXrecord
280
     1
102
RTVSPropertyOp0
 70
     1
102
RTVSPropertyOp1
 70
     1
102
RTVSPropertyOp2
 70
     1
102
RTVSPropertyOp3
 70
     1
102
RTVSPropertyOp4
 70
     1
102
RTVSPropertyOp5
 70
     1
102
RTVSPropertyOp6
 70
     1
102
RTVSPropertyOp7
 70
     1
102
RTVSPropertyOp8
 70
     1
102
RTVSPropertyOp9
 70
     1
102
RTVSPropertyOp10
 70
     1
102
RTVSPropertyOp11
 70
     1
102
RTVSPropertyOp12
 70
     1
102
RTVSPropertyOp13
 70
     1
102
RTVSPropertyOp14
 70
     1
102
RTVSPropertyOp15
 70
     1
102
RTVSPropertyOp16
 70
     1
102
RTVSPropertyOp17
 70
     1
102
RTVSPropertyOp18
 70
     1
102
RTVSPropertyOp19
 70
     1
102
RTVSPropertyOp20
 70
     1
102
RTVSPropertyOp21
 70
     1
102
RTVSPropertyOp22
 70
     1
102
RTVSPropertyOp23
 70
     1
102
RTVSPropertyOp24
 70
     1
102
RTVSPropertyOp25
 70
     1
102
RTVSPropertyOp26
 70
     1
102
RTVSPropertyOp27
 70
     1
102
RTVSPropertyOp28
 70
     1
102
RTVSPropertyOp29
 70
     1
102
RTVSPropertyOp30
 70
     1
102
RTVSPropertyOp31
 70
     1
102
RTVSPropertyOp32
 70
     1
102
RTVSPropertyOp33
 70
     1
102
RTVSPropertyOp34
 70
     1
102
RTVSPropertyOp35
 70
     1
102
RTVSPropertyOp36
 70
     1
102
RTVSPropertyOp37
 70
     1
102
RTVSPropertyOp38
 70
     1
102
RTVSPropertyOp39
 70
     1
102
RTVSPropertyOp40
 70
     1
102
RTVSPropertyOp41
 70
     1
102
RTVSPropertyOp42
 70
     1
102
RTVSPropertyOp43
 70
     1
102
RTVSPropertyOp44
 70
     1
102
RTVSPropertyOp45
 70
     1
102
RTVSPropertyOp46
 70
     1
102
RTVSPropertyOp47
 70
     1
102
RTVSPropertyOp48
 70
     1
102
RTVSPropertyOp49
 70
     1
102
RTVSPropertyOp50
 70
     1
102
RTVSPropertyOp51
 70
     0
102
RTVSPropertyOp52
 70
     0
102
RTVSPropertyOp53
 70
     1
102
RTVSPropertyOp54
 70
     1
102
RTVSPropertyOp55
 70
     1
102
RTVSPropertyOp56
 70
     1
102
RTVSPropertyOp57
 70
     1
102
RTVSPost2010Prop28
280
     0
102
RTVSPost2010PropOp28
 70
     1
102
RTVSPost2010Prop29
280
     1
102
RTVSPost2010PropOp29
 70
     1
102
RTVSPost2010Prop30
280
     1
102
RTVSPost2010PropOp30
 70
     1
102
RTVSPost2010Prop31
280
     0
102
RTVSPost2010PropOp31
 70
     1
102
RTVSPost2010Prop32
280
     0
102
RTVSPost2010PropOp32
 70
     1
102
RTVSPost2010Prop33
280
     0
102
RTVSPost2010PropOp33
 70
     1
102
RTVSPost2010Prop34
280
     0
102
RTVSPost2010PropOp34
 70
     1
102
RTVSPost2010Prop35
280
     0
102
RTVSPost2010PropOp35
 70
     1
102
RTVSPost2010Prop36
280
     0
102
RTVSPost2010PropOp36
 70
     1
102
RTVSPost2010Prop37
 90
       50
102
RTVSPost2010PropOp37
 70
     1
102
RTVSPost2010Prop38
140
0.0
102
RTVSPost2010PropOp38
 70
     1
102
RTVSPost2010Prop39
140
1.0
102
RTVSPost2010PropOp39
 70
     1
102
RTVSPost2010Prop40
 90
        0
102
RTVSPost2010PropOp40
 70
     1
102
RTVSPost2010Prop41ColorIndex
 90
       18
102
RTVSPost2010Prop41ColorRGB
 90
        0
102
RTVSPost2010PropOp41
 70
     1
102
RTVSPost2010Prop42
 90
       50
102
RTVSPost2010PropOp42
 70
     1
102
RTVSPost2010Prop43
 90
        3
102
RTVSPost2010PropOp43
 70
     1
102
RTVSPost2010Prop44ColorIndex
 90
        5
102
RTVSPost2010Prop44ColorRGB
 90
      255
102
RTVSPost2010PropOp44
 70
     1
102
RTVSPost2010Prop45
280
     0
102
RTVSPost2010PropOp45
 70
     1
102
RTVSPost2010Prop46
 90
       50
102
RTVSPost2010PropOp46
 70
     1
102
RTVSPost2010Prop47
 90
       50
102
RTVSPost2010PropOp47
 70
     1
102
RTVSPost2010Prop48
 90
       50
102
RTVSPost2010PropOp48
 70
     1
102
RTVSPost2010Prop49
280
     0
102
RTVSPost2010PropOp49
 70
     1
102
RTVSPost2010Prop50
 90
       50
102
RTVSPost2010PropOp50
 70
     1
102
RTVSPost2010Prop51ColorIndex
 90
      256
102
RTVSPost2010Prop51ColorRGB
 90
-16777216
102
RTVSPost2010PropOp51
 70
     0
102
RTVSPost2010Prop52
140
1.0
102
RTVSPost2010PropOp52
 70
     0
102
RTVSPost2010Prop53
 90
        2
102
RTVSPost2010PropOp53
 70
     1
102
RTVSPost2010Prop54
  1
strokes_ogs.tif
102
RTVSPost2010PropOp54
 70
     1
102
RTVSPost2010Prop55
280
     0
102
RTVSPost2010PropOp55
 70
     1
102
RTVSPost2010Prop56
140
1.0
102
RTVSPost2010PropOp56
 70
     1
102
RTVSPost2010Prop57
140
1.0
102
RTVSPost2010PropOp57
 70
     1
  0
XRECORD
  5
318
102
{ACAD_REACTORS
330
317
102
}
330
317
100
AcDbXrecord
280
     1
102
RTVSPropertyOp0
 70
     1
102
RTVSPropertyOp1
 70
     1
102
RTVSPropertyOp2
 70
     1
102
RTVSPropertyOp3
 70
     1
102
RTVSPropertyOp4
 70
     1
102
RTVSPropertyOp5
 70
     1
102
RTVSPropertyOp6
 70
     1
102
RTVSPropertyOp7
 70
     1
102
RTVSPropertyOp8
 70
     1
102
RTVSPropertyOp9
 70
     1
102
RTVSPropertyOp10
 70
     1
102
RTVSPropertyOp11
 70
     1
102
RTVSPropertyOp12
 70
     1
102
RTVSPropertyOp13
 70
     1
102
RTVSPropertyOp14
 70
     1
102
RTVSPropertyOp15
 70
     1
102
RTVSPropertyOp16
 70
     1
102
RTVSPropertyOp17
 70
     1
102
RTVSPropertyOp18
 70
     1
102
RTVSPropertyOp19
 70
     1
102
RTVSPropertyOp20
 70
     1
102
RTVSPropertyOp21
 70
     1
102
RTVSPropertyOp22
 70
     1
102
RTVSPropertyOp23
 70
     1
102
RTVSPropertyOp24
 70
     1
102
RTVSPropertyOp25
 70
     1
102
RTVSPropertyOp26
 70
     1
102
RTVSPropertyOp27
 70
     1
102
RTVSPropertyOp28
 70
     1
102
RTVSPropertyOp29
 70
     1
102
RTVSPropertyOp30
 70
     1
102
RTVSPropertyOp31
 70
     1
102
RTVSPropertyOp32
 70
     1
102
RTVSPropertyOp33
 70
     1
102
RTVSPropertyOp34
 70
     1
102
RTVSPropertyOp35
 70
     1
102
RTVSPropertyOp36
 70
     1
102
RTVSPropertyOp37
 70
     1
102
RTVSPropertyOp38
 70
     1
102
RTVSPropertyOp39
 70
     1
102
RTVSPropertyOp40
 70
     1
102
RTVSPropertyOp41
 70
     1
102
RTVSPropertyOp42
 70
     1
102
RTVSPropertyOp43
 70
     1
102
RTVSPropertyOp44
 70
     1
102
RTVSPropertyOp45
 70
     1
102
RTVSPropertyOp46
 70
     1
102
RTVSPropertyOp47
 70
     1
102
RTVSPropertyOp48
 70
     1
102
RTVSPropertyOp49
 70
     1
102
RTVSPropertyOp50
 70
     1
102
RTVSPropertyOp51
 70
     0
102
RTVSPropertyOp52
 70
     0
102
RTVSPropertyOp53
 70
     1
102
RTVSPropertyOp54
 70
     1
102
RTVSPropertyOp55
 70
     1
102
RTVSPropertyOp56
 70
     1
102
RTVSPropertyOp57
 70
     1
102
RTVSPost2010Prop28
280
     0
102
RTVSPost2010PropOp28
 70
     1
102
RTVSPost2010Prop29
280
     1
102
RTVSPost2010PropOp29
 70
     1
102
RTVSPost2010Prop30
280
     1
102
RTVSPost2010PropOp30
 70
     1
102
RTVSPost2010Prop31
280
     0
102
RTVSPost2010PropOp31
 70
     1
102
RTVSPost2010Prop32
280
     0
102
RTVSPost2010PropOp32
 70
     1
102
RTVSPost2010Prop33
280
     0
102
RTVSPost2010PropOp33
 70
     1
102
RTVSPost2010Prop34
280
     0
102
RTVSPost2010PropOp34
 70
     1
102
RTVSPost2010Prop35
280
     0
102
RTVSPost2010PropOp35
 70
     1
102
RTVSPost2010Prop36
280
     0
102
RTVSPost2010PropOp36
 70
     1
102
RTVSPost2010Prop37
 90
       50
102
RTVSPost2010PropOp37
 70
     1
102
RTVSPost2010Prop38
140
0.0
102
RTVSPost2010PropOp38
 70
     1
102
RTVSPost2010Prop39
140
1.0
102
RTVSPost2010PropOp39
 70
     1
102
RTVSPost2010Prop40
 90
        0
102
RTVSPost2010PropOp40
 70
     1
102
RTVSPost2010Prop41ColorIndex
 90
       18
102
RTVSPost2010Prop41ColorRGB
 90
        0
102
RTVSPost2010PropOp41
 70
     1
102
RTVSPost2010Prop42
 90
       50
102
RTVSPost2010PropOp42
 70
     1
102
RTVSPost2010Prop43
 90
        3
102
RTVSPost2010PropOp43
 70
     1
102
RTVSPost2010Prop44ColorIndex
 90
        5
102
RTVSPost2010Prop44ColorRGB
 90
      255
102
RTVSPost2010PropOp44
 70
     1
102
RTVSPost2010Prop45
280
     0
102
RTVSPost2010PropOp45
 70
     1
102
RTVSPost2010Prop46
 90
       50
102
RTVSPost2010PropOp46
 70
     1
102
RTVSPost2010Prop47
 90
       50
102
RTVSPost2010PropOp47
 70
     1
102
RTVSPost2010Prop48
 90
       50
102
RTVSPost2010PropOp48
 70
     1
102
RTVSPost2010Prop49
280
     0
102
RTVSPost2010PropOp49
 70
     1
102
RTVSPost2010Prop50
 90
       50
102
RTVSPost2010PropOp50
 70
     1
102
RTVSPost2010Prop51ColorIndex
 90
      256
102
RTVSPost2010Prop51ColorRGB
 90
-16777216
102
RTVSPost2010PropOp51
 70
     0
102
RTVSPost2010Prop52
140
1.0
102
RTVSPost2010PropOp52
 70
     0
102
RTVSPost2010Prop53
 90
        2
102
RTVSPost2010PropOp53
 70
     1
102
RTVSPost2010Prop54
  1
strokes_ogs.tif
102
RTVSPost2010PropOp54
 70
     1
102
RTVSPost2010Prop55
280
     0
102
RTVSPost2010PropOp55
 70
     1
102
RTVSPost2010Prop56
140
1.0
102
RTVSPost2010PropOp56
 70
     1
102
RTVSPost2010Prop57
140
1.0
102
RTVSPost2010PropOp57
 70
     1
  0
XRECORD
  5
31A
102
{ACAD_REACTORS
330
319
102
}
330
319
100
AcDbXrecord
280
     1
102
RTVSPropertyOp0
 70
     1
102
RTVSPropertyOp1
 70
     1
102
RTVSPropertyOp2
 70
     1
102
RTVSPropertyOp3
 70
     1
102
RTVSPropertyOp4
 70
     1
102
RTVSPropertyOp5
 70
     1
102
RTVSPropertyOp6
 70
     1
102
RTVSPropertyOp7
 70
     1
102
RTVSPropertyOp8
 70
     1
102
RTVSPropertyOp9
 70
     1
102
RTVSPropertyOp10
 70
     1
102
RTVSPropertyOp11
 70
     1
102
RTVSPropertyOp12
 70
     1
102
RTVSPropertyOp13
 70
     1
102
RTVSPropertyOp14
 70
     1
102
RTVSPropertyOp15
 70
     1
102
RTVSPropertyOp16
 70
     1
102
RTVSPropertyOp17
 70
     1
102
RTVSPropertyOp18
 70
     1
102
RTVSPropertyOp19
 70
     1
102
RTVSPropertyOp20
 70
     1
102
RTVSPropertyOp21
 70
     1
102
RTVSPropertyOp22
 70
     1
102
RTVSPropertyOp23
 70
     1
102
RTVSPropertyOp24
 70
     1
102
RTVSPropertyOp25
 70
     1
102
RTVSPropertyOp26
 70
     1
102
RTVSPropertyOp27
 70
     1
102
RTVSPropertyOp28
 70
     1
102
RTVSPropertyOp29
 70
     1
102
RTVSPropertyOp30
 70
     1
102
RTVSPropertyOp31
 70
     1
102
RTVSPropertyOp32
 70
     1
102
RTVSPropertyOp33
 70
     1
102
RTVSPropertyOp34
 70
     1
102
RTVSPropertyOp35
 70
     1
102
RTVSPropertyOp36
 70
     1
102
RTVSPropertyOp37
 70
     1
102
RTVSPropertyOp38
 70
     1
102
RTVSPropertyOp39
 70
     1
102
RTVSPropertyOp40
 70
     1
102
RTVSPropertyOp41
 70
     1
102
RTVSPropertyOp42
 70
     1
102
RTVSPropertyOp43
 70
     1
102
RTVSPropertyOp44
 70
     1
102
RTVSPropertyOp45
 70
     1
102
RTVSPropertyOp46
 70
     1
102
RTVSPropertyOp47
 70
     1
102
RTVSPropertyOp48
 70
     1
102
RTVSPropertyOp49
 70
     1
102
RTVSPropertyOp50
 70
     1
102
RTVSPropertyOp51
 70
     0
102
RTVSPropertyOp52
 70
     0
102
RTVSPropertyOp53
 70
     1
102
RTVSPropertyOp54
 70
     1
102
RTVSPropertyOp55
 70
     1
102
RTVSPropertyOp56
 70
     1
102
RTVSPropertyOp57
 70
     1
102
RTVSPost2010Prop28
280
     0
102
RTVSPost2010PropOp28
 70
     1
102
RTVSPost2010Prop29
280
     1
102
RTVSPost2010PropOp29
 70
     1
102
RTVSPost2010Prop30
280
     1
102
RTVSPost2010PropOp30
 70
     1
102
RTVSPost2010Prop31
280
     0
102
RTVSPost2010PropOp31
 70
     1
102
RTVSPost2010Prop32
280
     0
102
RTVSPost2010PropOp32
 70
     1
102
RTVSPost2010Prop33
280
     0
102
RTVSPost2010PropOp33
 70
     1
102
RTVSPost2010Prop34
280
     0
102
RTVSPost2010PropOp34
 70
     1
102
RTVSPost2010Prop35
280
     0
102
RTVSPost2010PropOp35
 70
     1
102
RTVSPost2010Prop36
280
     0
102
RTVSPost2010PropOp36
 70
     1
102
RTVSPost2010Prop37
 90
       50
102
RTVSPost2010PropOp37
 70
     1
102
RTVSPost2010Prop38
140
0.0
102
RTVSPost2010PropOp38
 70
     1
102
RTVSPost2010Prop39
140
1.0
102
RTVSPost2010PropOp39
 70
     1
102
RTVSPost2010Prop40
 90
        0
102
RTVSPost2010PropOp40
 70
     1
102
RTVSPost2010Prop41ColorIndex
 90
       18
102
RTVSPost2010Prop41ColorRGB
 90
        0
102
RTVSPost2010PropOp41
 70
     1
102
RTVSPost2010Prop42
 90
       50
102
RTVSPost2010PropOp42
 70
     1
102
RTVSPost2010Prop43
 90
        3
102
RTVSPost2010PropOp43
 70
     1
102
RTVSPost2010Prop44ColorIndex
 90
        5
102
RTVSPost2010Prop44ColorRGB
 90
      255
102
RTVSPost2010PropOp44
 70
     1
102
RTVSPost2010Prop45
280
     0
102
RTVSPost2010PropOp45
 70
     1
102
RTVSPost2010Prop46
 90
       50
102
RTVSPost2010PropOp46
 70
     1
102
RTVSPost2010Prop47
 90
       50
102
RTVSPost2010PropOp47
 70
     1
102
RTVSPost2010Prop48
 90
       50
102
RTVSPost2010PropOp48
 70
     1
102
RTVSPost2010Prop49
280
     0
102
RTVSPost2010PropOp49
 70
     1
102
RTVSPost2010Prop50
 90
       50
102
RTVSPost2010PropOp50
 70
     1
102
RTVSPost2010Prop51ColorIndex
 90
      256
102
RTVSPost2010Prop51ColorRGB
 90
-16777216
102
RTVSPost2010PropOp51
 70
     0
102
RTVSPost2010Prop52
140
1.0
102
RTVSPost2010PropOp52
 70
     0
102
RTVSPost2010Prop53
 90
        2
102
RTVSPost2010PropOp53
 70
     1
102
RTVSPost2010Prop54
  1
strokes_ogs.tif
102
RTVSPost2010PropOp54
 70
     1
102
RTVSPost2010Prop55
280
     0
102
RTVSPost2010PropOp55
 70
     1
102
RTVSPost2010Prop56
140
1.0
102
RTVSPost2010PropOp56
 70
     1
102
RTVSPost2010Prop57
140
1.0
102
RTVSPost2010PropOp57
 70
     1
  0
XRECORD
  5
32E
102
{ACAD_REACTORS
330
32D
102
}
330
32D
100
AcDbXrecord
280
     1
102
RTVSPropertyOp0
 70
     1
102
RTVSPropertyOp1
 70
     1
102
RTVSPropertyOp2
 70
     1
102
RTVSPropertyOp3
 70
     1
102
RTVSPropertyOp4
 70
     1
102
RTVSPropertyOp5
 70
     1
102
RTVSPropertyOp6
 70
     1
102
RTVSPropertyOp7
 70
     1
102
RTVSPropertyOp8
 70
     1
102
RTVSPropertyOp9
 70
     1
102
RTVSPropertyOp10
 70
     1
102
RTVSPropertyOp11
 70
     1
102
RTVSPropertyOp12
 70
     1
102
RTVSPropertyOp13
 70
     1
102
RTVSPropertyOp14
 70
     1
102
RTVSPropertyOp15
 70
     1
102
RTVSPropertyOp16
 70
     1
102
RTVSPropertyOp17
 70
     1
102
RTVSPropertyOp18
 70
     1
102
RTVSPropertyOp19
 70
     1
102
RTVSPropertyOp20
 70
     1
102
RTVSPropertyOp21
 70
     1
102
RTVSPropertyOp22
 70
     1
102
RTVSPropertyOp23
 70
     1
102
RTVSPropertyOp24
 70
     1
102
RTVSPropertyOp25
 70
     1
102
RTVSPropertyOp26
 70
     1
102
RTVSPropertyOp27
 70
     1
102
RTVSPropertyOp28
 70
     1
102
RTVSPropertyOp29
 70
     1
102
RTVSPropertyOp30
 70
     1
102
RTVSPropertyOp31
 70
     1
102
RTVSPropertyOp32
 70
     1
102
RTVSPropertyOp33
 70
     1
102
RTVSPropertyOp34
 70
     1
102
RTVSPropertyOp35
 70
     1
102
RTVSPropertyOp36
 70
     1
102
RTVSPropertyOp37
 70
     1
102
RTVSPropertyOp38
 70
     1
102
RTVSPropertyOp39
 70
     1
102
RTVSPropertyOp40
 70
     1
102
RTVSPropertyOp41
 70
     1
102
RTVSPropertyOp42
 70
     1
102
RTVSPropertyOp43
 70
     1
102
RTVSPropertyOp44
 70
     1
102
RTVSPropertyOp45
 70
     1
102
RTVSPropertyOp46
 70
     1
102
RTVSPropertyOp47
 70
     1
102
RTVSPropertyOp48
 70
     1
102
RTVSPropertyOp49
 70
     1
102
RTVSPropertyOp50
 70
     1
102
RTVSPropertyOp51
 70
     0
102
RTVSPropertyOp52
 70
     0
102
RTVSPropertyOp53
 70
     1
102
RTVSPropertyOp54
 70
     1
102
RTVSPropertyOp55
 70
     1
102
RTVSPropertyOp56
 70
     1
102
RTVSPropertyOp57
 70
     1
102
RTVSPost2010Prop28
280
     0
102
RTVSPost2010PropOp28
 70
     1
102
RTVSPost2010Prop29
280
     1
102
RTVSPost2010PropOp29
 70
     1
102
RTVSPost2010Prop30
280
     1
102
RTVSPost2010PropOp30
 70
     1
102
RTVSPost2010Prop31
280
     0
102
RTVSPost2010PropOp31
 70
     1
102
RTVSPost2010Prop32
280
     0
102
RTVSPost2010PropOp32
 70
     1
102
RTVSPost2010Prop33
280
     0
102
RTVSPost2010PropOp33
 70
     1
102
RTVSPost2010Prop34
280
     0
102
RTVSPost2010PropOp34
 70
     1
102
RTVSPost2010Prop35
280
     0
102
RTVSPost2010PropOp35
 70
     1
102
RTVSPost2010Prop36
280
     0
102
RTVSPost2010PropOp36
 70
     1
102
RTVSPost2010Prop37
 90
       50
102
RTVSPost2010PropOp37
 70
     1
102
RTVSPost2010Prop38
140
0.0
102
RTVSPost2010PropOp38
 70
     1
102
RTVSPost2010Prop39
140
1.0
102
RTVSPost2010PropOp39
 70
     1
102
RTVSPost2010Prop40
 90
        0
102
RTVSPost2010PropOp40
 70
     1
102
RTVSPost2010Prop41ColorIndex
 90
       18
102
RTVSPost2010Prop41ColorRGB
 90
        0
102
RTVSPost2010PropOp41
 70
     1
102
RTVSPost2010Prop42
 90
       50
102
RTVSPost2010PropOp42
 70
     1
102
RTVSPost2010Prop43
 90
        3
102
RTVSPost2010PropOp43
 70
     1
102
RTVSPost2010Prop44ColorIndex
 90
        5
102
RTVSPost2010Prop44ColorRGB
 90
      255
102
RTVSPost2010PropOp44
 70
     1
102
RTVSPost2010Prop45
280
     0
102
RTVSPost2010PropOp45
 70
     1
102
RTVSPost2010Prop46
 90
       50
102
RTVSPost2010PropOp46
 70
     1
102
RTVSPost2010Prop47
 90
       50
102
RTVSPost2010PropOp47
 70
     1
102
RTVSPost2010Prop48
 90
       50
102
RTVSPost2010PropOp48
 70
     1
102
RTVSPost2010Prop49
280
     0
102
RTVSPost2010PropOp49
 70
     1
102
RTVSPost2010Prop50
 90
       50
102
RTVSPost2010PropOp50
 70
     1
102
RTVSPost2010Prop51ColorIndex
 90
      256
102
RTVSPost2010Prop51ColorRGB
 90
-16777216
102
RTVSPost2010PropOp51
 70
     0
102
RTVSPost2010Prop52
140
1.0
102
RTVSPost2010PropOp52
 70
     0
102
RTVSPost2010Prop53
 90
        2
102
RTVSPost2010PropOp53
 70
     1
102
RTVSPost2010Prop54
  1
strokes_ogs.tif
102
RTVSPost2010PropOp54
 70
     1
102
RTVSPost2010Prop55
280
     0
102
RTVSPost2010PropOp55
 70
     1
102
RTVSPost2010Prop56
140
1.0
102
RTVSPost2010PropOp56
 70
     1
102
RTVSPost2010Prop57
140
1.0
102
RTVSPost2010PropOp57
 70
     1
  0
XRECORD
  5
324
102
{ACAD_REACTORS
330
323
102
}
330
323
100
AcDbXrecord
280
     1
102
RTVSPropertyOp0
 70
     1
102
RTVSPropertyOp1
 70
     1
102
RTVSPropertyOp2
 70
     1
102
RTVSPropertyOp3
 70
     1
102
RTVSPropertyOp4
 70
     1
102
RTVSPropertyOp5
 70
     1
102
RTVSPropertyOp6
 70
     1
102
RTVSPropertyOp7
 70
     1
102
RTVSPropertyOp8
 70
     1
102
RTVSPropertyOp9
 70
     1
102
RTVSPropertyOp10
 70
     1
102
RTVSPropertyOp11
 70
     1
102
RTVSPropertyOp12
 70
     1
102
RTVSPropertyOp13
 70
     1
102
RTVSPropertyOp14
 70
     1
102
RTVSPropertyOp15
 70
     1
102
RTVSPropertyOp16
 70
     1
102
RTVSPropertyOp17
 70
     1
102
RTVSPropertyOp18
 70
     1
102
RTVSPropertyOp19
 70
     1
102
RTVSPropertyOp20
 70
     1
102
RTVSPropertyOp21
 70
     1
102
RTVSPropertyOp22
 70
     1
102
RTVSPropertyOp23
 70
     1
102
RTVSPropertyOp24
 70
     1
102
RTVSPropertyOp25
 70
     1
102
RTVSPropertyOp26
 70
     1
102
RTVSPropertyOp27
 70
     1
102
RTVSPropertyOp28
 70
     1
102
RTVSPropertyOp29
 70
     1
102
RTVSPropertyOp30
 70
     1
102
RTVSPropertyOp31
 70
     1
102
RTVSPropertyOp32
 70
     1
102
RTVSPropertyOp33
 70
     1
102
RTVSPropertyOp34
 70
     1
102
RTVSPropertyOp35
 70
     1
102
RTVSPropertyOp36
 70
     1
102
RTVSPropertyOp37
 70
     1
102
RTVSPropertyOp38
 70
     1
102
RTVSPropertyOp39
 70
     1
102
RTVSPropertyOp40
 70
     1
102
RTVSPropertyOp41
 70
     1
102
RTVSPropertyOp42
 70
     1
102
RTVSPropertyOp43
 70
     1
102
RTVSPropertyOp44
 70
     1
102
RTVSPropertyOp45
 70
     1
102
RTVSPropertyOp46
 70
     1
102
RTVSPropertyOp47
 70
     1
102
RTVSPropertyOp48
 70
     1
102
RTVSPropertyOp49
 70
     1
102
RTVSPropertyOp50
 70
     1
102
RTVSPropertyOp51
 70
     0
102
RTVSPropertyOp52
 70
     0
102
RTVSPropertyOp53
 70
     1
102
RTVSPropertyOp54
 70
     1
102
RTVSPropertyOp55
 70
     1
102
RTVSPropertyOp56
 70
     1
102
RTVSPropertyOp57
 70
     1
102
RTVSPost2010Prop28
280
     0
102
RTVSPost2010PropOp28
 70
     1
102
RTVSPost2010Prop29
280
     1
102
RTVSPost2010PropOp29
 70
     1
102
RTVSPost2010Prop30
280
     1
102
RTVSPost2010PropOp30
 70
     1
102
RTVSPost2010Prop31
280
     0
102
RTVSPost2010PropOp31
 70
     1
102
RTVSPost2010Prop32
280
     0
102
RTVSPost2010PropOp32
 70
     1
102
RTVSPost2010Prop33
280
     0
102
RTVSPost2010PropOp33
 70
     1
102
RTVSPost2010Prop34
280
     0
102
RTVSPost2010PropOp34
 70
     1
102
RTVSPost2010Prop35
280
     0
102
RTVSPost2010PropOp35
 70
     1
102
RTVSPost2010Prop36
280
     0
102
RTVSPost2010PropOp36
 70
     1
102
RTVSPost2010Prop37
 90
       50
102
RTVSPost2010PropOp37
 70
     1
102
RTVSPost2010Prop38
140
0.0
102
RTVSPost2010PropOp38
 70
     1
102
RTVSPost2010Prop39
140
1.0
102
RTVSPost2010PropOp39
 70
     1
102
RTVSPost2010Prop40
 90
        0
102
RTVSPost2010PropOp40
 70
     1
102
RTVSPost2010Prop41ColorIndex
 90
       18
102
RTVSPost2010Prop41ColorRGB
 90
        0
102
RTVSPost2010PropOp41
 70
     1
102
RTVSPost2010Prop42
 90
       50
102
RTVSPost2010PropOp42
 70
     1
102
RTVSPost2010Prop43
 90
        3
102
RTVSPost2010PropOp43
 70
     1
102
RTVSPost2010Prop44ColorIndex
 90
        5
102
RTVSPost2010Prop44ColorRGB
 90
      255
102
RTVSPost2010PropOp44
 70
     1
102
RTVSPost2010Prop45
280
     0
102
RTVSPost2010PropOp45
 70
     1
102
RTVSPost2010Prop46
 90
       50
102
RTVSPost2010PropOp46
 70
     1
102
RTVSPost2010Prop47
 90
       50
102
RTVSPost2010PropOp47
 70
     1
102
RTVSPost2010Prop48
 90
       50
102
RTVSPost2010PropOp48
 70
     1
102
RTVSPost2010Prop49
280
     0
102
RTVSPost2010PropOp49
 70
     1
102
RTVSPost2010Prop50
 90
       50
102
RTVSPost2010PropOp50
 70
     1
102
RTVSPost2010Prop51ColorIndex
 90
      256
102
RTVSPost2010Prop51ColorRGB
 90
-16777216
102
RTVSPost2010PropOp51
 70
     0
102
RTVSPost2010Prop52
140
1.0
102
RTVSPost2010PropOp52
 70
     0
102
RTVSPost2010Prop53
 90
        2
102
RTVSPost2010PropOp53
 70
     1
102
RTVSPost2010Prop54
  1
strokes_ogs.tif
102
RTVSPost2010PropOp54
 70
     1
102
RTVSPost2010Prop55
280
     0
102
RTVSPost2010PropOp55
 70
     1
102
RTVSPost2010Prop56
140
1.0
102
RTVSPost2010PropOp56
 70
     1
102
RTVSPost2010Prop57
140
1.0
102
RTVSPost2010PropOp57
 70
     1
  0
XRECORD
  5
32C
102
{ACAD_REACTORS
330
32B
102
}
330
32B
100
AcDbXrecord
280
     1
102
RTVSPropertyOp0
 70
     1
102
RTVSPropertyOp1
 70
     1
102
RTVSPropertyOp2
 70
     1
102
RTVSPropertyOp3
 70
     1
102
RTVSPropertyOp4
 70
     1
102
RTVSPropertyOp5
 70
     1
102
RTVSPropertyOp6
 70
     1
102
RTVSPropertyOp7
 70
     1
102
RTVSPropertyOp8
 70
     1
102
RTVSPropertyOp9
 70
     1
102
RTVSPropertyOp10
 70
     1
102
RTVSPropertyOp11
 70
     1
102
RTVSPropertyOp12
 70
     1
102
RTVSPropertyOp13
 70
     1
102
RTVSPropertyOp14
 70
     1
102
RTVSPropertyOp15
 70
     1
102
RTVSPropertyOp16
 70
     1
102
RTVSPropertyOp17
 70
     1
102
RTVSPropertyOp18
 70
     1
102
RTVSPropertyOp19
 70
     1
102
RTVSPropertyOp20
 70
     1
102
RTVSPropertyOp21
 70
     1
102
RTVSPropertyOp22
 70
     1
102
RTVSPropertyOp23
 70
     1
102
RTVSPropertyOp24
 70
     1
102
RTVSPropertyOp25
 70
     1
102
RTVSPropertyOp26
 70
     1
102
RTVSPropertyOp27
 70
     1
102
RTVSPropertyOp28
 70
     1
102
RTVSPropertyOp29
 70
     1
102
RTVSPropertyOp30
 70
     1
102
RTVSPropertyOp31
 70
     1
102
RTVSPropertyOp32
 70
     1
102
RTVSPropertyOp33
 70
     1
102
RTVSPropertyOp34
 70
     1
102
RTVSPropertyOp35
 70
     1
102
RTVSPropertyOp36
 70
     1
102
RTVSPropertyOp37
 70
     1
102
RTVSPropertyOp38
 70
     1
102
RTVSPropertyOp39
 70
     1
102
RTVSPropertyOp40
 70
     1
102
RTVSPropertyOp41
 70
     1
102
RTVSPropertyOp42
 70
     1
102
RTVSPropertyOp43
 70
     1
102
RTVSPropertyOp44
 70
     1
102
RTVSPropertyOp45
 70
     1
102
RTVSPropertyOp46
 70
     1
102
RTVSPropertyOp47
 70
     1
102
RTVSPropertyOp48
 70
     1
102
RTVSPropertyOp49
 70
     1
102
RTVSPropertyOp50
 70
     1
102
RTVSPropertyOp51
 70
     0
102
RTVSPropertyOp52
 70
     0
102
RTVSPropertyOp53
 70
     1
102
RTVSPropertyOp54
 70
     1
102
RTVSPropertyOp55
 70
     1
102
RTVSPropertyOp56
 70
     1
102
RTVSPropertyOp57
 70
     1
102
RTVSPost2010Prop28
280
     0
102
RTVSPost2010PropOp28
 70
     1
102
RTVSPost2010Prop29
280
     1
102
RTVSPost2010PropOp29
 70
     1
102
RTVSPost2010Prop30
280
     1
102
RTVSPost2010PropOp30
 70
     1
102
RTVSPost2010Prop31
280
     0
102
RTVSPost2010PropOp31
 70
     1
102
RTVSPost2010Prop32
280
     0
102
RTVSPost2010PropOp32
 70
     1
102
RTVSPost2010Prop33
280
     0
102
RTVSPost2010PropOp33
 70
     1
102
RTVSPost2010Prop34
280
     0
102
RTVSPost2010PropOp34
 70
     1
102
RTVSPost2010Prop35
280
     0
102
RTVSPost2010PropOp35
 70
     1
102
RTVSPost2010Prop36
280
     0
102
RTVSPost2010PropOp36
 70
     1
102
RTVSPost2010Prop37
 90
       50
102
RTVSPost2010PropOp37
 70
     1
102
RTVSPost2010Prop38
140
0.0
102
RTVSPost2010PropOp38
 70
     1
102
RTVSPost2010Prop39
140
1.0
102
RTVSPost2010PropOp39
 70
     1
102
RTVSPost2010Prop40
 90
        0
102
RTVSPost2010PropOp40
 70
     1
102
RTVSPost2010Prop41ColorIndex
 90
       18
102
RTVSPost2010Prop41ColorRGB
 90
        0
102
RTVSPost2010PropOp41
 70
     1
102
RTVSPost2010Prop42
 90
       50
102
RTVSPost2010PropOp42
 70
     1
102
RTVSPost2010Prop43
 90
        3
102
RTVSPost2010PropOp43
 70
     1
102
RTVSPost2010Prop44ColorIndex
 90
        5
102
RTVSPost2010Prop44ColorRGB
 90
      255
102
RTVSPost2010PropOp44
 70
     1
102
RTVSPost2010Prop45
280
     0
102
RTVSPost2010PropOp45
 70
     1
102
RTVSPost2010Prop46
 90
       50
102
RTVSPost2010PropOp46
 70
     1
102
RTVSPost2010Prop47
 90
       50
102
RTVSPost2010PropOp47
 70
     1
102
RTVSPost2010Prop48
 90
       50
102
RTVSPost2010PropOp48
 70
     1
102
RTVSPost2010Prop49
280
     0
102
RTVSPost2010PropOp49
 70
     1
102
RTVSPost2010Prop50
 90
       50
102
RTVSPost2010PropOp50
 70
     1
102
RTVSPost2010Prop51ColorIndex
 90
      256
102
RTVSPost2010Prop51ColorRGB
 90
-16777216
102
RTVSPost2010PropOp51
 70
     0
102
RTVSPost2010Prop52
140
1.0
102
RTVSPost2010PropOp52
 70
     0
102
RTVSPost2010Prop53
 90
        2
102
RTVSPost2010PropOp53
 70
     1
102
RTVSPost2010Prop54
  1
strokes_ogs.tif
102
RTVSPost2010PropOp54
 70
     1
102
RTVSPost2010Prop55
280
     0
102
RTVSPost2010PropOp55
 70
     1
102
RTVSPost2010Prop56
140
1.0
102
RTVSPost2010PropOp56
 70
     1
102
RTVSPost2010Prop57
140
1.0
102
RTVSPost2010PropOp57
 70
     1
  0
ENDSEC
  0
EOF
