  0
SECTION
  2
HEADER
  9
$ACADVER
  1
AC1018
  9
$ACADMAINTVER
 70
     0
  9
$DWGCODEPAGE
  3
ANSI_936
  9
$INSBASE
 10
0.0
 20
0.0
 30
0.0
  9
$EXTMIN
 10
288.0741461781681
 20
161.9999999999999
 30
0.0
  9
$EXTMAX
 10
505.0743167605015
 20
254.0006046349824
 30
0.0
  9
$LIMMIN
 10
0.0
 20
0.0
  9
$LIMMAX
 10
12.0
 20
9.0
  9
$ORTHOMODE
 70
     0
  9
$REGENMODE
 70
     1
  9
$FILLMODE
 70
     1
  9
$QTEXTMODE
 70
     0
  9
$MIRRTEXT
 70
     1
  9
$LTSCALE
 40
1.0
  9
$ATTMODE
 70
     1
  9
$TEXTSIZE
 40
0.2
  9
$TRACEWID
 40
0.05
  9
$TEXTSTYLE
  7
Standard
  9
$CLAYER
  8
0
  9
$CELTYPE
  6
ByLayer
  9
$CECOLOR
 62
   256
  9
$CELTSCALE
 40
1.0
  9
$DISPSILH
 70
     0
  9
$DIMSCALE
 40
1.0
  9
$DIMASZ
 40
0.18
  9
$DIMEXO
 40
0.0625
  9
$DIMDLI
 40
0.38
  9
$DIMRND
 40
0.0
  9
$DIMDLE
 40
0.0
  9
$DIMEXE
 40
0.18
  9
$DIMTP
 40
0.0
  9
$DIMTM
 40
0.0
  9
$DIMTXT
 40
0.18
  9
$DIMCEN
 40
0.09
  9
$DIMTSZ
 40
0.0
  9
$DIMTOL
 70
     0
  9
$DIMLIM
 70
     0
  9
$DIMTIH
 70
     1
  9
$DIMTOH
 70
     1
  9
$DIMSE1
 70
     0
  9
$DIMSE2
 70
     0
  9
$DIMTAD
 70
     0
  9
$DIMZIN
 70
     0
  9
$DIMBLK
  1

  9
$DIMASO
 70
     1
  9
$DIMSHO
 70
     1
  9
$DIMPOST
  1

  9
$DIMAPOST
  1

  9
$DIMALT
 70
     0
  9
$DIMALTD
 70
     2
  9
$DIMALTF
 40
25.4
  9
$DIMLFAC
 40
1.0
  9
$DIMTOFL
 70
     0
  9
$DIMTVP
 40
0.0
  9
$DIMTIX
 70
     0
  9
$DIMSOXD
 70
     0
  9
$DIMSAH
 70
     0
  9
$DIMBLK1
  1

  9
$DIMBLK2
  1

  9
$DIMSTYLE
  2
Standard
  9
$DIMCLRD
 70
     0
  9
$DIMCLRE
 70
     0
  9
$DIMCLRT
 70
     0
  9
$DIMTFAC
 40
1.0
  9
$DIMGAP
 40
0.09
  9
$DIMJUST
 70
     0
  9
$DIMSD1
 70
     0
  9
$DIMSD2
 70
     0
  9
$DIMTOLJ
 70
     1
  9
$DIMTZIN
 70
     0
  9
$DIMALTZ
 70
     0
  9
$DIMALTTZ
 70
     0
  9
$DIMUPT
 70
     0
  9
$DIMDEC
 70
     4
  9
$DIMTDEC
 70
     4
  9
$DIMALTU
 70
     2
  9
$DIMALTTD
 70
     2
  9
$DIMTXSTY
  7
Standard
  9
$DIMAUNIT
 70
     0
  9
$DIMADEC
 70
     0
  9
$DIMALTRND
 40
0.0
  9
$DIMAZIN
 70
     0
  9
$DIMDSEP
 70
    46
  9
$DIMATFIT
 70
     3
  9
$DIMFRAC
 70
     0
  9
$DIMLDRBLK
  1

  9
$DIMLUNIT
 70
     2
  9
$DIMLWD
 70
    -2
  9
$DIMLWE
 70
    -2
  9
$DIMTMOVE
 70
     2
  9
$LUNITS
 70
     2
  9
$LUPREC
 70
     3
  9
$SKETCHINC
 40
0.1
  9
$FILLETRAD
 40
0.5
  9
$AUNITS
 70
     0
  9
$AUPREC
 70
     0
  9
$MENU
  1
.
  9
$ELEVATION
 40
0.0
  9
$PELEVATION
 40
0.0
  9
$THICKNESS
 40
0.0
  9
$LIMCHECK
 70
     0
  9
$CHAMFERA
 40
0.5
  9
$CHAMFERB
 40
0.5
  9
$CHAMFERC
 40
1.0
  9
$CHAMFERD
 40
0.0
  9
$SKPOLY
 70
     0
  9
$TDCREATE
 40
2456499.801812789
  9
$TDUCREATE
 40
2456499.718479456
  9
$TDUPDATE
 40
2456499.801812801
  9
$TDUUPDATE
 40
2456499.718479468
  9
$TDINDWG
 40
0.0000000116
  9
$TDUSRTIMER
 40
0.0000000116
  9
$USRTIMER
 70
     1
  9
$ANGBASE
 50
0.0
  9
$ANGDIR
 70
     0
  9
$PDMODE
 70
     0
  9
$PDSIZE
 40
0.0
  9
$PLINEWID
 40
0.0
  9
$SPLFRAME
 70
     0
  9
$SPLINETYPE
 70
     6
  9
$SPLINESEGS
 70
     8
  9
$HANDSEED
  5
88
  9
$SURFTAB1
 70
     6
  9
$SURFTAB2
 70
     6
  9
$SURFTYPE
 70
     6
  9
$SURFU
 70
     6
  9
$SURFV
 70
     6
  9
$UCSBASE
  2

  9
$UCSNAME
  2

  9
$UCSORG
 10
0.0
 20
0.0
 30
0.0
  9
$UCSXDIR
 10
1.0
 20
0.0
 30
0.0
  9
$UCSYDIR
 10
0.0
 20
1.0
 30
0.0
  9
$UCSORTHOREF
  2

  9
$UCSORTHOVIEW
 70
     0
  9
$UCSORGTOP
 10
0.0
 20
0.0
 30
0.0
  9
$UCSORGBOTTOM
 10
0.0
 20
0.0
 30
0.0
  9
$UCSORGLEFT
 10
0.0
 20
0.0
 30
0.0
  9
$UCSORGRIGHT
 10
0.0
 20
0.0
 30
0.0
  9
$UCSORGFRONT
 10
0.0
 20
0.0
 30
0.0
  9
$UCSORGBACK
 10
0.0
 20
0.0
 30
0.0
  9
$PUCSBASE
  2

  9
$PUCSNAME
  2

  9
$PUCSORG
 10
0.0
 20
0.0
 30
0.0
  9
$PUCSXDIR
 10
1.0
 20
0.0
 30
0.0
  9
$PUCSYDIR
 10
0.0
 20
1.0
 30
0.0
  9
$PUCSORTHOREF
  2

  9
$PUCSORTHOVIEW
 70
     0
  9
$PUCSORGTOP
 10
0.0
 20
0.0
 30
0.0
  9
$PUCSORGBOTTOM
 10
0.0
 20
0.0
 30
0.0
  9
$PUCSORGLEFT
 10
0.0
 20
0.0
 30
0.0
  9
$PUCSORGRIGHT
 10
0.0
 20
0.0
 30
0.0
  9
$PUCSORGFRONT
 10
0.0
 20
0.0
 30
0.0
  9
$PUCSORGBACK
 10
0.0
 20
0.0
 30
0.0
  9
$USERI1
 70
     0
  9
$USERI2
 70
     0
  9
$USERI3
 70
     0
  9
$USERI4
 70
     0
  9
$USERI5
 70
     0
  9
$USERR1
 40
0.0
  9
$USERR2
 40
0.0
  9
$USERR3
 40
0.0
  9
$USERR4
 40
0.0
  9
$USERR5
 40
0.0
  9
$WORLDVIEW
 70
     1
  9
$SHADEDGE
 70
     3
  9
$SHADEDIF
 70
    70
  9
$TILEMODE
 70
     1
  9
$MAXACTVP
 70
    64
  9
$PINSBASE
 10
0.0
 20
0.0
 30
0.0
  9
$PLIMCHECK
 70
     0
  9
$PEXTMIN
 10
1.000000000000000E+20
 20
1.000000000000000E+20
 30
1.000000000000000E+20
  9
$PEXTMAX
 10
-1.000000000000000E+20
 20
-1.000000000000000E+20
 30
-1.000000000000000E+20
  9
$PLIMMIN
 10
0.0
 20
0.0
  9
$PLIMMAX
 10
12.0
 20
9.0
  9
$UNITMODE
 70
     0
  9
$VISRETAIN
 70
     1
  9
$PLINEGEN
 70
     0
  9
$PSLTSCALE
 70
     1
  9
$TREEDEPTH
 70
  3020
  9
$CMLSTYLE
  2
Standard
  9
$CMLJUST
 70
     0
  9
$CMLSCALE
 40
1.0
  9
$PROXYGRAPHICS
 70
     1
  9
$MEASUREMENT
 70
     0
  9
$CELWEIGHT
370
    -1
  9
$ENDCAPS
280
     0
  9
$JOINSTYLE
280
     0
  9
$LWDISPLAY
290
     0
  9
$INSUNITS
 70
     4
  9
$HYPERLINKBASE
  1

  9
$STYLESHEET
  1

  9
$XEDIT
290
     1
  9
$CEPSNTYPE
380
     0
  9
$PSTYLEMODE
290
     1
  9
$FINGERPRINTGUID
  2
{1ABB7F9D-483A-4884-8481-7306DE549762}
  9
$VERSIONGUID
  2
{FAEB1C32-E019-11D5-929B-00C0DF256EC4}
  9
$EXTNAMES
290
     1
  9
$PSVPSCALE
 40
0.0
  9
$OLESTARTUP
290
     0
  9
$SORTENTS
280
   127
  9
$INDEXCTL
280
     0
  9
$HIDETEXT
280
     1
  9
$XCLIPFRAME
290
     0
  9
$HALOGAP
280
     0
  9
$OBSCOLOR
 70
   257
  9
$OBSLTYPE
280
     0
  9
$INTERSECTIONDISPLAY
280
     0
  9
$INTERSECTIONCOLOR
 70
   257
  9
$DIMASSOC
280
     2
  9
$PROJECTNAME
  1

  0
ENDSEC
  0
SECTION
  2
CLASSES
  0
CLASS
  1
ACDBDICTIONARYWDFLT
  2
AcDbDictionaryWithDefault
  3
ObjectDBX Classes
 90
        0
 91
        4
280
     0
281
     0
  0
CLASS
  1
VISUALSTYLE
  2
AcDbVisualStyle
  3
ObjectDBX Classes
 90
     4095
 91
        4
280
     0
281
     0
  0
ENDSEC
  0
SECTION
  2
TABLES
  0
TABLE
  2
VPORT
  5
8
330
0
100
AcDbSymbolTable
 70
     1
  0
VPORT
  5
29
330
8
100
AcDbSymbolTableRecord
100
AcDbViewportTableRecord
  2
*Active
 70
     0
 10
0.0
 20
0.0
 11
1.0
 21
1.0
 12
396.5742314693348
 22
208.0003023174912
 13
0.0
 23
0.0
 14
0.5
 24
0.5
 15
0.5
 25
0.5
 16
0.0
 26
0.0
 36
1.0
 17
0.0
 27
0.0
 37
0.0
 40
93.84061672768209
 41
2.358682004790009
 42
50.0
 43
0.0
 44
0.0
 50
0.0
 51
0.0
 71
     0
 72
   100
 73
     1
 74
     3
 75
     0
 76
     0
 77
     0
 78
     0
281
     0
 65
     1
110
0.0
120
0.0
130
0.0
111
1.0
121
0.0
131
0.0
112
0.0
122
1.0
132
0.0
 79
     0
146
0.0
  0
ENDTAB
  0
TABLE
  2
LTYPE
  5
5
330
0
100
AcDbSymbolTable
 70
     1
  0
LTYPE
  5
14
330
5
100
AcDbSymbolTableRecord
100
AcDbLinetypeTableRecord
  2
ByBlock
 70
     0
  3

 72
    65
 73
     0
 40
0.0
  0
LTYPE
  5
15
330
5
100
AcDbSymbolTableRecord
100
AcDbLinetypeTableRecord
  2
ByLayer
 70
     0
  3

 72
    65
 73
     0
 40
0.0
  0
LTYPE
  5
16
330
5
100
AcDbSymbolTableRecord
100
AcDbLinetypeTableRecord
  2
Continuous
 70
     0
  3
Solid line
 72
    65
 73
     0
 40
0.0
  0
ENDTAB
  0
TABLE
  2
LAYER
  5
2
330
0
100
AcDbSymbolTable
 70
     2
  0
LAYER
  5
10
330
2
100
AcDbSymbolTableRecord
100
AcDbLayerTableRecord
  2
0
 70
     0
 62
     7
  6
Continuous
370
    -3
390
F
  0
LAYER
  5
3B
330
2
100
AcDbSymbolTableRecord
100
AcDbLayerTableRecord
  2
MAKE2D VISIBLE LINES
 70
     0
 62
     7
  6
Continuous
370
    -3
390
F
  0
ENDTAB
  0
TABLE
  2
STYLE
  5
3
330
0
100
AcDbSymbolTable
 70
     1
  0
STYLE
  5
11
330
3
100
AcDbSymbolTableRecord
100
AcDbTextStyleTableRecord
  2
Standard
 70
     0
 40
0.0
 41
1.0
 50
0.0
 71
     0
 42
0.2
  3
txt
  4

  0
ENDTAB
  0
TABLE
  2
VIEW
  5
6
330
0
100
AcDbSymbolTable
 70
     0
  0
ENDTAB
  0
TABLE
  2
UCS
  5
7
330
0
100
AcDbSymbolTable
 70
     0
  0
ENDTAB
  0
TABLE
  2
APPID
  5
9
330
0
100
AcDbSymbolTable
 70
     1
  0
APPID
  5
12
330
9
100
AcDbSymbolTableRecord
100
AcDbRegAppTableRecord
  2
ACAD
 70
     0
  0
ENDTAB
  0
TABLE
  2
DIMSTYLE
  5
A
330
0
100
AcDbSymbolTable
 70
     1
100
AcDbDimStyleTable
  0
DIMSTYLE
105
27
330
A
100
AcDbSymbolTableRecord
100
AcDbDimStyleTableRecord
  2
Standard
 70
     0
340
11
  0
ENDTAB
  0
TABLE
  2
BLOCK_RECORD
  5
1
330
0
100
AcDbSymbolTable
 70
     1
  0
BLOCK_RECORD
  5
1F
330
1
100
AcDbSymbolTableRecord
100
AcDbBlockTableRecord
  2
*Model_Space
340
22
  0
BLOCK_RECORD
  5
1B
330
1
100
AcDbSymbolTableRecord
100
AcDbBlockTableRecord
  2
*Paper_Space
340
1E
  0
BLOCK_RECORD
  5
23
330
1
100
AcDbSymbolTableRecord
100
AcDbBlockTableRecord
  2
*Paper_Space0
340
26
  0
ENDTAB
  0
ENDSEC
  0
SECTION
  2
BLOCKS
  0
BLOCK
  5
20
330
1F
100
AcDbEntity
  8
0
100
AcDbBlockBegin
  2
*Model_Space
 70
     0
 10
0.0
 20
0.0
 30
0.0
  3
*Model_Space
  1

  0
ENDBLK
  5
21
330
1F
100
AcDbEntity
  8
0
100
AcDbBlockEnd
  0
BLOCK
  5
1C
330
1B
100
AcDbEntity
 67
     1
  8
0
100
AcDbBlockBegin
  2
*Paper_Space
 70
     0
 10
0.0
 20
0.0
 30
0.0
  3
*Paper_Space
  1

  0
ENDBLK
  5
1D
330
1B
100
AcDbEntity
 67
     1
  8
0
100
AcDbBlockEnd
  0
BLOCK
  5
24
330
23
100
AcDbEntity
  8
0
100
AcDbBlockBegin
  2
*Paper_Space0
 70
     0
 10
0.0
 20
0.0
 30
0.0
  3
*Paper_Space0
  1

  0
ENDBLK
  5
25
330
23
100
AcDbEntity
  8
0
100
AcDbBlockEnd
  0
ENDSEC
  0
SECTION
  2
ENTITIES
  0
ARC
  5
3C
330
1F
100
AcDbEntity
  8
MAKE2D VISIBLE LINES
100
AcDbCircle
 10
463.5742308697518
 20
164.0000020099188
 30
0.0
 40
2.000000853447983
100
AcDbArc
 50
180.000024134129
 51
268.1347085917415
  0
ARC
  5
3D
330
1F
100
AcDbEntity
  8
MAKE2D VISIBLE LINES
100
AcDbCircle
 10
344.0742192796316
 20
252.3316546073605
 30
0.0
 40
1.000013261349368
100
AcDbArc
 50
323.5988696417028
 51
359.9997501414358
  0
ARC
  5
3E
330
1F
100
AcDbEntity
  8
MAKE2D VISIBLE LINES
100
AcDbCircle
 10
303.5714581672613
 20
193.999998954363
 30
0.0
 40
1.999997649112603
100
AcDbArc
 50
180.2148455219424
 51
269.1718089767773
  0
LINE
  5
3F
330
1F
100
AcDbEntity
  8
MAKE2D VISIBLE LINES
100
AcDbLine
 10
288.0742324228903
 20
252.3316502459805
 30
0.0
 11
288.0742324228903
 21
254.0006046349824
 31
0.0
  0
SPLINE
  5
40
330
1F
100
AcDbEntity
  8
MAKE2D VISIBLE LINES
100
AcDbSpline
210
0.0
220
0.0
230
1.0
 70
     8
 71
     3
 72
    21
 73
    17
 74
     0
 42
0.0000000001
 43
0.0000000001
 40
0.0
 40
0.0
 40
0.0
 40
0.0
 40
0.1742048787366784
 40
0.4183149800701134
 40
0.7088942419095862
 40
1.594098620915654
 40
1.987562768091778
 40
2.950194328711934
 40
4.863791845944561
 40
6.824285716238197
 40
7.740869911784126
 40
8.134308249081492
 40
9.028698190371314
 40
9.31771203474532
 40
9.560547204122551
 40
9.727774537285006
 40
9.727774537285006
 40
9.727774537285006
 40
9.727774537285006
 10
301.5742517459155
 20
181.8371182533948
 30
0.0
 10
301.5740286528629
 20
181.7790220467451
 30
0.0
 10
301.5835253885315
 20
181.6398014852352
 30
0.0
 10
301.6131897669969
 20
181.4053330066082
 30
0.0
 10
301.6854966503993
 20
180.9375768941518
 30
0.0
 10
301.7732247711369
 20
180.4218843503908
 30
0.0
 10
301.8843460402343
 20
179.6830730133969
 30
0.0
 10
302.0221110474675
 20
178.6017414890431
 30
0.0
 10
302.1110279599643
 20
176.9897105545749
 30
0.0
 10
302.0217043185133
 20
175.3928187054032
 30
0.0
 10
301.8834213881735
 20
174.3114397852032
 30
0.0
 10
301.7741990641226
 20
173.5847074733573
 30
0.0
 10
301.6862296286635
 20
173.0665252641535
 30
0.0
 10
301.6135070365407
 20
172.5966782510674
 30
0.0
 10
301.5841543588837
 20
172.3654776981824
 30
0.0
 10
301.574558476847
 20
172.2290248344801
 30
0.0
 10
301.5742381622786
 20
172.1732669881181
 30
0.0
  0
LINE
  5
41
330
1F
100
AcDbEntity
  8
MAKE2D VISIBLE LINES
100
AcDbLine
 10
461.5742305156605
 20
170.067741802309
 30
0.0
 11
461.5742305156605
 21
164.0000011674788
 31
0.0
  0
LINE
  5
42
330
1F
100
AcDbEntity
  8
MAKE2D VISIBLE LINES
100
AcDbLine
 10
491.3935908718145
 20
190.0000207552857
 30
0.0
 11
491.4267271741875
 21
190.0000188775863
 31
0.0
  0
LINE
  5
43
330
1F
100
AcDbEntity
  8
MAKE2D VISIBLE LINES
100
AcDbLine
 10
491.1132820654364
 20
190.0000323107891
 30
0.0
 11
491.1596862196773
 21
190.0000307247853
 31
0.0
  0
SPLINE
  5
44
330
1F
100
AcDbEntity
  8
MAKE2D VISIBLE LINES
100
AcDbSpline
210
0.0
220
0.0
230
1.0
 70
     8
 71
     3
 72
    16
 73
    12
 74
     0
 42
0.0000000001
 43
0.0000000001
 40
0.0
 40
0.0
 40
0.0
 40
0.0
 40
4.825478975955535
 40
9.550424974348422
 40
18.497703822851
 40
26.84181245844351
 40
34.58269575817942
 40
41.72030573187717
 40
48.35548760873048
 40
54.48796248255223
 40
60.15861480789507
 40
60.15861480789507
 40
60.15861480789507
 40
60.15861480789507
 10
301.5714785664296
 20
193.9924994722281
 30
0.0
 10
301.5656609330451
 20
195.6009588087713
 30
0.0
 10
301.5272506309091
 20
198.7844253335516
 30
0.0
 10
301.3118766943379
 20
204.9469209657603
 30
0.0
 10
300.7891215271688
 20
212.2695112854774
 30
0.0
 10
299.7352329553645
 20
220.5504404898621
 30
0.0
 10
298.2764639794124
 20
228.1570054841897
 30
0.0
 10
296.4177873005631
 20
235.0888873866654
 30
0.0
 10
294.160442313684
 20
241.3354716886801
 30
0.0
 10
291.5005069109574
 20
246.8863420766599
 30
0.0
 10
289.3911556087286
 20
250.2165714002451
 30
0.0
 10
288.2693530865793
 20
251.7382117453929
 30
0.0
  0
ARC
  5
45
330
1F
100
AcDbEntity
  8
MAKE2D VISIBLE LINES
100
AcDbCircle
 10
303.5742306274161
 20
164.0000022294075
 30
0.0
 40
2.000002191464069
100
AcDbArc
 50
180.0000303918824
 51
269.9999524504726
  0
SPLINE
  5
46
330
1F
100
AcDbEntity
  8
MAKE2D VISIBLE LINES
100
AcDbSpline
210
0.0
220
0.0
230
1.0
 70
     8
 71
     3
 72
    16
 73
    12
 74
     0
 42
0.0000000001
 43
0.0000000001
 40
0.0
 40
0.0
 40
0.0
 40
0.0
 40
5.670652124037862
 40
11.80312038565214
 40
18.43830582292819
 40
25.67645679906027
 40
33.51782792114798
 40
41.86196315142359
 40
50.5076216273409
 40
55.23260589512277
 40
60.15861667196742
 40
60.15861667196742
 40
60.15861667196742
 40
60.15861667196742
 10
504.8791098520903
 20
251.7382117453929
 30
0.0
 10
503.7572887344141
 20
250.2165858906516
 30
0.0
 10
501.6479913025501
 20
246.8863314080543
 30
0.0
 10
498.9879620184427
 20
241.3355051067379
 30
0.0
 10
496.7193058018249
 20
235.0573173862783
 30
0.0
 10
494.8474340839629
 20
228.0594166763786
 30
0.0
 10
493.3864414519872
 20
220.3849119922928
 30
0.0
 10
492.3526248817859
 20
212.1691065869295
 30
0.0
 10
491.8384805329296
 20
204.9468758786022
 30
0.0
 10
491.6223407116424
 20
198.8514525000711
 30
0.0
 10
491.5829099062627
 20
195.6344716236767
 30
0.0
 10
491.57698437224
 20
193.9924994722281
 30
0.0
  0
ARC
  5
47
330
1F
100
AcDbEntity
  8
MAKE2D VISIBLE LINES
100
AcDbCircle
 10
489.5742335562164
 20
190.000000608245
 30
0.0
 40
2.000000946500981
100
AcDbArc
 50
0.0000159642306567
 51
89.93579644022263
  0
SPLINE
  5
48
330
1F
100
AcDbEntity
  8
MAKE2D VISIBLE LINES
100
AcDbSpline
210
0.0
220
0.0
230
1.0
 70
     8
 71
     3
 72
    25
 73
    21
 74
     0
 42
0.0000000001
 43
0.0000000001
 40
0.0
 40
0.0
 40
0.0
 40
0.0
 40
0.3972310490954499
 40
0.8539613870073642
 40
1.306232127435422
 40
1.576890193401086
 40
2.593849902838476
 40
3.281219963695265
 40
4.650711374758024
 40
5.929838405591877
 40
7.141450521617702
 40
8.354615615588264
 40
9.639870429160922
 40
11.01353318466162
 40
11.70006722775985
 40
12.7276541702935
 40
12.99702812502447
 40
13.44194968900351
 40
13.90023641369071
 40
14.29918848974268
 40
14.29918848974268
 40
14.29918848974268
 40
14.29918848974268
 10
461.5742700660559
 20
170.0817944224792
 30
0.0
 10
461.5749747713871
 20
170.2142087818307
 30
0.0
 10
461.6023796752295
 20
170.4985394113925
 30
0.0
 10
461.710501832444
 20
170.9212746934969
 30
0.0
 10
461.8374950108845
 20
171.293346874981
 30
0.0
 10
462.0355142008339
 20
171.8385212966849
 30
0.0
 10
462.2687155888333
 20
172.4541733474667
 30
0.0
 10
462.6048502987363
 20
173.4221501754539
 30
0.0
 10
462.9173333991957
 20
174.4903421654832
 30
0.0
 10
463.1521894778149
 20
175.7576102100469
 30
0.0
 10
463.2321660918491
 20
176.9919511869157
 30
0.0
 10
463.1542842240791
 20
178.2287368165313
 30
0.0
 10
462.9192938906931
 20
179.4998403399269
 30
0.0
 10
462.607196980108
 20
180.5715660963915
 30
0.0
 10
462.2691924400751
 20
181.5437086056606
 30
0.0
 10
462.0356194441902
 20
182.1623659706163
 30
0.0
 10
461.8368751332505
 20
182.707899373904
 30
0.0
 10
461.7110006624061
 20
183.0778857729364
 30
0.0
 10
461.6027081592019
 20
183.4991702952347
 30
0.0
 10
461.5750134556667
 20
183.7845702428833
 30
0.0
 10
461.5742727619385
 20
183.9175613306977
 30
0.0
  0
LINE
  5
49
330
1F
100
AcDbEntity
  8
MAKE2D VISIBLE LINES
100
AcDbLine
 10
491.5742305156605
 20
172.1732512533048
 30
0.0
 11
491.5742305156605
 21
164.0000011674788
 31
0.0
  0
LINE
  5
4A
330
1F
100
AcDbEntity
  8
MAKE2D VISIBLE LINES
100
AcDbLine
 10
491.5742305156605
 20
181.7913953268086
 30
0.0
 11
491.5742305156605
 21
172.1983560311556
 31
0.0
  0
SPLINE
  5
4B
330
1F
100
AcDbEntity
  8
MAKE2D VISIBLE LINES
100
AcDbSpline
210
0.0
220
0.0
230
1.0
 70
     8
 71
     3
 72
    27
 73
    23
 74
     0
 42
0.0000000001
 43
0.0000000001
 40
0.0
 40
0.0
 40
0.0
 40
0.0
 40
0.0644234193669138
 40
0.171184410731382
 40
0.3099947639021313
 40
0.4898895225567613
 40
0.8396648021280148
 40
2.071917345780126
 40
2.904759993479961
 40
4.278036425795327
 40
5.793673633597519
 40
7.251046026353372
 40
8.696641933058554
 40
10.20824246246656
 40
11.56510570716737
 40
12.40029318090435
 40
12.83138322366347
 40
13.66452452014019
 40
13.98427127685113
 40
14.29492757690078
 40
14.40839054227956
 40
14.47615728207636
 40
14.47615728207636
 40
14.47615728207636
 40
14.47615728207636
 10
461.5742305156605
 20
170.067741802309
 30
0.0
 10
461.5742574646573
 20
170.089251919553
 30
0.0
 10
461.5816910047744
 20
170.145977927341
 30
0.0
 10
461.6074481425251
 20
170.2461642488104
 30
0.0
 10
461.6518131288382
 20
170.3809012607562
 30
0.0
 10
461.7303172351237
 20
170.5894895937383
 30
0.0
 10
461.9556035583473
 20
171.1318844584565
 30
0.0
 10
462.2785701175232
 20
171.8693105834137
 30
0.0
 10
462.6964787073841
 20
172.9367543600302
 30
0.0
 10
463.0846293486847
 20
174.1161324066826
 30
0.0
 10
463.3866407349819
 20
175.5362348350834
 30
0.0
 10
463.492634451425
 20
177.0090636592037
 30
0.0
 10
463.383961638508
 20
178.480420984691
 30
0.0
 10
463.0824442387488
 20
179.8894430703606
 30
0.0
 10
462.6968176961541
 20
181.0633763460449
 30
0.0
 10
462.3772307757628
 20
181.8773415872238
 30
0.0
 10
462.1075150027057
 20
182.5231183812374
 30
0.0
 10
461.8971736823804
 20
183.0074200651876
 30
0.0
 10
461.7110032921885
 20
183.4583398092724
 30
0.0
 10
461.6248837096867
 20
183.6910498933111
 30
0.0
 10
461.582394449479
 20
183.8495944796443
 30
0.0
 10
461.5742911769771
 20
183.9096387494716
 30
0.0
 10
461.5742305156605
 20
183.9322605319165
 30
0.0
  0
LINE
  5
4C
330
1F
100
AcDbEntity
  8
MAKE2D VISIBLE LINES
100
AcDbLine
 10
461.5742305156605
 20
190.0000011665527
 30
0.0
 11
461.5742305156605
 21
183.9322605319165
 31
0.0
  0
ARC
  5
4D
330
1F
100
AcDbEntity
  8
MAKE2D VISIBLE LINES
100
AcDbCircle
 10
303.5742314680373
 20
189.9999985583615
 30
0.0
 40
2.000003032086789
100
AcDbArc
 50
90.05731624386499
 51
179.9999253110375
  0
LINE
  5
4E
330
1F
100
AcDbEntity
  8
MAKE2D VISIBLE LINES
100
AcDbLine
 10
331.5742334404346
 20
183.9316154203841
 30
0.0
 11
331.5742333987085
 21
183.9310611760411
 31
0.0
  0
ARC
  5
4F
330
1F
100
AcDbEntity
  8
MAKE2D VISIBLE LINES
100
AcDbCircle
 10
329.5770001097328
 20
194.0000018532041
 30
0.0
 40
2.000000740539854
100
AcDbArc
 50
270.4419990999708
 51
359.7850665859578
  0
LINE
  5
50
330
1F
100
AcDbEntity
  8
MAKE2D VISIBLE LINES
100
AcDbLine
 10
491.5742305156605
 20
190.0000011665527
 30
0.0
 11
491.5742305156605
 21
181.8371087570147
 31
0.0
  0
LINE
  5
51
330
1F
100
AcDbEntity
  8
MAKE2D VISIBLE LINES
100
AcDbLine
 10
331.5742324230092
 20
170.067741802309
 30
0.0
 11
331.5742324230092
 21
164.0000011674788
 31
0.0
  0
LINE
  5
52
330
1F
100
AcDbEntity
  8
MAKE2D VISIBLE LINES
100
AcDbLine
 10
301.7548720668551
 20
190.0000207552857
 30
0.0
 11
301.7217357644821
 21
190.0000188775863
 31
0.0
  0
LINE
  5
53
330
1F
100
AcDbEntity
  8
MAKE2D VISIBLE LINES
100
AcDbLine
 10
302.0351808732332
 20
190.0000323107891
 30
0.0
 11
301.9887767189924
 21
190.0000307247853
 31
0.0
  0
ARC
  5
54
330
1F
100
AcDbEntity
  8
MAKE2D VISIBLE LINES
100
AcDbCircle
 10
397.5742332630045
 20
180.9992693888878
 30
0.0
 40
1.000001946286848
100
AcDbArc
 50
90.00010276950668
 51
177.4460697149703
  0
SPLINE
  5
55
330
1F
100
AcDbEntity
  8
MAKE2D VISIBLE LINES
100
AcDbSpline
210
0.0
220
0.0
230
1.0
 70
     8
 71
     3
 72
    27
 73
    23
 74
     0
 42
0.0000000001
 43
0.0000000001
 40
0.0
 40
0.0
 40
0.0
 40
0.0
 40
0.0644234193668969
 40
0.171184410731385
 40
0.3099947639021322
 40
0.4898895225568026
 40
0.8396648021280568
 40
2.071917345780125
 40
2.904759993479999
 40
4.278036425795312
 40
5.793673633597503
 40
7.251046026353372
 40
8.696641933058556
 40
10.20824246246656
 40
11.56510570716736
 40
12.40029318090433
 40
12.83138322366347
 40
13.66452452014025
 40
13.98427127685114
 40
14.29387699948499
 40
14.40710827882839
 40
14.47495808886402
 40
14.47495808886402
 40
14.47495808886402
 40
14.47495808886402
 10
331.5742324230092
 20
170.067741802309
 30
0.0
 10
331.5742054740126
 20
170.089251919553
 30
0.0
 10
331.5667719338954
 20
170.145977927341
 30
0.0
 10
331.5410147961441
 20
170.2461642488104
 30
0.0
 10
331.4966498098322
 20
170.3809012607562
 30
0.0
 10
331.4181457035456
 20
170.5894895937382
 30
0.0
 10
331.1928593803227
 20
171.1318844584565
 30
0.0
 10
330.8698928211466
 20
171.8693105834137
 30
0.0
 10
330.451984231285
 20
172.9367543600303
 30
0.0
 10
330.0638335899851
 20
174.1161324066826
 30
0.0
 10
329.7618222036876
 20
175.5362348350835
 30
0.0
 10
329.6558284872447
 20
177.0090636592037
 30
0.0
 10
329.764501300161
 20
178.4804209846909
 30
0.0
 10
330.0660186999212
 20
179.8894430703606
 30
0.0
 10
330.4516452425154
 20
181.0633763460449
 30
0.0
 10
330.7712321629071
 20
181.8773415872238
 30
0.0
 10
331.0409479359636
 20
182.5231183812374
 30
0.0
 10
331.2512879420158
 20
183.007420375363
 30
0.0
 10
331.4373289679243
 20
183.4580154319816
 30
0.0
 10
331.5233024593788
 20
183.690321238879
 30
0.0
 10
331.5658028221209
 20
183.8484451905276
 30
0.0
 10
331.5740488049921
 20
183.9084140595947
 30
0.0
 10
331.5742327467549
 20
183.931061138565
 30
0.0
  0
LINE
  5
56
330
1F
100
AcDbEntity
  8
MAKE2D VISIBLE LINES
100
AcDbLine
 10
331.5742324230092
 20
190.0000011665527
 30
0.0
 11
331.5742324230092
 21
183.9322605319165
 31
0.0
  0
SPLINE
  5
57
330
1F
100
AcDbEntity
  8
MAKE2D VISIBLE LINES
100
AcDbSpline
210
0.0
220
0.0
230
1.0
 70
     8
 71
     3
 72
    21
 73
    17
 74
     0
 42
0.0000000001
 43
0.0000000001
 40
0.0
 40
0.0
 40
0.0
 40
0.0
 40
0.174200144786092
 40
0.4183055869076288
 40
0.7088848487470922
 40
1.594089227753186
 40
1.987553374929302
 40
2.950184935549456
 40
4.863782452782078
 40
6.82427632307571
 40
7.740860518621654
 40
8.13429885591902
 40
9.028688797208813
 40
9.317702641582848
 40
9.560537810960064
 40
9.72778084888389
 40
9.72778084888389
 40
9.72778084888389
 40
9.72778084888389
 10
491.5742112570036
 20
181.8371088603599
 30
0.0
 10
491.5744338270757
 20
181.7790142359541
 30
0.0
 10
491.56493696951
 20
181.6397968379467
 30
0.0
 10
491.5352729370767
 20
181.4053314700531
 30
0.0
 10
491.4629662855515
 20
180.9375768957907
 30
0.0
 10
491.3752381692128
 20
180.4218843493865
 30
0.0
 10
491.2641168976976
 20
179.6830730138377
 30
0.0
 10
491.1263518916318
 20
178.6017414887862
 30
0.0
 10
491.0374349783917
 20
176.9897105547626
 30
0.0
 10
491.1267586203523
 20
175.3928187052852
 30
0.0
 10
491.265041550415
 20
174.3114397852523
 30
0.0
 10
491.3742638753652
 20
173.5847074731913
 30
0.0
 10
491.4622332999125
 20
173.0665252658543
 30
0.0
 10
491.5349559194522
 20
172.5966782481841
 30
0.0
 10
491.5643091907244
 20
172.3654725113792
 30
0.0
 10
491.5739052429997
 20
172.2290143764581
 30
0.0
 10
491.5742248326636
 20
172.1732512834553
 30
0.0
  0
ARC
  5
58
330
1F
100
AcDbEntity
  8
MAKE2D VISIBLE LINES
100
AcDbCircle
 10
329.5742328599225
 20
164.0000012442551
 30
0.0
 40
2.000000062443179
100
AcDbArc
 50
271.8652694768064
 51
359.9999978004957
  0
ARC
  5
59
330
1F
100
AcDbEntity
  8
MAKE2D VISIBLE LINES
100
AcDbCircle
 10
463.5742308625694
 20
190.0000010347005
 30
0.0
 40
2.00000056959596
100
AcDbArc
 50
90.06644010808994
 51
179.9999955999635
  0
ARC
  5
5A
330
1F
100
AcDbEntity
  8
MAKE2D VISIBLE LINES
100
AcDbCircle
 10
489.5742285195162
 20
164.0000059831994
 30
0.0
 40
2.000005983206901
100
AcDbArc
 50
270.0001561738454
 51
359.9998620702787
  0
ARC
  5
5B
330
1F
100
AcDbEntity
  8
MAKE2D VISIBLE LINES
100
AcDbCircle
 10
463.5714583299564
 20
193.9999975182112
 30
0.0
 40
1.999996225334011
100
AcDbArc
 50
180.2148097097767
 51
269.6546424177091
  0
ARC
  5
5C
330
1F
100
AcDbEntity
  8
MAKE2D VISIBLE LINES
100
AcDbCircle
 10
289.0741461331233
 20
252.3316510320106
 30
0.0
 40
0.9999999549555394
100
AcDbArc
 50
180.0000450313101
 51
216.4014540996152
  0
LINE
  5
5D
330
1F
100
AcDbEntity
  8
MAKE2D VISIBLE LINES
100
AcDbLine
 10
395.5742314693348
 20
170.999271094931
 30
0.0
 11
331.4078311789995
 21
170.999271094931
 31
0.0
  0
SPLINE
  5
5E
330
1F
100
AcDbEntity
  8
MAKE2D VISIBLE LINES
100
AcDbSpline
210
0.0
220
0.0
230
1.0
 70
     8
 71
     3
 72
    16
 73
    12
 74
     0
 42
0.0000000001
 43
0.0000000001
 40
0.0
 40
0.0
 40
0.0
 40
0.0
 40
5.672946561423639
 40
11.82642818359192
 40
18.41843797418299
 40
25.63956677049573
 40
33.45075368929791
 40
41.75196510695569
 40
50.63017823608502
 40
55.23004239362741
 40
60.15861960569704
 40
60.15861960569704
 40
60.15861960569704
 40
60.15861960569704
 10
344.8791117589097
 20
251.7382117449974
 30
0.0
 10
343.7568561203022
 20
250.2160284094312
 30
0.0
 10
341.6434630893734
 20
246.8789960057055
 30
0.0
 10
338.9876546258051
 20
241.3335833961312
 30
0.0
 10
336.7234306615084
 20
235.0676832410306
 30
0.0
 10
334.8570966507783
 20
228.0996025637501
 30
0.0
 10
333.3982101430831
 20
220.4552880770026
 30
0.0
 10
332.3524449104016
 20
212.1874413301965
 30
0.0
 10
331.8375417181354
 20
204.9435504512043
 30
0.0
 10
331.6218797334516
 20
198.8114705206329
 30
0.0
 10
331.5828184072275
 20
195.6353206435198
 30
0.0
 10
331.576986279351
 20
193.9924994722282
 30
0.0
  0
LINE
  5
5F
330
1F
100
AcDbEntity
  8
MAKE2D VISIBLE LINES
100
AcDbLine
 10
345.0742324228903
 20
253.9998745621759
 30
0.0
 11
345.0742324228903
 21
252.3316502459805
 31
0.0
  0
LINE
  5
60
330
1F
100
AcDbEntity
  8
MAKE2D VISIBLE LINES
100
AcDbLine
 10
396.5742314693348
 20
171.9991372589387
 30
0.0
 11
396.5742314693348
 21
181.9992710950809
 31
0.0
  0
LINE
  5
61
330
1F
100
AcDbEntity
  8
MAKE2D VISIBLE LINES
100
AcDbLine
 10
329.5770008480116
 20
191.9999992504363
 30
0.0
 11
329.6633929113072
 21
191.9980127798929
 31
0.0
  0
LINE
  5
62
330
1F
100
AcDbEntity
  8
MAKE2D VISIBLE LINES
100
AcDbLine
 10
301.5742284368159
 20
164.00000116718
 30
0.0
 11
331.5742324230092
 21
164.0000011674133
 31
0.0
  0
LINE
  5
63
330
1F
100
AcDbEntity
  8
MAKE2D VISIBLE LINES
100
AcDbLine
 10
301.9887767189924
 20
190.0000307247847
 30
0.0
 11
301.7548720668551
 21
190.0000207552852
 31
0.0
  0
LINE
  5
64
330
1F
100
AcDbEntity
  8
MAKE2D VISIBLE LINES
100
AcDbLine
 10
288.0742324228903
 20
254.0006046349824
 30
0.0
 11
345.0742324228903
 21
254.0006046349824
 31
0.0
  0
LINE
  5
65
330
1F
100
AcDbEntity
  8
MAKE2D VISIBLE LINES
100
AcDbLine
 10
329.639331547234
 20
162.0010609223137
 30
0.0
 11
329.5742324230098
 21
162.00000116755
 31
0.0
  0
LINE
  5
66
330
1F
100
AcDbEntity
  8
MAKE2D VISIBLE LINES
100
AcDbLine
 10
301.5742324230092
 20
181.8371181503443
 30
0.0
 11
301.5742324230092
 21
190.0000011665527
 31
0.0
  0
LINE
  5
67
330
1F
100
AcDbEntity
  8
MAKE2D VISIBLE LINES
100
AcDbLine
 10
331.5742324230092
 20
190.0000011665979
 30
0.0
 11
302.0351808732332
 21
190.0000323107916
 31
0.0
  0
LINE
  5
68
330
1F
100
AcDbEntity
  8
MAKE2D VISIBLE LINES
100
AcDbLine
 10
462.0969454972467
 20
171.999271094931
 30
0.0
 11
397.5742314693348
 21
171.999271094931
 31
0.0
  0
LINE
  5
69
330
1F
100
AcDbEntity
  8
MAKE2D VISIBLE LINES
100
AcDbLine
 10
301.5742324230092
 20
172.1983560311556
 30
0.0
 11
301.5742324230092
 21
181.7913953268086
 31
0.0
  0
LINE
  5
6A
330
1F
100
AcDbEntity
  8
MAKE2D VISIBLE LINES
100
AcDbLine
 10
331.4073509191795
 20
182.999271094931
 30
0.0
 11
395.5742314693348
 21
182.999271094931
 31
0.0
  0
LINE
  5
6B
330
1F
100
AcDbEntity
  8
MAKE2D VISIBLE LINES
100
AcDbLine
 10
397.5742314693348
 20
181.999271094931
 30
0.0
 11
462.0975098954289
 21
181.999271094931
 31
0.0
  0
LINE
  5
6C
330
1F
100
AcDbEntity
  8
MAKE2D VISIBLE LINES
100
AcDbLine
 10
301.7217357644821
 20
190.0000188775868
 30
0.0
 11
301.5742284368159
 21
190.0000011668596
 31
0.0
  0
ARC
  5
6D
330
1F
100
AcDbEntity
  8
MAKE2D VISIBLE LINES
100
AcDbCircle
 10
395.5742177358424
 20
171.9991242126443
 30
0.0
 40
1.000013733562651
100
AcDbArc
 50
270.0007868603483
 51
0.0006819768342025
  0
LINE
  5
6E
330
1F
100
AcDbEntity
  8
MAKE2D VISIBLE LINES
100
AcDbLine
 10
301.5742324230092
 20
164.0000011674788
 30
0.0
 11
301.5742324230092
 21
172.173266958048
 31
0.0
  0
SPLINE
  5
6F
330
1F
100
AcDbEntity
  8
MAKE2D VISIBLE LINES
100
AcDbSpline
210
0.0
220
0.0
230
1.0
 70
     8
 71
     3
 72
    25
 73
    21
 74
     0
 42
0.0000000001
 43
0.0000000001
 40
0.0
 40
0.0
 40
0.0
 40
0.0
 40
0.3989520925497856
 40
0.8572388174003424
 40
1.306038374094596
 40
1.575714792069144
 40
2.593878460654017
 40
3.27980705756632
 40
4.652351736225598
 40
5.931058274825349
 40
7.143728280495341
 40
8.357702097371552
 40
9.641380496907638
 40
11.01196328855579
 40
11.69997139870202
 40
12.72649622834841
 40
12.9968439031904
 40
13.44522698881872
 40
13.90195732689638
 40
14.29918839977922
 40
14.29918839977922
 40
14.29918839977922
 40
14.29918839977922
 10
331.5741901446568
 20
183.9175613366479
 30
0.0
 10
331.5734521068816
 20
183.7845703933415
 30
0.0
 10
331.5457494093365
 20
183.4991689186108
 30
0.0
 10
331.4372147059506
 20
183.0765865244341
 30
0.0
 10
331.3105174474915
 20
182.7054605023974
 30
0.0
 10
331.1128363860171
 20
182.1613031856188
 30
0.0
 10
330.8798209952337
 20
181.5460250631098
 30
0.0
 10
330.5433312509534
 20
180.5771707170024
 30
0.0
 10
330.2311846146578
 20
179.5084678102632
 30
0.0
 10
329.9958934544518
 20
178.2400475585604
 30
0.0
 10
329.9162821623177
 20
177.0051411233276
 30
0.0
 10
329.9945955330991
 20
175.7683432208931
 30
0.0
 10
330.2293029389596
 20
174.4984711756035
 30
0.0
 10
330.5414755345115
 20
173.4278767002487
 30
0.0
 10
330.8791933059687
 20
172.4565794889025
 30
0.0
 10
331.1129310569768
 20
171.8374886701229
 30
0.0
 10
331.3120416240301
 20
171.290895598747
 30
0.0
 10
331.438204431688
 20
170.9199704977707
 30
0.0
 10
331.5460861521565
 20
170.4985395730656
 30
0.0
 10
331.5734866029038
 20
170.2142091781651
 30
0.0
 10
331.5741931790293
 20
170.0817944140083
 30
0.0
  0
LINE
  5
70
330
1F
100
AcDbEntity
  8
MAKE2D VISIBLE LINES
100
AcDbLine
 10
303.5742289683233
 20
162.0000011672964
 30
0.0
 11
329.5742324230098
 21
162.0000011675063
 31
0.0
  0
LINE
  5
71
330
1F
100
AcDbEntity
  8
MAKE2D VISIBLE LINES
100
AcDbLine
 10
489.5742339703464
 20
162.0000011672964
 30
0.0
 11
463.5742305156598
 21
162.0000011675063
 31
0.0
  0
LINE
  5
72
330
1F
100
AcDbEntity
  8
MAKE2D VISIBLE LINES
100
AcDbLine
 10
461.5742305156605
 20
190.0000011665979
 30
0.0
 11
491.1132820654364
 21
190.0000323107916
 31
0.0
  0
LINE
  5
73
330
1F
100
AcDbEntity
  8
MAKE2D VISIBLE LINES
100
AcDbLine
 10
491.4267271741875
 20
190.0000188775868
 30
0.0
 11
491.5742345018537
 21
190.0000011668596
 31
0.0
  0
ARC
  5
74
330
1F
100
AcDbEntity
  8
MAKE2D VISIBLE LINES
100
AcDbCircle
 10
344.5732079335566
 20
252.1570235469403
 30
0.0
 40
0.5191587928971136
100
AcDbArc
 50
306.1629956790152
 51
15.12661495279852
  0
ARC
  5
75
330
1F
100
AcDbEntity
  8
MAKE2D VISIBLE LINES
100
AcDbCircle
 10
448.5752550051129
 20
252.1570235469403
 30
0.0
 40
0.5191587928970112
100
AcDbArc
 50
164.8733850471952
 51
233.8370043209912
  0
LINE
  5
76
330
1F
100
AcDbEntity
  8
MAKE2D VISIBLE LINES
100
AcDbLine
 10
505.0742305157793
 20
254.0006046349824
 30
0.0
 11
448.0742305157793
 21
254.0006046349824
 31
0.0
  0
SPLINE
  5
77
330
1F
100
AcDbEntity
  8
MAKE2D VISIBLE LINES
100
AcDbSpline
210
0.0
220
0.0
230
1.0
 70
     8
 71
     3
 72
    16
 73
    12
 74
     0
 42
0.0000000001
 43
0.0000000001
 40
0.0
 40
0.0
 40
0.0
 40
0.0
 40
5.672946561423696
 40
11.82642818359195
 40
18.41843797418301
 40
25.63956677049574
 40
33.45075368929793
 40
41.75196510695572
 40
50.63017823608498
 40
55.23004239362735
 40
60.15861960569701
 40
60.15861960569701
 40
60.15861960569701
 40
60.15861960569701
 10
448.2693511797598
 20
251.7382117449974
 30
0.0
 10
449.3916068183676
 20
250.2160284094312
 30
0.0
 10
451.5049998492955
 20
246.8789960057055
 30
0.0
 10
454.1608083128651
 20
241.3335833961312
 30
0.0
 10
456.425032277161
 20
235.0676832410307
 30
0.0
 10
458.29136628789
 20
228.0996025637501
 30
0.0
 10
459.7502527955861
 20
220.4552880770027
 30
0.0
 10
460.7960180282665
 20
212.1874413301964
 30
0.0
 10
461.3109212205331
 20
204.9435504512043
 30
0.0
 10
461.5265832052176
 20
198.8114705206328
 30
0.0
 10
461.5656445314408
 20
195.6353206435199
 30
0.0
 10
461.5714766593186
 20
193.9924994722282
 30
0.0
  0
LINE
  5
78
330
1F
100
AcDbEntity
  8
MAKE2D VISIBLE LINES
100
AcDbLine
 10
463.5091313915502
 20
162.00106092231
 30
0.0
 11
463.5742305156598
 21
162.00000116755
 31
0.0
  0
ARC
  5
79
330
1F
100
AcDbEntity
  8
MAKE2D VISIBLE LINES
100
AcDbCircle
 10
397.5742528672247
 20
172.9990784728402
 30
0.0
 40
1.000020754345762
100
AcDbArc
 50
181.760702009086
 51
269.9987740166629
  0
ARC
  5
7A
330
1F
100
AcDbEntity
  8
MAKE2D VISIBLE LINES
100
AcDbCircle
 10
489.577002006533
 20
194.0000015583024
 30
0.0
 40
2.000000423734403
100
AcDbArc
 50
271.1106166578641
 51
359.7850801782386
  0
ARC
  5
7B
330
1F
100
AcDbEntity
  8
MAKE2D VISIBLE LINES
100
AcDbCircle
 10
449.0742319895953
 20
252.3316507704872
 30
0.0
 40
1.000001591897361
100
AcDbArc
 50
180.0000300251831
 51
216.4013501887523
  0
LINE
  5
7C
330
1F
100
AcDbEntity
  8
MAKE2D VISIBLE LINES
100
AcDbLine
 10
491.5742345018537
 20
164.00000116718
 30
0.0
 11
461.5742305156605
 21
164.0000011674133
 31
0.0
  0
ARC
  5
7D
330
1F
100
AcDbEntity
  8
MAKE2D VISIBLE LINES
100
AcDbCircle
 10
329.5742319440749
 20
190.0000008786654
 30
0.0
 40
2.000000701621345
100
AcDbArc
 50
0.0000088701101697
 51
89.93466655006914
  0
SPLINE
  5
7E
330
1F
100
AcDbEntity
  8
MAKE2D VISIBLE LINES
100
AcDbSpline
210
0.0
220
0.0
230
1.0
 70
     8
 71
     3
 72
    15
 73
    11
 74
     0
 42
0.0000000001
 43
0.0000000001
 40
63.4314678111973
 40
63.4314678111973
 40
63.4314678111973
 40
63.4314678111973
 40
63.55080644859209
 40
63.55080644859209
 40
64.52560331706779
 40
64.52560331706779
 40
65.45582674967609
 40
65.45582674967609
 40
65.45582674967609
 40
67.40146988925852
 40
67.40146988925852
 40
67.40146988925852
 40
67.40146988925852
 10
331.5771352550129
 20
193.9924987196685
 30
0.0
 10
331.5769882522557
 20
193.9533311420083
 30
0.0
 10
331.5768485090208
 20
193.9141635140478
 30
0.0
 10
331.5756324135763
 20
193.5550614446036
 30
0.0
 10
331.5750096323739
 20
193.2351268044177
 30
0.0
 10
331.5743860295726
 20
192.6098842783219
 30
0.0
 10
331.5743756661958
 20
192.3045777402966
 30
0.0
 10
331.5743786621249
 20
191.9992710943874
 30
0.0
 10
330.9258309489308
 20
191.9992710943874
 30
0.0
 10
330.2772832357366
 20
191.9992710943874
 30
0.0
 10
329.6287355225425
 20
191.9992710943874
 30
0.0
  0
LINE
  5
7F
330
1F
100
AcDbEntity
  8
MAKE2D VISIBLE LINES
100
AcDbLine
 10
463.5714620906581
 20
191.9999992504363
 30
0.0
 11
463.4997493257425
 21
191.9986138233884
 31
0.0
  0
LINE
  5
80
330
1F
100
AcDbEntity
  8
MAKE2D VISIBLE LINES
100
AcDbLine
 10
491.1596862196773
 20
190.0000307247847
 30
0.0
 11
491.3935908718145
 21
190.0000207552852
 31
0.0
  0
SPLINE
  5
81
330
1F
100
AcDbEntity
  8
MAKE2D VISIBLE LINES
100
AcDbSpline
210
0.0
220
0.0
230
1.0
 70
     8
 71
     3
 72
    15
 73
    11
 74
     0
 42
0.0000000001
 43
0.0000000001
 40
63.4314678111973
 40
63.4314678111973
 40
63.4314678111973
 40
63.4314678111973
 40
63.55080644859209
 40
63.55080644859209
 40
64.52560331706779
 40
64.52560331706779
 40
65.45582674967609
 40
65.45582674967609
 40
65.45582674967609
 40
67.41639105825463
 40
67.41639105825463
 40
67.41639105825463
 40
67.41639105825463
 10
461.5713276836567
 20
193.9924987196685
 30
0.0
 10
461.5714746864139
 20
193.9533311420083
 30
0.0
 10
461.5716144296488
 20
193.9141635140478
 30
0.0
 10
461.5728305250933
 20
193.5550614446036
 30
0.0
 10
461.5734533062957
 20
193.2351268044177
 30
0.0
 10
461.574076909097
 20
192.6098842783219
 30
0.0
 10
461.5740872724738
 20
192.3045777402966
 30
0.0
 10
461.5740842765447
 20
191.9992710943874
 30
0.0
 10
462.2276057127375
 20
191.9992710943874
 30
0.0
 10
462.8811271489304
 20
191.9992710943874
 30
0.0
 10
463.5346485851233
 20
191.9992710943874
 30
0.0
  0
LINE
  5
82
330
1F
100
AcDbEntity
  8
MAKE2D VISIBLE LINES
100
AcDbLine
 10
448.0742305157793
 20
253.9998745621759
 30
0.0
 11
448.0742305157793
 21
252.3316502459805
 31
0.0
  0
LINE
  5
83
330
1F
100
AcDbEntity
  8
MAKE2D VISIBLE LINES
100
AcDbLine
 10
505.0742305157793
 20
254.0006046349824
 30
0.0
 11
505.0742305157793
 21
252.3316502459805
 31
0.0
  0
ARC
  5
84
330
1F
100
AcDbEntity
  8
MAKE2D VISIBLE LINES
100
AcDbCircle
 10
504.0743051351637
 20
252.3316548692064
 30
0.0
 40
1.000011625348521
100
AcDbArc
 50
323.5987657524204
 51
359.9997351166464
  0
ARC
  5
85
330
1F
100
AcDbEntity
  8
MAKE2D VISIBLE LINES
100
AcDbCircle
 10
395.5742270394178
 20
181.9992666856836
 30
0.0
 40
1.000004429936843
100
AcDbArc
 50
0.0003831679377192
 51
89.99974618557678
  0
ENDSEC
  0
SECTION
  2
OBJECTS
  0
DICTIONARY
  5
C
330
0
100
AcDbDictionary
281
     1
  3
ACAD_GROUP
350
D
  3
ACAD_LAYOUT
350
1A
  3
ACAD_MLEADERSTYLE
350
87
  3
ACAD_MLINESTYLE
350
17
  3
ACAD_PLOTSETTINGS
350
19
  3
ACAD_PLOTSTYLENAME
350
E
  3
ACAD_TABLESTYLE
350
86
  3
ACAD_VISUALSTYLE
350
2A
  0
DICTIONARY
  5
D
102
{ACAD_REACTORS
330
C
102
}
330
C
100
AcDbDictionary
281
     1
  0
DICTIONARY
  5
1A
102
{ACAD_REACTORS
330
C
102
}
330
C
100
AcDbDictionary
281
     1
  3
Layout1
350
1E
  3
Layout2
350
26
  3
Model
350
22
  0
DICTIONARY
  5
87
102
{ACAD_REACTORS
330
C
102
}
330
C
100
AcDbDictionary
281
     1
  0
DICTIONARY
  5
17
102
{ACAD_REACTORS
330
C
102
}
330
C
100
AcDbDictionary
281
     1
  3
Standard
350
18
  0
DICTIONARY
  5
19
102
{ACAD_REACTORS
330
C
102
}
330
C
100
AcDbDictionary
281
     1
  0
ACDBDICTIONARYWDFLT
  5
E
102
{ACAD_REACTORS
330
C
102
}
330
C
100
AcDbDictionary
281
     1
  3
Normal
350
F
100
AcDbDictionaryWithDefault
340
F
  0
DICTIONARY
  5
86
102
{ACAD_REACTORS
330
C
102
}
330
C
100
AcDbDictionary
281
     1
  0
DICTIONARY
  5
2A
102
{ACAD_REACTORS
330
C
102
}
330
C
100
AcDbDictionary
281
     1
  3
2dWireframe
350
2F
  3
3D Hidden
350
31
  3
3dWireframe
350
30
  3
Basic
350
32
  3
Brighten
350
36
  3
ColorChange
350
3A
  3
Conceptual
350
34
  3
Dim
350
35
  3
Facepattern
350
39
  3
Flat
350
2B
  3
FlatWithEdges
350
2C
  3
Gouraud
350
2D
  3
GouraudWithEdges
350
2E
  3
Linepattern
350
38
  3
Realistic
350
33
  3
Thicken
350
37
  0
LAYOUT
  5
1E
102
{ACAD_REACTORS
330
1A
102
}
330
1A
100
AcDbPlotSettings
  1

  2
none_device
  4

  6

 40
0.0
 41
0.0
 42
0.0
 43
0.0
 44
0.0
 45
0.0
 46
0.0
 47
0.0
 48
0.0
 49
0.0
140
0.0
141
0.0
142
1.0
143
1.0
 70
   688
 72
     0
 73
     0
 74
     5
  7

 75
    16
 76
     0
 77
     2
 78
   300
147
1.0
148
0.0
149
0.0
100
AcDbLayout
  1
Layout1
 70
     1
 71
     1
 10
0.0
 20
0.0
 11
12.0
 21
9.0
 12
0.0
 22
0.0
 32
0.0
 14
1.000000000000000E+20
 24
1.000000000000000E+20
 34
1.000000000000000E+20
 15
-1.000000000000000E+20
 25
-1.000000000000000E+20
 35
-1.000000000000000E+20
146
0.0
 13
0.0
 23
0.0
 33
0.0
 16
1.0
 26
0.0
 36
0.0
 17
0.0
 27
1.0
 37
0.0
 76
     0
330
1B
  0
LAYOUT
  5
26
102
{ACAD_REACTORS
330
1A
102
}
330
1A
100
AcDbPlotSettings
  1

  2
none_device
  4

  6

 40
0.0
 41
0.0
 42
0.0
 43
0.0
 44
0.0
 45
0.0
 46
0.0
 47
0.0
 48
0.0
 49
0.0
140
0.0
141
0.0
142
1.0
143
1.0
 70
   688
 72
     0
 73
     0
 74
     5
  7

 75
    16
 76
     0
 77
     2
 78
   300
147
1.0
148
0.0
149
0.0
100
AcDbLayout
  1
Layout2
 70
     1
 71
     2
 10
0.0
 20
0.0
 11
0.0
 21
0.0
 12
0.0
 22
0.0
 32
0.0
 14
0.0
 24
0.0
 34
0.0
 15
0.0
 25
0.0
 35
0.0
146
0.0
 13
0.0
 23
0.0
 33
0.0
 16
1.0
 26
0.0
 36
0.0
 17
0.0
 27
1.0
 37
0.0
 76
     0
330
23
  0
LAYOUT
  5
22
102
{ACAD_REACTORS
330
1A
102
}
330
1A
100
AcDbPlotSettings
  1

  2
none_device
  4

  6

 40
0.0
 41
0.0
 42
0.0
 43
0.0
 44
0.0
 45
0.0
 46
0.0
 47
0.0
 48
0.0
 49
0.0
140
0.0
141
0.0
142
1.0
143
1.0
 70
  1712
 72
     0
 73
     0
 74
     0
  7

 75
     0
 76
     0
 77
     2
 78
   300
147
1.0
148
0.0
149
0.0
100
AcDbLayout
  1
Model
 70
     1
 71
     0
 10
0.0
 20
0.0
 11
12.0
 21
9.0
 12
0.0
 22
0.0
 32
0.0
 14
288.0741461781681
 24
161.9999999999999
 34
0.0
 15
505.0743167605015
 25
254.0006046349824
 35
0.0
146
0.0
 13
0.0
 23
0.0
 33
0.0
 16
1.0
 26
0.0
 36
0.0
 17
0.0
 27
1.0
 37
0.0
 76
     0
330
1F
331
29
  0
MLINESTYLE
  5
18
102
{ACAD_REACTORS
330
17
102
}
330
17
100
AcDbMlineStyle
  2
Standard
 70
     0
  3

 62
   256
 51
90.0
 52
90.0
 71
     2
 49
0.5
 62
   256
  6
BYLAYER
 49
-0.5
 62
   256
  6
BYLAYER
  0
ACDBPLACEHOLDER
  5
F
102
{ACAD_REACTORS
330
E
102
}
330
E
  0
VISUALSTYLE
  5
2F
102
{ACAD_REACTORS
330
2A
102
}
330
2A
100
AcDbVisualStyle
  2
2dWireframe
 70
     4
 71
     0
 72
     2
 73
     0
 90
        0
 40
-0.6
 41
-30.0
 62
     5
 63
     7
421
 16777215
 74
     1
 91
        4
 64
     7
 65
   257
 75
     1
175
     1
 42
1.0
 92
        0
 66
   257
 43
1.0
 76
     1
 77
     6
 78
     2
 67
     7
 79
     5
170
     0
171
     0
290
     0
174
     0
 93
        1
 44
0.0
173
     0
291
     0
 45
0.0
1001
ACAD
1000
AcDbSavedByObjectVersion
1070
     0
  0
VISUALSTYLE
  5
31
102
{ACAD_REACTORS
330
2A
102
}
330
2A
100
AcDbVisualStyle
  2
3D Hidden
 70
     6
 71
     1
 72
     2
 73
     2
 90
        0
 40
-0.6
 41
-30.0
 62
     5
 63
     7
421
 16777215
 74
     2
 91
        2
 64
     7
 65
   257
 75
     2
175
     1
 42
40.0
 92
        0
 66
   257
 43
1.0
 76
     1
 77
     6
 78
     2
 67
     7
 79
     3
170
     0
171
     0
290
     0
174
     0
 93
        1
 44
0.0
173
     0
291
     0
 45
0.0
1001
ACAD
1000
AcDbSavedByObjectVersion
1070
     0
  0
VISUALSTYLE
  5
30
102
{ACAD_REACTORS
330
2A
102
}
330
2A
100
AcDbVisualStyle
  2
3dWireframe
 70
     5
 71
     0
 72
     2
 73
     0
 90
        0
 40
-0.6
 41
-30.0
 62
     5
 63
     7
421
 16777215
 74
     1
 91
        4
 64
     7
 65
   257
 75
     1
175
     1
 42
1.0
 92
        0
 66
   257
 43
1.0
 76
     1
 77
     6
 78
     2
 67
     7
 79
     5
170
     0
171
     0
290
     0
174
     0
 93
        1
 44
0.0
173
     0
291
     0
 45
0.0
1001
ACAD
1000
AcDbSavedByObjectVersion
1070
     0
  0
VISUALSTYLE
  5
32
102
{ACAD_REACTORS
330
2A
102
}
330
2A
100
AcDbVisualStyle
  2
Basic
 70
     7
 71
     1
 72
     0
 73
     1
 90
        0
 40
-0.6
 41
-30.0
 62
     5
 63
     7
421
 16777215
 74
     0
 91
        4
 64
     7
 65
   257
 75
     1
175
     1
 42
1.0
 92
        8
 66
     7
 43
1.0
 76
     1
 77
     6
 78
     2
 67
     7
 79
     5
170
     0
171
     0
290
     0
174
     0
 93
        1
 44
0.0
173
     0
291
     1
 45
0.0
1001
ACAD
1000
AcDbSavedByObjectVersion
1070
     0
  0
VISUALSTYLE
  5
36
102
{ACAD_REACTORS
330
2A
102
}
330
2A
100
AcDbVisualStyle
  2
Brighten
 70
    12
 71
     2
 72
     2
 73
     0
 90
        0
 40
-0.6
 41
-30.0
 62
     5
 63
     7
421
 16777215
 74
     1
 91
        4
 64
     7
 65
   257
 75
     1
175
     1
 42
1.0
 92
        8
 66
     7
 43
1.0
 76
     1
 77
     6
 78
     2
 67
     7
 79
     5
170
     0
171
     0
290
     0
174
     0
 93
        1
 44
50.0
173
     0
291
     1
 45
0.0
1001
ACAD
1000
AcDbSavedByObjectVersion
1070
     0
  0
VISUALSTYLE
  5
3A
102
{ACAD_REACTORS
330
2A
102
}
330
2A
100
AcDbVisualStyle
  2
ColorChange
 70
    16
 71
     2
 72
     2
 73
     3
 90
        0
 40
-0.6
 41
-30.0
 62
     5
 63
     8
421
  8421504
 74
     1
 91
        4
 64
     7
 65
   257
 75
     1
175
     1
 42
1.0
 92
        8
 66
     8
424
  8421504
 43
1.0
 76
     1
 77
     6
 78
     2
 67
     7
 79
     5
170
     0
171
     0
290
     0
174
     0
 93
        1
 44
0.0
173
     0
291
     1
 45
0.0
1001
ACAD
1000
AcDbSavedByObjectVersion
1070
     0
  0
VISUALSTYLE
  5
34
102
{ACAD_REACTORS
330
2A
102
}
330
2A
100
AcDbVisualStyle
  2
Conceptual
 70
     9
 71
     3
 72
     2
 73
     0
 90
        0
 40
-0.6
 41
-30.0
 62
     5
 63
     7
421
 16777215
 74
     2
 91
        2
 64
     7
 65
   257
 75
     1
175
     1
 42
40.0
 92
        8
 66
     7
 43
1.0
 76
     1
 77
     6
 78
     2
 67
     7
 79
     3
170
     0
171
     0
290
     0
174
     0
 93
        1
 44
0.0
173
     0
291
     0
 45
0.0
1001
ACAD
1000
AcDbSavedByObjectVersion
1070
     0
  0
VISUALSTYLE
  5
35
102
{ACAD_REACTORS
330
2A
102
}
330
2A
100
AcDbVisualStyle
  2
Dim
 70
    11
 71
     2
 72
     2
 73
     0
 90
        0
 40
-0.6
 41
-30.0
 62
     5
 63
     7
421
 16777215
 74
     1
 91
        4
 64
     7
 65
   257
 75
     1
175
     1
 42
1.0
 92
        8
 66
     7
 43
1.0
 76
     1
 77
     6
 78
     2
 67
     7
 79
     5
170
     0
171
     0
290
     0
174
     0
 93
        1
 44
-50.0
173
     0
291
     1
 45
0.0
1001
ACAD
1000
AcDbSavedByObjectVersion
1070
     0
  0
VISUALSTYLE
  5
39
102
{ACAD_REACTORS
330
2A
102
}
330
2A
100
AcDbVisualStyle
  2
Facepattern
 70
    15
 71
     2
 72
     2
 73
     0
 90
        0
 40
-0.6
 41
-30.0
 62
     5
 63
     7
421
 16777215
 74
     1
 91
        4
 64
     7
 65
   257
 75
     1
175
     1
 42
1.0
 92
        8
 66
     7
 43
1.0
 76
     1
 77
     6
 78
     2
 67
     7
 79
     5
170
     0
171
     0
290
     0
174
     0
 93
        1
 44
0.0
173
     0
291
     1
 45
0.0
1001
ACAD
1000
AcDbSavedByObjectVersion
1070
     0
  0
VISUALSTYLE
  5
2B
102
{ACAD_REACTORS
330
2A
102
}
330
2A
100
AcDbVisualStyle
  2
Flat
 70
     0
 71
     2
 72
     1
 73
     1
 90
        2
 40
-0.6
 41
30.0
 62
     5
 63
     7
421
 16777215
 74
     0
 91
        4
 64
     7
 65
   257
 75
     1
175
     1
 42
1.0
 92
        8
 66
     7
 43
1.0
 76
     1
 77
     6
 78
     2
 67
     7
 79
     5
170
     0
171
     0
290
     0
174
     0
 93
       13
 44
0.0
173
     0
291
     1
 45
0.0
1001
ACAD
1000
AcDbSavedByObjectVersion
1070
     0
  0
VISUALSTYLE
  5
2C
102
{ACAD_REACTORS
330
2A
102
}
330
2A
100
AcDbVisualStyle
  2
FlatWithEdges
 70
     1
 71
     2
 72
     1
 73
     1
 90
        2
 40
-0.6
 41
30.0
 62
     5
 63
     7
421
 16777215
 74
     1
 91
        4
 64
     7
 65
   257
 75
     1
175
     1
 42
1.0
 92
        0
 66
   257
 43
1.0
 76
     1
 77
     6
 78
     2
 67
     7
 79
     5
170
     0
171
     0
290
     0
174
     0
 93
       13
 44
0.0
173
     0
291
     1
 45
0.0
1001
ACAD
1000
AcDbSavedByObjectVersion
1070
     0
  0
VISUALSTYLE
  5
2D
102
{ACAD_REACTORS
330
2A
102
}
330
2A
100
AcDbVisualStyle
  2
Gouraud
 70
     2
 71
     2
 72
     2
 73
     1
 90
        2
 40
-0.6
 41
30.0
 62
     5
 63
     7
421
 16777215
 74
     0
 91
        4
 64
     7
 65
   257
 75
     1
175
     1
 42
1.0
 92
        0
 66
     7
 43
1.0
 76
     1
 77
     6
 78
     2
 67
     7
 79
     5
170
     0
171
     0
290
     0
174
     0
 93
       13
 44
0.0
173
     0
291
     1
 45
0.0
1001
ACAD
1000
AcDbSavedByObjectVersion
1070
     0
  0
VISUALSTYLE
  5
2E
102
{ACAD_REACTORS
330
2A
102
}
330
2A
100
AcDbVisualStyle
  2
GouraudWithEdges
 70
     3
 71
     2
 72
     2
 73
     1
 90
        2
 40
-0.6
 41
30.0
 62
     5
 63
     7
421
 16777215
 74
     1
 91
        4
 64
     7
 65
   257
 75
     1
175
     1
 42
1.0
 92
        0
 66
   257
 43
1.0
 76
     1
 77
     6
 78
     2
 67
     7
 79
     5
170
     0
171
     0
290
     0
174
     0
 93
       13
 44
0.0
173
     0
291
     1
 45
0.0
1001
ACAD
1000
AcDbSavedByObjectVersion
1070
     0
  0
VISUALSTYLE
  5
38
102
{ACAD_REACTORS
330
2A
102
}
330
2A
100
AcDbVisualStyle
  2
Linepattern
 70
    14
 71
     2
 72
     2
 73
     0
 90
        0
 40
-0.6
 41
-30.0
 62
     5
 63
     7
421
 16777215
 74
     1
 91
        4
 64
     7
 65
   257
 75
     7
175
     7
 42
1.0
 92
        8
 66
     7
 43
1.0
 76
     1
 77
     6
 78
     2
 67
     7
 79
     5
170
     0
171
     0
290
     0
174
     0
 93
        1
 44
0.0
173
     0
291
     1
 45
0.0
1001
ACAD
1000
AcDbSavedByObjectVersion
1070
     0
  0
VISUALSTYLE
  5
33
102
{ACAD_REACTORS
330
2A
102
}
330
2A
100
AcDbVisualStyle
  2
Realistic
 70
     8
 71
     2
 72
     2
 73
     0
 90
        0
 40
-0.6
 41
-30.0
 62
     5
 63
     7
421
 16777215
 74
     1
 91
        0
 64
     7
 65
   257
 75
     1
175
     1
 42
1.0
 92
        8
 66
     8
424
  7895160
 43
1.0
 76
     1
 77
     6
 78
     2
 67
     7
 79
     5
170
     0
171
     0
290
     0
174
     0
 93
       13
 44
0.0
173
     0
291
     0
 45
0.0
1001
ACAD
1000
AcDbSavedByObjectVersion
1070
     0
  0
VISUALSTYLE
  5
37
102
{ACAD_REACTORS
330
2A
102
}
330
2A
100
AcDbVisualStyle
  2
Thicken
 70
    13
 71
     2
 72
     2
 73
     0
 90
        0
 40
-0.6
 41
-30.0
 62
     5
 63
     7
421
 16777215
 74
     1
 91
        4
 64
     7
 65
   257
 75
     1
175
     1
 42
1.0
 92
       12
 66
     7
 43
1.0
 76
     1
 77
     6
 78
     2
 67
     7
 79
     5
170
     0
171
     0
290
     0
174
     0
 93
        1
 44
0.0
173
     0
291
     1
 45
0.0
1001
ACAD
1000
AcDbSavedByObjectVersion
1070
     0
  0
ENDSEC
  0
EOF
