  0
SECTION
  2
HEADER
  9
$ACADVER
  1
AC1018
  9
$ACADMAINTVER
 70
     0
  9
$DWGCODEPAGE
  3
ANSI_936
  9
$INSBASE
 10
0.0
 20
0.0
 30
0.0
  9
$EXTMIN
 10
-1365.000000689659
 20
3821.587934399306
 30
0.0
  9
$EXTMAX
 10
-1041.974578442766
 20
5759.326088797534
 30
0.0
  9
$LIMMIN
 10
0.0
 20
0.0
  9
$LIMMAX
 10
12.0
 20
9.0
  9
$ORTHOMODE
 70
     0
  9
$REGENMODE
 70
     1
  9
$FILLMODE
 70
     1
  9
$QTEXTMODE
 70
     0
  9
$MIRRTEXT
 70
     1
  9
$LTSCALE
 40
1.0
  9
$ATTMODE
 70
     1
  9
$TEXTSIZE
 40
0.2
  9
$TRACEWID
 40
0.05
  9
$TEXTSTYLE
  7
Standard
  9
$CLAYER
  8
0
  9
$CELTYPE
  6
ByLayer
  9
$CECOLOR
 62
   256
  9
$CELTSCALE
 40
1.0
  9
$DISPSILH
 70
     0
  9
$DIMSCALE
 40
1.0
  9
$DIMASZ
 40
0.18
  9
$DIMEXO
 40
0.0625
  9
$DIMDLI
 40
0.38
  9
$DIMRND
 40
0.0
  9
$DIMDLE
 40
0.0
  9
$DIMEXE
 40
0.18
  9
$DIMTP
 40
0.0
  9
$DIMTM
 40
0.0
  9
$DIMTXT
 40
0.18
  9
$DIMCEN
 40
0.09
  9
$DIMTSZ
 40
0.0
  9
$DIMTOL
 70
     0
  9
$DIMLIM
 70
     0
  9
$DIMTIH
 70
     1
  9
$DIMTOH
 70
     1
  9
$DIMSE1
 70
     0
  9
$DIMSE2
 70
     0
  9
$DIMTAD
 70
     0
  9
$DIMZIN
 70
     0
  9
$DIMBLK
  1

  9
$DIMASO
 70
     1
  9
$DIMSHO
 70
     1
  9
$DIMPOST
  1

  9
$DIMAPOST
  1

  9
$DIMALT
 70
     0
  9
$DIMALTD
 70
     2
  9
$DIMALTF
 40
25.4
  9
$DIMLFAC
 40
1.0
  9
$DIMTOFL
 70
     0
  9
$DIMTVP
 40
0.0
  9
$DIMTIX
 70
     0
  9
$DIMSOXD
 70
     0
  9
$DIMSAH
 70
     0
  9
$DIMBLK1
  1

  9
$DIMBLK2
  1

  9
$DIMSTYLE
  2
Standard
  9
$DIMCLRD
 70
     0
  9
$DIMCLRE
 70
     0
  9
$DIMCLRT
 70
     0
  9
$DIMTFAC
 40
1.0
  9
$DIMGAP
 40
0.09
  9
$DIMJUST
 70
     0
  9
$DIMSD1
 70
     0
  9
$DIMSD2
 70
     0
  9
$DIMTOLJ
 70
     1
  9
$DIMTZIN
 70
     0
  9
$DIMALTZ
 70
     0
  9
$DIMALTTZ
 70
     0
  9
$DIMUPT
 70
     0
  9
$DIMDEC
 70
     4
  9
$DIMTDEC
 70
     4
  9
$DIMALTU
 70
     2
  9
$DIMALTTD
 70
     2
  9
$DIMTXSTY
  7
Standard
  9
$DIMAUNIT
 70
     0
  9
$DIMADEC
 70
     0
  9
$DIMALTRND
 40
0.0
  9
$DIMAZIN
 70
     0
  9
$DIMDSEP
 70
    46
  9
$DIMATFIT
 70
     3
  9
$DIMFRAC
 70
     0
  9
$DIMLDRBLK
  1

  9
$DIMLUNIT
 70
     2
  9
$DIMLWD
 70
    -2
  9
$DIMLWE
 70
    -2
  9
$DIMTMOVE
 70
     2
  9
$LUNITS
 70
     2
  9
$LUPREC
 70
     2
  9
$SKETCHINC
 40
0.1
  9
$FILLETRAD
 40
0.5
  9
$AUNITS
 70
     0
  9
$AUPREC
 70
     0
  9
$MENU
  1
.
  9
$ELEVATION
 40
0.0
  9
$PELEVATION
 40
0.0
  9
$THICKNESS
 40
0.0
  9
$LIMCHECK
 70
     0
  9
$CHAMFERA
 40
0.5
  9
$CHAMFERB
 40
0.5
  9
$CHAMFERC
 40
1.0
  9
$CHAMFERD
 40
0.0
  9
$SKPOLY
 70
     0
  9
$TDCREATE
 40
2456459.835951782
  9
$TDUCREATE
 40
2456459.752618449
  9
$TDUPDATE
 40
2456459.835951794
  9
$TDUUPDATE
 40
2456459.75261846
  9
$TDINDWG
 40
0.0000000116
  9
$TDUSRTIMER
 40
0.0000000116
  9
$USRTIMER
 70
     1
  9
$ANGBASE
 50
0.0
  9
$ANGDIR
 70
     0
  9
$PDMODE
 70
     0
  9
$PDSIZE
 40
0.0
  9
$PLINEWID
 40
0.0
  9
$SPLFRAME
 70
     0
  9
$SPLINETYPE
 70
     6
  9
$SPLINESEGS
 70
     8
  9
$HANDSEED
  5
4C7
  9
$SURFTAB1
 70
     6
  9
$SURFTAB2
 70
     6
  9
$SURFTYPE
 70
     6
  9
$SURFU
 70
     6
  9
$SURFV
 70
     6
  9
$UCSBASE
  2

  9
$UCSNAME
  2

  9
$UCSORG
 10
0.0
 20
0.0
 30
0.0
  9
$UCSXDIR
 10
1.0
 20
0.0
 30
0.0
  9
$UCSYDIR
 10
0.0
 20
1.0
 30
0.0
  9
$UCSORTHOREF
  2

  9
$UCSORTHOVIEW
 70
     0
  9
$UCSORGTOP
 10
0.0
 20
0.0
 30
0.0
  9
$UCSORGBOTTOM
 10
0.0
 20
0.0
 30
0.0
  9
$UCSORGLEFT
 10
0.0
 20
0.0
 30
0.0
  9
$UCSORGRIGHT
 10
0.0
 20
0.0
 30
0.0
  9
$UCSORGFRONT
 10
0.0
 20
0.0
 30
0.0
  9
$UCSORGBACK
 10
0.0
 20
0.0
 30
0.0
  9
$PUCSBASE
  2

  9
$PUCSNAME
  2

  9
$PUCSORG
 10
0.0
 20
0.0
 30
0.0
  9
$PUCSXDIR
 10
1.0
 20
0.0
 30
0.0
  9
$PUCSYDIR
 10
0.0
 20
1.0
 30
0.0
  9
$PUCSORTHOREF
  2

  9
$PUCSORTHOVIEW
 70
     0
  9
$PUCSORGTOP
 10
0.0
 20
0.0
 30
0.0
  9
$PUCSORGBOTTOM
 10
0.0
 20
0.0
 30
0.0
  9
$PUCSORGLEFT
 10
0.0
 20
0.0
 30
0.0
  9
$PUCSORGRIGHT
 10
0.0
 20
0.0
 30
0.0
  9
$PUCSORGFRONT
 10
0.0
 20
0.0
 30
0.0
  9
$PUCSORGBACK
 10
0.0
 20
0.0
 30
0.0
  9
$USERI1
 70
     0
  9
$USERI2
 70
     0
  9
$USERI3
 70
     0
  9
$USERI4
 70
     0
  9
$USERI5
 70
     0
  9
$USERR1
 40
0.0
  9
$USERR2
 40
0.0
  9
$USERR3
 40
0.0
  9
$USERR4
 40
0.0
  9
$USERR5
 40
0.0
  9
$WORLDVIEW
 70
     1
  9
$SHADEDGE
 70
     3
  9
$SHADEDIF
 70
    70
  9
$TILEMODE
 70
     1
  9
$MAXACTVP
 70
    64
  9
$PINSBASE
 10
0.0
 20
0.0
 30
0.0
  9
$PLIMCHECK
 70
     0
  9
$PEXTMIN
 10
1.000000000000000E+20
 20
1.000000000000000E+20
 30
1.000000000000000E+20
  9
$PEXTMAX
 10
-1.000000000000000E+20
 20
-1.000000000000000E+20
 30
-1.000000000000000E+20
  9
$PLIMMIN
 10
0.0
 20
0.0
  9
$PLIMMAX
 10
12.0
 20
9.0
  9
$UNITMODE
 70
     0
  9
$VISRETAIN
 70
     1
  9
$PLINEGEN
 70
     0
  9
$PSLTSCALE
 70
     1
  9
$TREEDEPTH
 70
  3020
  9
$CMLSTYLE
  2
Standard
  9
$CMLJUST
 70
     0
  9
$CMLSCALE
 40
1.0
  9
$PROXYGRAPHICS
 70
     1
  9
$MEASUREMENT
 70
     0
  9
$CELWEIGHT
370
    -1
  9
$ENDCAPS
280
     0
  9
$JOINSTYLE
280
     0
  9
$LWDISPLAY
290
     0
  9
$INSUNITS
 70
     4
  9
$HYPERLINKBASE
  1

  9
$STYLESHEET
  1

  9
$XEDIT
290
     1
  9
$CEPSNTYPE
380
     0
  9
$PSTYLEMODE
290
     1
  9
$FINGERPRINTGUID
  2
{4495C8A7-FF44-4D1E-AEDB-FD6DE8D46BCD}
  9
$VERSIONGUID
  2
{FAEB1C32-E019-11D5-929B-00C0DF256EC4}
  9
$EXTNAMES
290
     1
  9
$PSVPSCALE
 40
0.0
  9
$OLESTARTUP
290
     0
  9
$SORTENTS
280
   127
  9
$INDEXCTL
280
     0
  9
$HIDETEXT
280
     1
  9
$XCLIPFRAME
290
     0
  9
$HALOGAP
280
     0
  9
$OBSCOLOR
 70
   257
  9
$OBSLTYPE
280
     0
  9
$INTERSECTIONDISPLAY
280
     0
  9
$INTERSECTIONCOLOR
 70
   257
  9
$DIMASSOC
280
     2
  9
$PROJECTNAME
  1

  0
ENDSEC
  0
SECTION
  2
CLASSES
  0
CLASS
  1
ACDBDICTIONARYWDFLT
  2
AcDbDictionaryWithDefault
  3
ObjectDBX Classes
 90
        0
 91
        4
280
     0
281
     0
  0
CLASS
  1
VISUALSTYLE
  2
AcDbVisualStyle
  3
ObjectDBX Classes
 90
     4095
 91
        4
280
     0
281
     0
  0
ENDSEC
  0
SECTION
  2
TABLES
  0
TABLE
  2
VPORT
  5
8
330
0
100
AcDbSymbolTable
 70
     1
  0
VPORT
  5
29
330
8
100
AcDbSymbolTableRecord
100
AcDbViewportTableRecord
  2
*Active
 70
     0
 10
0.0
 20
0.0
 11
1.0
 21
1.0
 12
-1203.487289566212
 22
4790.45701159842
 13
0.0
 23
0.0
 14
0.5
 24
0.5
 15
0.5
 25
0.5
 16
0.0
 26
0.0
 36
1.0
 17
0.0
 27
0.0
 37
0.0
 40
1976.492917486193
 41
0.1667023077982431
 42
50.0
 43
0.0
 44
0.0
 50
0.0
 51
0.0
 71
     0
 72
   100
 73
     1
 74
     3
 75
     0
 76
     0
 77
     0
 78
     0
281
     0
 65
     1
110
0.0
120
0.0
130
0.0
111
1.0
121
0.0
131
0.0
112
0.0
122
1.0
132
0.0
 79
     0
146
0.0
  0
ENDTAB
  0
TABLE
  2
LTYPE
  5
5
330
0
100
AcDbSymbolTable
 70
     1
  0
LTYPE
  5
14
330
5
100
AcDbSymbolTableRecord
100
AcDbLinetypeTableRecord
  2
ByBlock
 70
     0
  3

 72
    65
 73
     0
 40
0.0
  0
LTYPE
  5
15
330
5
100
AcDbSymbolTableRecord
100
AcDbLinetypeTableRecord
  2
ByLayer
 70
     0
  3

 72
    65
 73
     0
 40
0.0
  0
LTYPE
  5
16
330
5
100
AcDbSymbolTableRecord
100
AcDbLinetypeTableRecord
  2
Continuous
 70
     0
  3
Solid line
 72
    65
 73
     0
 40
0.0
  0
ENDTAB
  0
TABLE
  2
LAYER
  5
2
330
0
100
AcDbSymbolTable
 70
     2
  0
LAYER
  5
10
330
2
100
AcDbSymbolTableRecord
100
AcDbLayerTableRecord
  2
0
 70
     0
 62
     7
  6
Continuous
370
    -3
390
F
  0
LAYER
  5
3B
330
2
100
AcDbSymbolTableRecord
100
AcDbLayerTableRecord
  2
MAKE2D VISIBLE LINES
 70
     0
 62
     7
  6
Continuous
370
    -3
390
F
  0
ENDTAB
  0
TABLE
  2
STYLE
  5
3
330
0
100
AcDbSymbolTable
 70
     1
  0
STYLE
  5
11
330
3
100
AcDbSymbolTableRecord
100
AcDbTextStyleTableRecord
  2
Standard
 70
     0
 40
0.0
 41
1.0
 50
0.0
 71
     0
 42
0.2
  3
txt
  4

  0
ENDTAB
  0
TABLE
  2
VIEW
  5
6
330
0
100
AcDbSymbolTable
 70
     0
  0
ENDTAB
  0
TABLE
  2
UCS
  5
7
330
0
100
AcDbSymbolTable
 70
     0
  0
ENDTAB
  0
TABLE
  2
APPID
  5
9
330
0
100
AcDbSymbolTable
 70
     1
  0
APPID
  5
12
330
9
100
AcDbSymbolTableRecord
100
AcDbRegAppTableRecord
  2
ACAD
 70
     0
  0
ENDTAB
  0
TABLE
  2
DIMSTYLE
  5
A
330
0
100
AcDbSymbolTable
 70
     1
100
AcDbDimStyleTable
  0
DIMSTYLE
105
27
330
A
100
AcDbSymbolTableRecord
100
AcDbDimStyleTableRecord
  2
Standard
 70
     0
340
11
  0
ENDTAB
  0
TABLE
  2
BLOCK_RECORD
  5
1
330
0
100
AcDbSymbolTable
 70
     1
  0
BLOCK_RECORD
  5
1F
330
1
100
AcDbSymbolTableRecord
100
AcDbBlockTableRecord
  2
*Model_Space
340
22
  0
BLOCK_RECORD
  5
1B
330
1
100
AcDbSymbolTableRecord
100
AcDbBlockTableRecord
  2
*Paper_Space
340
1E
  0
BLOCK_RECORD
  5
23
330
1
100
AcDbSymbolTableRecord
100
AcDbBlockTableRecord
  2
*Paper_Space0
340
26
  0
ENDTAB
  0
ENDSEC
  0
SECTION
  2
BLOCKS
  0
BLOCK
  5
20
330
1F
100
AcDbEntity
  8
0
100
AcDbBlockBegin
  2
*Model_Space
 70
     0
 10
0.0
 20
0.0
 30
0.0
  3
*Model_Space
  1

  0
ENDBLK
  5
21
330
1F
100
AcDbEntity
  8
0
100
AcDbBlockEnd
  0
BLOCK
  5
1C
330
1B
100
AcDbEntity
 67
     1
  8
0
100
AcDbBlockBegin
  2
*Paper_Space
 70
     0
 10
0.0
 20
0.0
 30
0.0
  3
*Paper_Space
  1

  0
ENDBLK
  5
1D
330
1B
100
AcDbEntity
 67
     1
  8
0
100
AcDbBlockEnd
  0
BLOCK
  5
24
330
23
100
AcDbEntity
  8
0
100
AcDbBlockBegin
  2
*Paper_Space0
 70
     0
 10
0.0
 20
0.0
 30
0.0
  3
*Paper_Space0
  1

  0
ENDBLK
  5
25
330
23
100
AcDbEntity
  8
0
100
AcDbBlockEnd
  0
ENDSEC
  0
SECTION
  2
ENTITIES
  0
ARC
  5
3C
330
1F
100
AcDbEntity
  8
MAKE2D VISIBLE LINES
100
AcDbCircle
 10
-1293.070810930909
 20
4671.24545465129
 30
0.0
 40
32.90059273388434
100
AcDbArc
 50
223.8575350084974
 51
236.4407464966428
  0
LINE
  5
3D
330
1F
100
AcDbEntity
  8
MAKE2D VISIBLE LINES
100
AcDbLine
 10
-1315.0
 20
4691.316359364471
 30
0.0
 11
-1313.0
 21
4691.316359364471
 31
0.0
  0
LINE
  5
3E
330
1F
100
AcDbEntity
  8
MAKE2D VISIBLE LINES
100
AcDbLine
 10
-1313.0
 20
4651.316359364471
 30
0.0
 11
-1315.0
 21
4651.316359364471
 31
0.0
  0
ARC
  5
3F
330
1F
100
AcDbEntity
  8
MAKE2D VISIBLE LINES
100
AcDbCircle
 10
-1152.946463570462
 20
4671.431597893095
 30
0.0
 40
32.87395408268188
100
AcDbArc
 50
55.2241764719304
 51
76.96975666280731
  0
ARC
  5
40
330
1F
100
AcDbEntity
  8
MAKE2D VISIBLE LINES
100
AcDbCircle
 10
-1153.019605681112
 20
4671.376345089757
 30
0.0
 40
32.93761027313401
100
AcDbArc
 50
99.30070006708259
 51
122.3658952068836
  0
ARC
  5
41
330
1F
100
AcDbEntity
  8
MAKE2D VISIBLE LINES
100
AcDbCircle
 10
-1238.500592606464
 20
5613.816371593936
 30
0.0
 40
0.5000122295001491
100
AcDbArc
 50
180.0014013591879
 51
270.0006964589787
  0
ARC
  5
42
330
1F
100
AcDbEntity
  8
MAKE2D VISIBLE LINES
100
AcDbCircle
 10
-1207.499343450271
 20
5613.816378626837
 30
0.0
 40
0.5000192623665004
100
AcDbArc
 50
269.9999133772556
 51
359.9977927805227
  0
ARC
  5
43
330
1F
100
AcDbEntity
  8
MAKE2D VISIBLE LINES
100
AcDbCircle
 10
-1292.980774556212
 20
4671.375345857702
 30
0.0
 40
32.93865782210842
100
AcDbArc
 50
57.63447662487684
 51
80.69892812384802
  0
LINE
  5
44
330
1F
100
AcDbEntity
  8
MAKE2D VISIBLE LINES
100
AcDbLine
 10
-1136.0
 20
5284.316359364471
 30
0.0
 11
-1167.999989026161
 21
5284.316359364471
 31
0.0
  0
LINE
  5
45
330
1F
100
AcDbEntity
  8
MAKE2D VISIBLE LINES
100
AcDbLine
 10
-1220.0
 20
5601.316359364471
 30
0.0
 11
-1226.0
 21
5601.316359364471
 31
0.0
  0
ARC
  5
46
330
1F
100
AcDbEntity
  8
MAKE2D VISIBLE LINES
100
AcDbCircle
 10
-1166.994600332771
 20
5163.314911434742
 30
0.0
 40
1.005410055920771
100
AcDbArc
 50
152.7260271916398
 51
179.9174861134688
  0
LINE
  5
47
330
1F
100
AcDbEntity
  8
MAKE2D VISIBLE LINES
100
AcDbLine
 10
-1167.000484551369
 20
5377.316368459467
 30
0.0
 11
-1167.000490372639
 21
5378.31635035806
 31
0.0
  0
ARC
  5
48
330
1F
100
AcDbEntity
  8
MAKE2D VISIBLE LINES
100
AcDbCircle
 10
-1136.999353336138
 20
5165.316411097307
 30
0.0
 40
1.000049211803327
100
AcDbArc
 50
180.0029639272686
 51
261.004487473341
  0
LINE
  5
49
330
1F
100
AcDbEntity
  8
MAKE2D VISIBLE LINES
100
AcDbLine
 10
-1215.752176510586
 20
5757.57874072204
 30
0.0
 11
-1215.631692154862
 21
5757.516882095098
 31
0.0
  0
LINE
  5
4A
330
1F
100
AcDbEntity
  8
MAKE2D VISIBLE LINES
100
AcDbLine
 10
-1216.66088624585
 20
5758.005135282156
 30
0.0
 11
-1216.631562628892
 21
5757.992447754625
 31
0.0
  0
LINE
  5
4B
330
1F
100
AcDbEntity
  8
MAKE2D VISIBLE LINES
100
AcDbLine
 10
-1221.62452295332
 20
5759.25520290735
 30
0.0
 11
-1221.001733941277
 21
5759.189166631078
 31
0.0
  0
LINE
  5
4C
330
1F
100
AcDbEntity
  8
MAKE2D VISIBLE LINES
100
AcDbLine
 10
-1225.262352088191
 20
5759.153684340073
 30
0.0
 11
-1224.500424978853
 21
5759.243926474997
 31
0.0
  0
LINE
  5
4D
330
1F
100
AcDbEntity
  8
MAKE2D VISIBLE LINES
100
AcDbLine
 10
-1228.135534737286
 20
5758.46787986958
 30
0.0
 11
-1227.957884729648
 21
5758.526923121609
 31
0.0
  0
LINE
  5
4E
330
1F
100
AcDbEntity
  8
MAKE2D VISIBLE LINES
100
AcDbLine
 10
-1229.598236671641
 20
5757.89060301095
 30
0.0
 11
-1229.370082553491
 21
5757.991734743531
 31
0.0
  0
LINE
  5
4F
330
1F
100
AcDbEntity
  8
MAKE2D VISIBLE LINES
100
AcDbLine
 10
-1230.494460978836
 20
5757.450709745836
 30
0.0
 11
-1230.445864129489
 21
5757.476366321303
 31
0.0
  0
LINE
  5
50
330
1F
100
AcDbEntity
  8
MAKE2D VISIBLE LINES
100
AcDbLine
 10
-1232.163619197893
 20
5756.430473071495
 30
0.0
 11
-1231.801237453903
 21
5756.676327519258
 31
0.0
  0
LINE
  5
51
330
1F
100
AcDbEntity
  8
MAKE2D VISIBLE LINES
100
AcDbLine
 10
-1207.009311542478
 20
5742.777883801462
 30
0.0
 11
-1207.008101184847
 21
5742.814565791022
 31
0.0
  0
LINE
  5
52
330
1F
100
AcDbEntity
  8
MAKE2D VISIBLE LINES
100
AcDbLine
 10
-1238.99273236747
 20
5742.834205181837
 30
0.0
 11
-1238.992163830338
 21
5742.815707904233
 31
0.0
  0
POLYLINE
  5
53
330
1F
100
AcDbEntity
  8
MAKE2D VISIBLE LINES
100
AcDb2dPolyline
 66
     1
 10
0.0
 20
0.0
 30
0.0
  0
VERTEX
  5
54
330
53
100
AcDbEntity
  8
MAKE2D VISIBLE LINES
100
AcDbVertex
100
AcDb2dVertex
 10
-1166.818036947646
 20
5164.333053996055
 30
0.0
  0
VERTEX
  5
55
330
53
100
AcDbEntity
  8
MAKE2D VISIBLE LINES
100
AcDbVertex
100
AcDb2dVertex
 10
-1166.86816114734
 20
5164.325115913292
 30
0.0
 42
0.3738937357395254
  0
VERTEX
  5
56
330
53
100
AcDbEntity
  8
MAKE2D VISIBLE LINES
100
AcDbVertex
100
AcDb2dVertex
 10
-1166.000004074944
 20
5165.316359364471
 30
0.0
  0
SEQEND
  5
57
330
53
100
AcDbEntity
  8
MAKE2D VISIBLE LINES
  0
POLYLINE
  5
58
330
1F
100
AcDbEntity
  8
MAKE2D VISIBLE LINES
100
AcDb2dPolyline
 66
     1
 10
0.0
 20
0.0
 30
0.0
  0
VERTEX
  5
59
330
58
100
AcDbEntity
  8
MAKE2D VISIBLE LINES
100
AcDbVertex
100
AcDb2dVertex
 10
-1239.000604835814
 20
5616.816359364473
 30
0.0
 42
-0.4141714938949679
  0
VERTEX
  5
5A
330
58
100
AcDbEntity
  8
MAKE2D VISIBLE LINES
100
AcDbVertex
100
AcDb2dVertex
 10
-1238.497948691312
 20
5617.316359363338
 30
0.0
  0
VERTEX
  5
5B
330
58
100
AcDbEntity
  8
MAKE2D VISIBLE LINES
100
AcDbVertex
100
AcDb2dVertex
 10
-1207.501985235588
 20
5617.316359363276
 30
0.0
 42
-0.4141776443074265
  0
VERTEX
  5
5C
330
58
100
AcDbEntity
  8
MAKE2D VISIBLE LINES
100
AcDbVertex
100
AcDb2dVertex
 10
-1206.999324188276
 20
5616.816359364471
 30
0.0
  0
SEQEND
  5
5D
330
58
100
AcDbEntity
  8
MAKE2D VISIBLE LINES
  0
POLYLINE
  5
5E
330
1F
100
AcDbEntity
  8
MAKE2D VISIBLE LINES
100
AcDb2dPolyline
 66
     1
 10
0.0
 20
0.0
 30
0.0
  0
VERTEX
  5
5F
330
5E
100
AcDbEntity
  8
MAKE2D VISIBLE LINES
100
AcDbVertex
100
AcDb2dVertex
 10
-1220.0
 20
5603.316359364471
 30
0.0
  0
VERTEX
  5
60
330
5E
100
AcDbEntity
  8
MAKE2D VISIBLE LINES
100
AcDbVertex
100
AcDb2dVertex
 10
-1219.998981723791
 20
5601.716359364472
 30
0.0
 42
-0.370156982680507
  0
VERTEX
  5
61
330
5E
100
AcDbEntity
  8
MAKE2D VISIBLE LINES
100
AcDbVertex
100
AcDb2dVertex
 10
-1220.335926770849
 20
5601.321278059938
 30
0.0
  0
SEQEND
  5
62
330
5E
100
AcDbEntity
  8
MAKE2D VISIBLE LINES
  0
POLYLINE
  5
63
330
1F
100
AcDbEntity
  8
MAKE2D VISIBLE LINES
100
AcDb2dPolyline
 66
     1
 10
0.0
 20
0.0
 30
0.0
  0
VERTEX
  5
64
330
63
100
AcDbEntity
  8
MAKE2D VISIBLE LINES
100
AcDbVertex
100
AcDb2dVertex
 10
-1225.664087698507
 20
5601.321225345893
 30
0.0
 42
-0.3700073302702642
  0
VERTEX
  5
65
330
63
100
AcDbEntity
  8
MAKE2D VISIBLE LINES
100
AcDbVertex
100
AcDb2dVertex
 10
-1226.000957741943
 20
5601.716359364471
 30
0.0
  0
VERTEX
  5
66
330
63
100
AcDbEntity
  8
MAKE2D VISIBLE LINES
100
AcDbVertex
100
AcDb2dVertex
 10
-1226.0
 20
5603.316359364471
 30
0.0
  0
SEQEND
  5
67
330
63
100
AcDbEntity
  8
MAKE2D VISIBLE LINES
  0
POLYLINE
  5
68
330
1F
100
AcDbEntity
  8
MAKE2D VISIBLE LINES
100
AcDb2dPolyline
 66
     1
 10
0.0
 20
0.0
 30
0.0
  0
VERTEX
  5
69
330
68
100
AcDbEntity
  8
MAKE2D VISIBLE LINES
100
AcDbVertex
100
AcDb2dVertex
 10
-1264.588689528643
 20
5603.316359364471
 30
0.0
  0
VERTEX
  5
6A
330
68
100
AcDbEntity
  8
MAKE2D VISIBLE LINES
100
AcDbVertex
100
AcDb2dVertex
 10
-1264.587753907981
 20
5601.716359364471
 30
0.0
 42
-0.3851068057325627
  0
VERTEX
  5
6B
330
68
100
AcDbEntity
  8
MAKE2D VISIBLE LINES
100
AcDbVertex
100
AcDb2dVertex
 10
-1264.945719156001
 20
5601.318513706457
 30
0.0
  0
SEQEND
  5
6C
330
68
100
AcDbEntity
  8
MAKE2D VISIBLE LINES
  0
POLYLINE
  5
6D
330
1F
100
AcDbEntity
  8
MAKE2D VISIBLE LINES
100
AcDb2dPolyline
 66
     1
 10
0.0
 20
0.0
 30
0.0
  0
VERTEX
  5
6E
330
6D
100
AcDbEntity
  8
MAKE2D VISIBLE LINES
100
AcDbVertex
100
AcDb2dVertex
 10
-1140.0
 20
5603.316359364471
 30
0.0
  0
VERTEX
  5
6F
330
6D
100
AcDbEntity
  8
MAKE2D VISIBLE LINES
100
AcDbVertex
100
AcDb2dVertex
 10
-1139.999097411401
 20
5601.716359364471
 30
0.0
 42
-0.3698592353320716
  0
VERTEX
  5
70
330
6D
100
AcDbEntity
  8
MAKE2D VISIBLE LINES
100
AcDbVertex
100
AcDb2dVertex
 10
-1140.335931830874
 20
5601.321296973895
 30
0.0
  0
SEQEND
  5
71
330
6D
100
AcDbEntity
  8
MAKE2D VISIBLE LINES
  0
POLYLINE
  5
72
330
1F
100
AcDbEntity
  8
MAKE2D VISIBLE LINES
100
AcDb2dPolyline
 66
     1
 10
0.0
 20
0.0
 30
0.0
  0
VERTEX
  5
73
330
72
100
AcDbEntity
  8
MAKE2D VISIBLE LINES
100
AcDbVertex
100
AcDb2dVertex
 10
-1305.664084159307
 20
5601.321240116473
 30
0.0
 42
-0.3698768398631355
  0
VERTEX
  5
74
330
72
100
AcDbEntity
  8
MAKE2D VISIBLE LINES
100
AcDbVertex
100
AcDb2dVertex
 10
-1306.000902588599
 20
5601.716359364471
 30
0.0
  0
VERTEX
  5
75
330
72
100
AcDbEntity
  8
MAKE2D VISIBLE LINES
100
AcDbVertex
100
AcDb2dVertex
 10
-1306.0
 20
5603.316359364471
 30
0.0
  0
SEQEND
  5
76
330
72
100
AcDbEntity
  8
MAKE2D VISIBLE LINES
  0
POLYLINE
  5
77
330
1F
100
AcDbEntity
  8
MAKE2D VISIBLE LINES
100
AcDb2dPolyline
 66
     1
 10
0.0
 20
0.0
 30
0.0
  0
VERTEX
  5
78
330
77
100
AcDbEntity
  8
MAKE2D VISIBLE LINES
100
AcDbVertex
100
AcDb2dVertex
 10
-1301.756285885026
 20
5601.323103544333
 30
0.0
 42
-0.3599977472523297
  0
VERTEX
  5
79
330
77
100
AcDbEntity
  8
MAKE2D VISIBLE LINES
100
AcDbVertex
100
AcDb2dVertex
 10
-1302.083633445531
 20
5601.716359364471
 30
0.0
  0
VERTEX
  5
7A
330
77
100
AcDbEntity
  8
MAKE2D VISIBLE LINES
100
AcDbVertex
100
AcDb2dVertex
 10
-1302.084521303612
 20
5603.316359364471
 30
0.0
  0
SEQEND
  5
7B
330
77
100
AcDbEntity
  8
MAKE2D VISIBLE LINES
  0
POLYLINE
  5
7C
330
1F
100
AcDbEntity
  8
MAKE2D VISIBLE LINES
100
AcDb2dPolyline
 66
     1
 10
0.0
 20
0.0
 30
0.0
  0
VERTEX
  5
7D
330
7C
100
AcDbEntity
  8
MAKE2D VISIBLE LINES
100
AcDbVertex
100
AcDb2dVertex
 10
-1263.714025233205
 20
5601.323103544395
 30
0.0
 42
-0.359997747380533
  0
VERTEX
  5
7E
330
7C
100
AcDbEntity
  8
MAKE2D VISIBLE LINES
100
AcDbVertex
100
AcDb2dVertex
 10
-1264.041372793724
 20
5601.716359364471
 30
0.0
  0
VERTEX
  5
7F
330
7C
100
AcDbEntity
  8
MAKE2D VISIBLE LINES
100
AcDbVertex
100
AcDb2dVertex
 10
-1264.042260651806
 20
5603.316359364471
 30
0.0
  0
SEQEND
  5
80
330
7C
100
AcDbEntity
  8
MAKE2D VISIBLE LINES
  0
POLYLINE
  5
81
330
1F
100
AcDbEntity
  8
MAKE2D VISIBLE LINES
100
AcDb2dPolyline
 66
     1
 10
0.0
 20
0.0
 30
0.0
  0
VERTEX
  5
82
330
81
100
AcDbEntity
  8
MAKE2D VISIBLE LINES
100
AcDbVertex
100
AcDb2dVertex
 10
-1200.95040763568
 20
5601.323094402972
 30
0.0
 42
-0.3600666018002597
  0
VERTEX
  5
83
330
81
100
AcDbEntity
  8
MAKE2D VISIBLE LINES
100
AcDbVertex
100
AcDb2dVertex
 10
-1201.277781633281
 20
5601.716359364471
 30
0.0
  0
VERTEX
  5
84
330
81
100
AcDbEntity
  8
MAKE2D VISIBLE LINES
100
AcDbVertex
100
AcDb2dVertex
 10
-1201.278640450004
 20
5603.316359364471
 30
0.0
  0
SEQEND
  5
85
330
81
100
AcDbEntity
  8
MAKE2D VISIBLE LINES
  0
POLYLINE
  5
86
330
1F
100
AcDbEntity
  8
MAKE2D VISIBLE LINES
100
AcDb2dPolyline
 66
     1
 10
0.0
 20
0.0
 30
0.0
  0
VERTEX
  5
87
330
86
100
AcDbEntity
  8
MAKE2D VISIBLE LINES
100
AcDbVertex
100
AcDb2dVertex
 10
-1195.278640450004
 20
5603.316359364471
 30
0.0
  0
VERTEX
  5
88
330
86
100
AcDbEntity
  8
MAKE2D VISIBLE LINES
100
AcDbVertex
100
AcDb2dVertex
 10
-1195.279457508083
 20
5601.716359364472
 30
0.0
 42
-0.3570924942936041
  0
VERTEX
  5
89
330
86
100
AcDbEntity
  8
MAKE2D VISIBLE LINES
100
AcDbVertex
100
AcDb2dVertex
 10
-1195.602425961092
 20
5601.324024506393
 30
0.0
  0
SEQEND
  5
8A
330
86
100
AcDbEntity
  8
MAKE2D VISIBLE LINES
  0
POLYLINE
  5
8B
330
1F
100
AcDbEntity
  8
MAKE2D VISIBLE LINES
100
AcDb2dPolyline
 66
     1
 10
0.0
 20
0.0
 30
0.0
  0
VERTEX
  5
8C
330
8B
100
AcDbEntity
  8
MAKE2D VISIBLE LINES
100
AcDbVertex
100
AcDb2dVertex
 10
-1207.526348452538
 20
5601.31640625
 30
0.0
  0
VERTEX
  5
8D
330
8B
100
AcDbEntity
  8
MAKE2D VISIBLE LINES
100
AcDbVertex
100
AcDb2dVertex
 10
-1213.526101571899
 20
5601.316359364471
 30
0.0
  0
VERTEX
  5
8E
330
8B
100
AcDbEntity
  8
MAKE2D VISIBLE LINES
100
AcDbVertex
100
AcDb2dVertex
 10
-1214.240651201376
 20
5601.316359364472
 30
0.0
  0
SEQEND
  5
8F
330
8B
100
AcDbEntity
  8
MAKE2D VISIBLE LINES
  0
POLYLINE
  5
90
330
1F
100
AcDbEntity
  8
MAKE2D VISIBLE LINES
100
AcDb2dPolyline
 66
     1
 10
0.0
 20
0.0
 30
0.0
  0
VERTEX
  5
91
330
90
100
AcDbEntity
  8
MAKE2D VISIBLE LINES
100
AcDbVertex
100
AcDb2dVertex
 10
-1277.630340348946
 20
5601.32251603276
 30
0.0
 42
-0.3625148535023013
  0
VERTEX
  5
92
330
90
100
AcDbEntity
  8
MAKE2D VISIBLE LINES
100
AcDbVertex
100
AcDb2dVertex
 10
-1277.960795528012
 20
5601.716359364471
 30
0.0
  0
VERTEX
  5
93
330
90
100
AcDbEntity
  8
MAKE2D VISIBLE LINES
100
AcDbVertex
100
AcDb2dVertex
 10
-1277.961524227066
 20
5603.316359364471
 30
0.0
  0
SEQEND
  5
94
330
90
100
AcDbEntity
  8
MAKE2D VISIBLE LINES
  0
POLYLINE
  5
95
330
1F
100
AcDbEntity
  8
MAKE2D VISIBLE LINES
100
AcDb2dPolyline
 66
     1
 10
0.0
 20
0.0
 30
0.0
  0
VERTEX
  5
96
330
95
100
AcDbEntity
  8
MAKE2D VISIBLE LINES
100
AcDbVertex
100
AcDb2dVertex
 10
-1181.104259047531
 20
5601.327032627758
 30
0.0
 42
-0.3485261639951494
  0
VERTEX
  5
97
330
95
100
AcDbEntity
  8
MAKE2D VISIBLE LINES
100
AcDbVertex
100
AcDb2dVertex
 10
-1181.411923854025
 20
5601.716359364473
 30
0.0
  0
VERTEX
  5
98
330
95
100
AcDbEntity
  8
MAKE2D VISIBLE LINES
100
AcDbVertex
100
AcDb2dVertex
 10
-1181.411310471356
 20
5603.316359364471
 30
0.0
  0
SEQEND
  5
99
330
95
100
AcDbEntity
  8
MAKE2D VISIBLE LINES
  0
POLYLINE
  5
9A
330
1F
100
AcDbEntity
  8
MAKE2D VISIBLE LINES
100
AcDb2dPolyline
 66
     1
 10
0.0
 20
0.0
 30
0.0
  0
VERTEX
  5
9B
330
9A
100
AcDbEntity
  8
MAKE2D VISIBLE LINES
100
AcDbVertex
100
AcDb2dVertex
 10
-1160.958180138
 20
5601.324134688365
 30
0.0
 42
-0.3580710321914019
  0
VERTEX
  5
9C
330
9A
100
AcDbEntity
  8
MAKE2D VISIBLE LINES
100
AcDbVertex
100
AcDb2dVertex
 10
-1161.279212418729
 20
5601.716359364471
 30
0.0
  0
VERTEX
  5
9D
330
9A
100
AcDbEntity
  8
MAKE2D VISIBLE LINES
100
AcDbVertex
100
AcDb2dVertex
 10
-1161.278640450004
 20
5603.316359364471
 30
0.0
  0
SEQEND
  5
9E
330
9A
100
AcDbEntity
  8
MAKE2D VISIBLE LINES
  0
POLYLINE
  5
9F
330
1F
100
AcDbEntity
  8
MAKE2D VISIBLE LINES
100
AcDb2dPolyline
 66
     1
 10
0.0
 20
0.0
 30
0.0
  0
VERTEX
  5
A0
330
9F
100
AcDbEntity
  8
MAKE2D VISIBLE LINES
100
AcDbVertex
100
AcDb2dVertex
 10
-1244.721359549996
 20
5603.316359364471
 30
0.0
  0
VERTEX
  5
A1
330
9F
100
AcDbEntity
  8
MAKE2D VISIBLE LINES
100
AcDbVertex
100
AcDb2dVertex
 10
-1244.721925596736
 20
5601.716359364472
 30
0.0
 42
-0.3609056948389826
  0
VERTEX
  5
A2
330
9F
100
AcDbEntity
  8
MAKE2D VISIBLE LINES
100
AcDbVertex
100
AcDb2dVertex
 10
-1245.04959026778
 20
5601.323083162557
 30
0.0
  0
SEQEND
  5
A3
330
9F
100
AcDbEntity
  8
MAKE2D VISIBLE LINES
  0
POLYLINE
  5
A4
330
1F
100
AcDbEntity
  8
MAKE2D VISIBLE LINES
100
AcDb2dPolyline
 66
     1
 10
0.0
 20
0.0
 30
0.0
  0
VERTEX
  5
A5
330
A4
100
AcDbEntity
  8
MAKE2D VISIBLE LINES
100
AcDbVertex
100
AcDb2dVertex
 10
-1155.278640450004
 20
5603.316359364471
 30
0.0
  0
VERTEX
  5
A6
330
A4
100
AcDbEntity
  8
MAKE2D VISIBLE LINES
100
AcDbVertex
100
AcDb2dVertex
 10
-1155.278090178979
 20
5601.716359364473
 30
0.0
 42
-0.3580530588349265
  0
VERTEX
  5
A7
330
A4
100
AcDbEntity
  8
MAKE2D VISIBLE LINES
100
AcDbVertex
100
AcDb2dVertex
 10
-1155.599122594479
 20
5601.324196178289
 30
0.0
  0
SEQEND
  5
A8
330
A4
100
AcDbEntity
  8
MAKE2D VISIBLE LINES
  0
POLYLINE
  5
A9
330
1F
100
AcDbEntity
  8
MAKE2D VISIBLE LINES
100
AcDb2dPolyline
 66
     1
 10
0.0
 20
0.0
 30
0.0
  0
VERTEX
  5
AA
330
A9
100
AcDbEntity
  8
MAKE2D VISIBLE LINES
100
AcDbVertex
100
AcDb2dVertex
 10
-1272.708151370413
 20
5601.325351894544
 30
0.0
 42
-0.3537941445533613
  0
VERTEX
  5
AB
330
A9
100
AcDbEntity
  8
MAKE2D VISIBLE LINES
100
AcDbVertex
100
AcDb2dVertex
 10
-1273.023346970821
 20
5601.716359364471
 30
0.0
  0
VERTEX
  5
AC
330
A9
100
AcDbEntity
  8
MAKE2D VISIBLE LINES
100
AcDbVertex
100
AcDb2dVertex
 10
-1273.022820183398
 20
5603.316359364471
 30
0.0
  0
SEQEND
  5
AD
330
A9
100
AcDbEntity
  8
MAKE2D VISIBLE LINES
  0
POLYLINE
  5
AE
330
1F
100
AcDbEntity
  8
MAKE2D VISIBLE LINES
100
AcDb2dPolyline
 66
     1
 10
0.0
 20
0.0
 30
0.0
  0
VERTEX
  5
AF
330
AE
100
AcDbEntity
  8
MAKE2D VISIBLE LINES
100
AcDbVertex
100
AcDb2dVertex
 10
-1260.966285523735
 20
5601.328588289372
 30
0.0
 42
-0.3438288036262243
  0
VERTEX
  5
B0
330
AE
100
AcDbEntity
  8
MAKE2D VISIBLE LINES
100
AcDbVertex
100
AcDb2dVertex
 10
-1261.267641924971
 20
5601.716359364471
 30
0.0
  0
VERTEX
  5
B1
330
AE
100
AcDbEntity
  8
MAKE2D VISIBLE LINES
100
AcDbVertex
100
AcDb2dVertex
 10
-1261.267115137548
 20
5603.316359364471
 30
0.0
  0
SEQEND
  5
B2
330
AE
100
AcDbEntity
  8
MAKE2D VISIBLE LINES
  0
POLYLINE
  5
B3
330
1F
100
AcDbEntity
  8
MAKE2D VISIBLE LINES
100
AcDb2dPolyline
 66
     1
 10
0.0
 20
0.0
 30
0.0
  0
VERTEX
  5
B4
330
B3
100
AcDbEntity
  8
MAKE2D VISIBLE LINES
100
AcDbVertex
100
AcDb2dVertex
 10
-1250.393164890601
 20
5601.322959689158
 30
0.0
 42
-0.3610870068511311
  0
VERTEX
  5
B5
330
B3
100
AcDbEntity
  8
MAKE2D VISIBLE LINES
100
AcDbVertex
100
AcDb2dVertex
 10
-1250.720931157766
 20
5601.716359364471
 30
0.0
  0
VERTEX
  5
B6
330
B3
100
AcDbEntity
  8
MAKE2D VISIBLE LINES
100
AcDbVertex
100
AcDb2dVertex
 10
-1250.721359549996
 20
5603.316359364471
 30
0.0
  0
SEQEND
  5
B7
330
B3
100
AcDbEntity
  8
MAKE2D VISIBLE LINES
  0
POLYLINE
  5
B8
330
1F
100
AcDbEntity
  8
MAKE2D VISIBLE LINES
100
AcDb2dPolyline
 66
     1
 10
0.0
 20
0.0
 30
0.0
  0
VERTEX
  5
B9
330
B8
100
AcDbEntity
  8
MAKE2D VISIBLE LINES
100
AcDbVertex
100
AcDb2dVertex
 10
-1203.0
 20
5127.316359364839
 30
0.0
  0
VERTEX
  5
BA
330
B8
100
AcDbEntity
  8
MAKE2D VISIBLE LINES
100
AcDbVertex
100
AcDb2dVertex
 10
-1202.999577617697
 20
5106.316359362607
 30
0.0
 42
-0.4143856150808694
  0
VERTEX
  5
BB
330
B8
100
AcDbEntity
  8
MAKE2D VISIBLE LINES
100
AcDbVertex
100
AcDb2dVertex
 10
-1204.002463474358
 20
5105.316359362705
 30
0.0
  0
VERTEX
  5
BC
330
B8
100
AcDbEntity
  8
MAKE2D VISIBLE LINES
100
AcDbVertex
100
AcDb2dVertex
 10
-1241.997853336255
 20
5105.316359520312
 30
0.0
 42
-0.4141359459445191
  0
VERTEX
  5
BD
330
B8
100
AcDbEntity
  8
MAKE2D VISIBLE LINES
100
AcDbVertex
100
AcDb2dVertex
 10
-1243.000378022358
 20
5106.316359362607
 30
0.0
  0
VERTEX
  5
BE
330
B8
100
AcDbEntity
  8
MAKE2D VISIBLE LINES
100
AcDbVertex
100
AcDb2dVertex
 10
-1243.0
 20
5127.316359364839
 30
0.0
  0
SEQEND
  5
BF
330
B8
100
AcDbEntity
  8
MAKE2D VISIBLE LINES
  0
POLYLINE
  5
C0
330
1F
100
AcDbEntity
  8
MAKE2D VISIBLE LINES
100
AcDb2dPolyline
 66
     1
 10
0.0
 20
0.0
 30
0.0
  0
VERTEX
  5
C1
330
C0
100
AcDbEntity
  8
MAKE2D VISIBLE LINES
100
AcDbVertex
100
AcDb2dVertex
 10
-1143.915478696387
 20
5603.316359364471
 30
0.0
  0
VERTEX
  5
C2
330
C0
100
AcDbEntity
  8
MAKE2D VISIBLE LINES
100
AcDbVertex
100
AcDb2dVertex
 10
-1143.91589428632
 20
5601.716359364472
 30
0.0
 42
-0.3536291969608341
  0
VERTEX
  5
C3
330
C0
100
AcDbEntity
  8
MAKE2D VISIBLE LINES
100
AcDbVertex
100
AcDb2dVertex
 10
-1144.233094805857
 20
5601.325147176781
 30
0.0
  0
SEQEND
  5
C4
330
C0
100
AcDbEntity
  8
MAKE2D VISIBLE LINES
  0
POLYLINE
  5
C5
330
1F
100
AcDbEntity
  8
MAKE2D VISIBLE LINES
100
AcDb2dPolyline
 66
     1
 10
0.0
 20
0.0
 30
0.0
  0
VERTEX
  5
C6
330
C5
100
AcDbEntity
  8
MAKE2D VISIBLE LINES
100
AcDbVertex
100
AcDb2dVertex
 10
-1181.957739348194
 20
5603.316359364471
 30
0.0
  0
VERTEX
  5
C7
330
C5
100
AcDbEntity
  8
MAKE2D VISIBLE LINES
100
AcDbVertex
100
AcDb2dVertex
 10
-1181.958154938126
 20
5601.716359364472
 30
0.0
 42
-0.3612614719250977
  0
VERTEX
  5
C8
330
C5
100
AcDbEntity
  8
MAKE2D VISIBLE LINES
100
AcDbVertex
100
AcDb2dVertex
 10
-1182.285956695085
 20
5601.323035822901
 30
0.0
  0
SEQEND
  5
C9
330
C5
100
AcDbEntity
  8
MAKE2D VISIBLE LINES
  0
POLYLINE
  5
CA
330
1F
100
AcDbEntity
  8
MAKE2D VISIBLE LINES
100
AcDb2dPolyline
 66
     1
 10
0.0
 20
0.0
 30
0.0
  0
VERTEX
  5
CB
330
CA
100
AcDbEntity
  8
MAKE2D VISIBLE LINES
100
AcDbVertex
100
AcDb2dVertex
 10
-1279.671313722096
 20
5603.316359364471
 30
0.0
  0
VERTEX
  5
CC
330
CA
100
AcDbEntity
  8
MAKE2D VISIBLE LINES
100
AcDbVertex
100
AcDb2dVertex
 10
-1279.670906935147
 20
5601.716359364471
 30
0.0
 42
-0.3551976823515338
  0
VERTEX
  5
CD
330
CA
100
AcDbEntity
  8
MAKE2D VISIBLE LINES
100
AcDbVertex
100
AcDb2dVertex
 10
-1279.988308314324
 20
5601.324966811033
 30
0.0
  0
SEQEND
  5
CE
330
CA
100
AcDbEntity
  8
MAKE2D VISIBLE LINES
  0
POLYLINE
  5
CF
330
1F
100
AcDbEntity
  8
MAKE2D VISIBLE LINES
100
AcDb2dPolyline
 66
     1
 10
0.0
 20
0.0
 30
0.0
  0
VERTEX
  5
D0
330
CF
100
AcDbEntity
  8
MAKE2D VISIBLE LINES
100
AcDbVertex
100
AcDb2dVertex
 10
-1136.85252195349
 20
5284.305519958209
 30
0.0
 42
-0.371813912050781
  0
VERTEX
  5
D1
330
CF
100
AcDbEntity
  8
MAKE2D VISIBLE LINES
100
AcDbVertex
100
AcDb2dVertex
 10
-1135.99965859806
 20
5283.316359364471
 30
0.0
  0
VERTEX
  5
D2
330
CF
100
AcDbEntity
  8
MAKE2D VISIBLE LINES
100
AcDbVertex
100
AcDb2dVertex
 10
-1136.002408388309
 20
5165.316359364471
 30
0.0
  0
VERTEX
  5
D3
330
CF
100
AcDbEntity
  8
MAKE2D VISIBLE LINES
100
AcDbVertex
100
AcDb2dVertex
 10
-1168.0
 20
5165.316359364471
 30
0.0
  0
VERTEX
  5
D4
330
CF
100
AcDbEntity
  8
MAKE2D VISIBLE LINES
100
AcDbVertex
100
AcDb2dVertex
 10
-1168.000002328539
 20
5283.316359364471
 30
0.0
 42
-0.4142131158943619
  0
VERTEX
  5
D5
330
CF
100
AcDbEntity
  8
MAKE2D VISIBLE LINES
100
AcDbVertex
100
AcDb2dVertex
 10
-1167.00000231461
 20
5284.316359364548
 30
0.0
 42
-0.4142078887483719
  0
VERTEX
  5
D6
330
CF
100
AcDbEntity
  8
MAKE2D VISIBLE LINES
100
AcDbVertex
100
AcDb2dVertex
 10
-1167.999980438639
 20
5285.316359364471
 30
0.0
  0
VERTEX
  5
D7
330
CF
100
AcDbEntity
  8
MAKE2D VISIBLE LINES
100
AcDbVertex
100
AcDb2dVertex
 10
-1167.999978494496
 20
5376.316359364471
 30
0.0
 42
-0.4142093939956962
  0
VERTEX
  5
D8
330
CF
100
AcDbEntity
  8
MAKE2D VISIBLE LINES
100
AcDbVertex
100
AcDb2dVertex
 10
-1166.999989055055
 20
5377.316359364445
 30
0.0
  0
VERTEX
  5
D9
330
CF
100
AcDbEntity
  8
MAKE2D VISIBLE LINES
100
AcDbVertex
100
AcDb2dVertex
 10
-1137.004504783133
 20
5377.316359364471
 30
0.0
  0
SEQEND
  5
DA
330
CF
100
AcDbEntity
  8
MAKE2D VISIBLE LINES
  0
POLYLINE
  5
DB
330
1F
100
AcDbEntity
  8
MAKE2D VISIBLE LINES
100
AcDb2dPolyline
 66
     1
 10
0.0
 20
0.0
 30
0.0
  0
VERTEX
  5
DC
330
DB
100
AcDbEntity
  8
MAKE2D VISIBLE LINES
100
AcDbVertex
100
AcDb2dVertex
 10
-1239.021130325903
 20
5603.316359364471
 30
0.0
  0
VERTEX
  5
DD
330
DB
100
AcDbEntity
  8
MAKE2D VISIBLE LINES
100
AcDbVertex
100
AcDb2dVertex
 10
-1239.021458031508
 20
5601.716359364471
 30
0.0
 42
-0.3614692545627449
  0
VERTEX
  5
DE
330
DB
100
AcDbEntity
  8
MAKE2D VISIBLE LINES
100
AcDbVertex
100
AcDb2dVertex
 10
-1239.349339907999
 20
5601.323008244966
 30
0.0
  0
SEQEND
  5
DF
330
DB
100
AcDbEntity
  8
MAKE2D VISIBLE LINES
  0
POLYLINE
  5
E0
330
1F
100
AcDbEntity
  8
MAKE2D VISIBLE LINES
100
AcDb2dPolyline
 66
     1
 10
0.0
 20
0.0
 30
0.0
  0
VERTEX
  5
E1
330
E0
100
AcDbEntity
  8
MAKE2D VISIBLE LINES
100
AcDbVertex
100
AcDb2dVertex
 10
-1149.587292847053
 20
5601.322928370409
 30
0.0
 42
-0.361325649420097
  0
VERTEX
  5
E2
330
E0
100
AcDbEntity
  8
MAKE2D VISIBLE LINES
100
AcDbVertex
100
AcDb2dVertex
 10
-1149.915150990783
 20
5601.716359364471
 30
0.0
  0
VERTEX
  5
E3
330
E0
100
AcDbEntity
  8
MAKE2D VISIBLE LINES
100
AcDbVertex
100
AcDb2dVertex
 10
-1149.915478696388
 20
5603.316359364471
 30
0.0
  0
SEQEND
  5
E4
330
E0
100
AcDbEntity
  8
MAKE2D VISIBLE LINES
  0
POLYLINE
  5
E5
330
1F
100
AcDbEntity
  8
MAKE2D VISIBLE LINES
100
AcDb2dPolyline
 66
     1
 10
0.0
 20
0.0
 30
0.0
  0
VERTEX
  5
E6
330
E5
100
AcDbEntity
  8
MAKE2D VISIBLE LINES
100
AcDbVertex
100
AcDb2dVertex
 10
-1209.49922538323
 20
5653.316359322695
 30
0.0
 42
-0.4143356197901587
  0
VERTEX
  5
E7
330
E5
100
AcDbEntity
  8
MAKE2D VISIBLE LINES
100
AcDbVertex
100
AcDb2dVertex
 10
-1208.999704332348
 20
5652.816359364471
 30
0.0
  0
VERTEX
  5
E8
330
E5
100
AcDbEntity
  8
MAKE2D VISIBLE LINES
100
AcDbVertex
100
AcDb2dVertex
 10
-1208.999704332348
 20
5646.36144433644
 30
0.0
  0
VERTEX
  5
E9
330
E5
100
AcDbEntity
  8
MAKE2D VISIBLE LINES
100
AcDbVertex
100
AcDb2dVertex
 10
-1209.007769547496
 20
5646.272001617954
 30
0.0
  0
VERTEX
  5
EA
330
E5
100
AcDbEntity
  8
MAKE2D VISIBLE LINES
100
AcDbVertex
100
AcDb2dVertex
 10
-1210.925106388966
 20
5635.726871717936
 30
0.0
 42
-0.3626204868396824
  0
VERTEX
  5
EB
330
E5
100
AcDbEntity
  8
MAKE2D VISIBLE LINES
100
AcDbVertex
100
AcDb2dVertex
 10
-1211.416798107477
 20
5635.316359364471
 30
0.0
  0
VERTEX
  5
EC
330
E5
100
AcDbEntity
  8
MAKE2D VISIBLE LINES
100
AcDbVertex
100
AcDb2dVertex
 10
-1234.583150808931
 20
5635.316359364474
 30
0.0
 42
-0.3626097214990984
  0
VERTEX
  5
ED
330
E5
100
AcDbEntity
  8
MAKE2D VISIBLE LINES
100
AcDbVertex
100
AcDb2dVertex
 10
-1235.07486768894
 20
5635.726876440227
 30
0.0
  0
VERTEX
  5
EE
330
E5
100
AcDbEntity
  8
MAKE2D VISIBLE LINES
100
AcDbVertex
100
AcDb2dVertex
 10
-1236.992199418431
 20
5646.272001617958
 30
0.0
  0
VERTEX
  5
EF
330
E5
100
AcDbEntity
  8
MAKE2D VISIBLE LINES
100
AcDbVertex
100
AcDb2dVertex
 10
-1237.000264615691
 20
5646.361444336446
 30
0.0
  0
VERTEX
  5
F0
330
E5
100
AcDbEntity
  8
MAKE2D VISIBLE LINES
100
AcDbVertex
100
AcDb2dVertex
 10
-1237.000264615691
 20
5652.816359364471
 30
0.0
 42
-0.414301452710149
  0
VERTEX
  5
F1
330
E5
100
AcDbEntity
  8
MAKE2D VISIBLE LINES
100
AcDbVertex
100
AcDb2dVertex
 10
-1236.500717293691
 20
5653.31635932164
 30
0.0
  0
SEQEND
  5
F2
330
E5
100
AcDbEntity
  8
MAKE2D VISIBLE LINES
  0
POLYLINE
  5
F3
330
1F
100
AcDbEntity
  8
MAKE2D VISIBLE LINES
100
AcDb2dPolyline
 66
     1
 10
0.0
 20
0.0
 30
0.0
  0
VERTEX
  5
F4
330
F3
100
AcDbEntity
  8
MAKE2D VISIBLE LINES
100
AcDbVertex
100
AcDb2dVertex
 10
-1209.998670855926
 20
4641.316359668683
 30
0.0
 42
0.4141063574664026
  0
VERTEX
  5
F5
330
F3
100
AcDbEntity
  8
MAKE2D VISIBLE LINES
100
AcDbVertex
100
AcDb2dVertex
 10
-1208.999704332389
 20
4642.316359364471
 30
0.0
  0
VERTEX
  5
F6
330
F3
100
AcDbEntity
  8
MAKE2D VISIBLE LINES
100
AcDbVertex
100
AcDb2dVertex
 10
-1209.001629052397
 20
4648.320474249818
 30
0.0
  0
VERTEX
  5
F7
330
F3
100
AcDbEntity
  8
MAKE2D VISIBLE LINES
100
AcDbVertex
100
AcDb2dVertex
 10
-1208.999160354753
 20
4648.318877882277
 30
0.0
  0
VERTEX
  5
F8
330
F3
100
AcDbEntity
  8
MAKE2D VISIBLE LINES
100
AcDbVertex
100
AcDb2dVertex
 10
-1208.998956342152
 20
4648.318737025967
 30
0.0
  0
VERTEX
  5
F9
330
F3
100
AcDbEntity
  8
MAKE2D VISIBLE LINES
100
AcDbVertex
100
AcDb2dVertex
 10
-1208.998811597505
 20
4648.318631933275
 30
0.0
  0
VERTEX
  5
FA
330
F3
100
AcDbEntity
  8
MAKE2D VISIBLE LINES
100
AcDbVertex
100
AcDb2dVertex
 10
-1208.998726120902
 20
4648.318562600738
 30
0.0
  0
VERTEX
  5
FB
330
F3
100
AcDbEntity
  8
MAKE2D VISIBLE LINES
100
AcDbVertex
100
AcDb2dVertex
 10
-1208.998699912431
 20
4648.318529024898
 30
0.0
  0
VERTEX
  5
FC
330
F3
100
AcDbEntity
  8
MAKE2D VISIBLE LINES
100
AcDbVertex
100
AcDb2dVertex
 10
-1208.998732972183
 20
4648.318531202294
 30
0.0
  0
VERTEX
  5
FD
330
F3
100
AcDbEntity
  8
MAKE2D VISIBLE LINES
100
AcDbVertex
100
AcDb2dVertex
 10
-1208.998825300245
 20
4648.318569129466
 30
0.0
  0
VERTEX
  5
FE
330
F3
100
AcDbEntity
  8
MAKE2D VISIBLE LINES
100
AcDbVertex
100
AcDb2dVertex
 10
-1208.998976896708
 20
4648.318642802955
 30
0.0
  0
VERTEX
  5
FF
330
F3
100
AcDbEntity
  8
MAKE2D VISIBLE LINES
100
AcDbVertex
100
AcDb2dVertex
 10
-1208.999187761662
 20
4648.318752219299
 30
0.0
  0
VERTEX
  5
100
330
F3
100
AcDbEntity
  8
MAKE2D VISIBLE LINES
100
AcDbVertex
100
AcDb2dVertex
 10
-1208.999787297395
 20
4648.31907826672
 30
0.0
  0
VERTEX
  5
101
330
F3
100
AcDbEntity
  8
MAKE2D VISIBLE LINES
100
AcDbVertex
100
AcDb2dVertex
 10
-1210.553624610046
 20
4649.229182780397
 30
0.0
  0
VERTEX
  5
102
330
F3
100
AcDbEntity
  8
MAKE2D VISIBLE LINES
100
AcDbVertex
100
AcDb2dVertex
 10
-1211.364021119659
 20
4649.674778989081
 30
0.0
  0
VERTEX
  5
103
330
F3
100
AcDbEntity
  8
MAKE2D VISIBLE LINES
100
AcDbVertex
100
AcDb2dVertex
 10
-1212.317419590923
 20
4650.171203092436
 30
0.0
  0
VERTEX
  5
104
330
F3
100
AcDbEntity
  8
MAKE2D VISIBLE LINES
100
AcDbVertex
100
AcDb2dVertex
 10
-1213.3791221228
 20
4650.687884532222
 30
0.0
  0
VERTEX
  5
105
330
F3
100
AcDbEntity
  8
MAKE2D VISIBLE LINES
100
AcDbVertex
100
AcDb2dVertex
 10
-1213.955170724429
 20
4650.950514998724
 30
0.0
  0
VERTEX
  5
106
330
F3
100
AcDbEntity
  8
MAKE2D VISIBLE LINES
100
AcDbVertex
100
AcDb2dVertex
 10
-1214.55961752897
 20
4651.211759889546
 30
0.0
  0
VERTEX
  5
107
330
F3
100
AcDbEntity
  8
MAKE2D VISIBLE LINES
100
AcDbVertex
100
AcDb2dVertex
 10
-1215.19116252076
 20
4651.46843514962
 30
0.0
  0
VERTEX
  5
108
330
F3
100
AcDbEntity
  8
MAKE2D VISIBLE LINES
100
AcDbVertex
100
AcDb2dVertex
 10
-1215.848505684139
 20
4651.717356723881
 30
0.0
  0
VERTEX
  5
109
330
F3
100
AcDbEntity
  8
MAKE2D VISIBLE LINES
100
AcDbVertex
100
AcDb2dVertex
 10
-1216.530347003445
 20
4651.955340557262
 30
0.0
  0
VERTEX
  5
10A
330
F3
100
AcDbEntity
  8
MAKE2D VISIBLE LINES
100
AcDbVertex
100
AcDb2dVertex
 10
-1217.235386463016
 20
4652.179202594701
 30
0.0
  0
VERTEX
  5
10B
330
F3
100
AcDbEntity
  8
MAKE2D VISIBLE LINES
100
AcDbVertex
100
AcDb2dVertex
 10
-1217.936506632054
 20
4652.382354690392
 30
0.0
  0
VERTEX
  5
10C
330
F3
100
AcDbEntity
  8
MAKE2D VISIBLE LINES
100
AcDbVertex
100
AcDb2dVertex
 10
-1218.290320727709
 20
4652.474373068243
 30
0.0
  0
VERTEX
  5
10D
330
F3
100
AcDbEntity
  8
MAKE2D VISIBLE LINES
100
AcDbVertex
100
AcDb2dVertex
 10
-1218.646072171271
 20
4652.559931001124
 30
0.0
  0
VERTEX
  5
10E
330
F3
100
AcDbEntity
  8
MAKE2D VISIBLE LINES
100
AcDbVertex
100
AcDb2dVertex
 10
-1219.003583679061
 20
4652.638969929778
 30
0.0
  0
VERTEX
  5
10F
330
F3
100
AcDbEntity
  8
MAKE2D VISIBLE LINES
100
AcDbVertex
100
AcDb2dVertex
 10
-1219.362675685129
 20
4652.711437798699
 30
0.0
  0
VERTEX
  5
110
330
F3
100
AcDbEntity
  8
MAKE2D VISIBLE LINES
100
AcDbVertex
100
AcDb2dVertex
 10
-1219.723166640436
 20
4652.777289164225
 30
0.0
  0
VERTEX
  5
111
330
F3
100
AcDbEntity
  8
MAKE2D VISIBLE LINES
100
AcDbVertex
100
AcDb2dVertex
 10
-1220.084873318017
 20
4652.836485286073
 30
0.0
  0
VERTEX
  5
112
330
F3
100
AcDbEntity
  8
MAKE2D VISIBLE LINES
100
AcDbVertex
100
AcDb2dVertex
 10
-1220.447611123058
 20
4652.888994201913
 30
0.0
  0
VERTEX
  5
113
330
F3
100
AcDbEntity
  8
MAKE2D VISIBLE LINES
100
AcDbVertex
100
AcDb2dVertex
 10
-1220.811194406782
 20
4652.934790784713
 30
0.0
  0
VERTEX
  5
114
330
F3
100
AcDbEntity
  8
MAKE2D VISIBLE LINES
100
AcDbVertex
100
AcDb2dVertex
 10
-1221.175436783032
 20
4652.973856782606
 30
0.0
  0
VERTEX
  5
115
330
F3
100
AcDbEntity
  8
MAKE2D VISIBLE LINES
100
AcDbVertex
100
AcDb2dVertex
 10
-1221.540151446409
 20
4653.006180841186
 30
0.0
  0
VERTEX
  5
116
330
F3
100
AcDbEntity
  8
MAKE2D VISIBLE LINES
100
AcDbVertex
100
AcDb2dVertex
 10
-1221.905151490832
 20
4653.031758508147
 30
0.0
  0
VERTEX
  5
117
330
F3
100
AcDbEntity
  8
MAKE2D VISIBLE LINES
100
AcDbVertex
100
AcDb2dVertex
 10
-1222.270250227382
 20
4653.050592220337
 30
0.0
  0
VERTEX
  5
118
330
F3
100
AcDbEntity
  8
MAKE2D VISIBLE LINES
100
AcDbVertex
100
AcDb2dVertex
 10
-1222.635261500297
 20
4653.062691273301
 30
0.0
  0
VERTEX
  5
119
330
F3
100
AcDbEntity
  8
MAKE2D VISIBLE LINES
100
AcDbVertex
100
AcDb2dVertex
 10
-1223.0
 20
4653.068071773577
 30
0.0
  0
VERTEX
  5
11A
330
F3
100
AcDbEntity
  8
MAKE2D VISIBLE LINES
100
AcDbVertex
100
AcDb2dVertex
 10
-1223.364738499285
 20
4653.062691255854
 30
0.0
  0
VERTEX
  5
11B
330
F3
100
AcDbEntity
  8
MAKE2D VISIBLE LINES
100
AcDbVertex
100
AcDb2dVertex
 10
-1223.729749771237
 20
4653.05059218775
 30
0.0
  0
VERTEX
  5
11C
330
F3
100
AcDbEntity
  8
MAKE2D VISIBLE LINES
100
AcDbVertex
100
AcDb2dVertex
 10
-1224.094848506407
 20
4653.03175846276
 30
0.0
  0
VERTEX
  5
11D
330
F3
100
AcDbEntity
  8
MAKE2D VISIBLE LINES
100
AcDbVertex
100
AcDb2dVertex
 10
-1224.459848549161
 20
4653.006180785353
 30
0.0
  0
VERTEX
  5
11E
330
F3
100
AcDbEntity
  8
MAKE2D VISIBLE LINES
100
AcDbVertex
100
AcDb2dVertex
 10
-1224.824563210709
 20
4652.973856718697
 30
0.0
  0
VERTEX
  5
11F
330
F3
100
AcDbEntity
  8
MAKE2D VISIBLE LINES
100
AcDbVertex
100
AcDb2dVertex
 10
-1225.188805585101
 20
4652.934790715102
 30
0.0
  0
VERTEX
  5
120
330
F3
100
AcDbEntity
  8
MAKE2D VISIBLE LINES
100
AcDbVertex
100
AcDb2dVertex
 10
-1225.552388867069
 20
4652.888994128973
 30
0.0
  0
VERTEX
  5
121
330
F3
100
AcDbEntity
  8
MAKE2D VISIBLE LINES
100
AcDbVertex
100
AcDb2dVertex
 10
-1225.915126670586
 20
4652.836485212165
 30
0.0
  0
VERTEX
  5
122
330
F3
100
AcDbEntity
  8
MAKE2D VISIBLE LINES
100
AcDbVertex
100
AcDb2dVertex
 10
-1226.276833347006
 20
4652.777289091698
 30
0.0
  0
VERTEX
  5
123
330
F3
100
AcDbEntity
  8
MAKE2D VISIBLE LINES
100
AcDbVertex
100
AcDb2dVertex
 10
-1226.637324301641
 20
4652.711437729876
 30
0.0
  0
VERTEX
  5
124
330
F3
100
AcDbEntity
  8
MAKE2D VISIBLE LINES
100
AcDbVertex
100
AcDb2dVertex
 10
-1226.996416307655
 20
4652.638969866953
 30
0.0
  0
VERTEX
  5
125
330
F3
100
AcDbEntity
  8
MAKE2D VISIBLE LINES
100
AcDbVertex
100
AcDb2dVertex
 10
-1227.353927816134
 20
4652.559930946549
 30
0.0
  0
VERTEX
  5
126
330
F3
100
AcDbEntity
  8
MAKE2D VISIBLE LINES
100
AcDbVertex
100
AcDb2dVertex
 10
-1227.709679261251
 20
4652.47437302413
 30
0.0
  0
VERTEX
  5
127
330
F3
100
AcDbEntity
  8
MAKE2D VISIBLE LINES
100
AcDbVertex
100
AcDb2dVertex
 10
-1228.063493359445
 20
4652.382354658902
 30
0.0
  0
VERTEX
  5
128
330
F3
100
AcDbEntity
  8
MAKE2D VISIBLE LINES
100
AcDbVertex
100
AcDb2dVertex
 10
-1228.415195401564
 20
4652.283940789603
 30
0.0
  0
VERTEX
  5
129
330
F3
100
AcDbEntity
  8
MAKE2D VISIBLE LINES
100
AcDbVertex
100
AcDb2dVertex
 10
-1228.764613536984
 20
4652.179202594701
 30
0.0
  0
VERTEX
  5
12A
330
F3
100
AcDbEntity
  8
MAKE2D VISIBLE LINES
100
AcDbVertex
100
AcDb2dVertex
 10
-1229.469324040721
 20
4651.955450008104
 30
0.0
  0
VERTEX
  5
12B
330
F3
100
AcDbEntity
  8
MAKE2D VISIBLE LINES
100
AcDbVertex
100
AcDb2dVertex
 10
-1230.150859404078
 20
4651.717586959443
 30
0.0
  0
VERTEX
  5
12C
330
F3
100
AcDbEntity
  8
MAKE2D VISIBLE LINES
100
AcDbVertex
100
AcDb2dVertex
 10
-1230.807921160257
 20
4651.468793348152
 30
0.0
  0
VERTEX
  5
12D
330
F3
100
AcDbEntity
  8
MAKE2D VISIBLE LINES
100
AcDbVertex
100
AcDb2dVertex
 10
-1231.43921084246
 20
4651.212249073665
 30
0.0
  0
VERTEX
  5
12E
330
F3
100
AcDbEntity
  8
MAKE2D VISIBLE LINES
100
AcDbVertex
100
AcDb2dVertex
 10
-1232.043429983892
 20
4650.951134035415
 30
0.0
  0
VERTEX
  5
12F
330
F3
100
AcDbEntity
  8
MAKE2D VISIBLE LINES
100
AcDbVertex
100
AcDb2dVertex
 10
-1232.619280117754
 20
4650.688628132837
 30
0.0
  0
VERTEX
  5
130
330
F3
100
AcDbEntity
  8
MAKE2D VISIBLE LINES
100
AcDbVertex
100
AcDb2dVertex
 10
-1233.680679495583
 20
4650.172163332432
 30
0.0
  0
VERTEX
  5
131
330
F3
100
AcDbEntity
  8
MAKE2D VISIBLE LINES
100
AcDbVertex
100
AcDb2dVertex
 10
-1234.634264534115
 20
4649.675700150872
 30
0.0
  0
VERTEX
  5
132
330
F3
100
AcDbEntity
  8
MAKE2D VISIBLE LINES
100
AcDbVertex
100
AcDb2dVertex
 10
-1235.444897706941
 20
4649.230014711216
 30
0.0
  0
VERTEX
  5
133
330
F3
100
AcDbEntity
  8
MAKE2D VISIBLE LINES
100
AcDbVertex
100
AcDb2dVertex
 10
-1236.865608391309
 20
4648.3985247419
 30
0.0
  0
VERTEX
  5
134
330
F3
100
AcDbEntity
  8
MAKE2D VISIBLE LINES
100
AcDbVertex
100
AcDb2dVertex
 10
-1236.974897598577
 20
4648.331331779468
 30
0.0
  0
VERTEX
  5
135
330
F3
100
AcDbEntity
  8
MAKE2D VISIBLE LINES
100
AcDbVertex
100
AcDb2dVertex
 10
-1236.984826437088
 20
4648.324867340642
 30
0.0
  0
VERTEX
  5
136
330
F3
100
AcDbEntity
  8
MAKE2D VISIBLE LINES
100
AcDbVertex
100
AcDb2dVertex
 10
-1236.992387059939
 20
4648.319743336599
 30
0.0
  0
VERTEX
  5
137
330
F3
100
AcDbEntity
  8
MAKE2D VISIBLE LINES
100
AcDbVertex
100
AcDb2dVertex
 10
-1311.0
 20
4648.315924638759
 30
0.0
 42
-0.4142909065912522
  0
VERTEX
  5
138
330
F3
100
AcDbEntity
  8
MAKE2D VISIBLE LINES
100
AcDbVertex
100
AcDb2dVertex
 10
-1313.0
 20
4650.319170231402
 30
0.0
  0
VERTEX
  5
139
330
F3
100
AcDbEntity
  8
MAKE2D VISIBLE LINES
100
AcDbVertex
100
AcDb2dVertex
 10
-1313.0
 20
4692.313636948265
 30
0.0
 42
-0.4143127325833924
  0
VERTEX
  5
13A
330
F3
100
AcDbEntity
  8
MAKE2D VISIBLE LINES
100
AcDbVertex
100
AcDb2dVertex
 10
-1311.0
 20
4694.316845104119
 30
0.0
  0
VERTEX
  5
13B
330
F3
100
AcDbEntity
  8
MAKE2D VISIBLE LINES
100
AcDbVertex
100
AcDb2dVertex
 10
-1249.000072933935
 20
4694.316426871237
 30
0.0
 42
0.4141909486817887
  0
VERTEX
  5
13C
330
F3
100
AcDbEntity
  8
MAKE2D VISIBLE LINES
100
AcDbVertex
100
AcDb2dVertex
 10
-1239.000022445771
 20
4704.316553050896
 30
0.0
  0
VERTEX
  5
13D
330
F3
100
AcDbEntity
  8
MAKE2D VISIBLE LINES
100
AcDbVertex
100
AcDb2dVertex
 10
-1239.000302417887
 20
4709.316359364471
 30
0.0
 42
-0.4111406992756908
  0
VERTEX
  5
13E
330
F3
100
AcDbEntity
  8
MAKE2D VISIBLE LINES
100
AcDbVertex
100
AcDb2dVertex
 10
-1237.021885214669
 20
4711.316245133178
 30
0.0
  0
SEQEND
  5
13F
330
F3
100
AcDbEntity
  8
MAKE2D VISIBLE LINES
  0
POLYLINE
  5
140
330
1F
100
AcDbEntity
  8
MAKE2D VISIBLE LINES
100
AcDb2dPolyline
 66
     1
 10
0.0
 20
0.0
 30
0.0
  0
VERTEX
  5
141
330
140
100
AcDbEntity
  8
MAKE2D VISIBLE LINES
100
AcDbVertex
100
AcDb2dVertex
 10
-1236.001208682351
 20
4641.316359621678
 30
0.0
 42
-0.4141122826155664
  0
VERTEX
  5
142
330
140
100
AcDbEntity
  8
MAKE2D VISIBLE LINES
100
AcDbVertex
100
AcDb2dVertex
 10
-1237.000264615652
 20
4642.316359364471
 30
0.0
  0
VERTEX
  5
143
330
140
100
AcDbEntity
  8
MAKE2D VISIBLE LINES
100
AcDbVertex
100
AcDb2dVertex
 10
-1237.0
 20
4648.323127308725
 30
0.0
  0
SEQEND
  5
144
330
140
100
AcDbEntity
  8
MAKE2D VISIBLE LINES
  0
POLYLINE
  5
145
330
1F
100
AcDbEntity
  8
MAKE2D VISIBLE LINES
100
AcDb2dPolyline
 66
     1
 10
0.0
 20
0.0
 30
0.0
  0
VERTEX
  5
146
330
145
100
AcDbEntity
  8
MAKE2D VISIBLE LINES
100
AcDbVertex
100
AcDb2dVertex
 10
-1208.199580669958
 20
4620.552353134301
 30
0.0
 42
0.3572718793398179
  0
VERTEX
  5
147
330
145
100
AcDbEntity
  8
MAKE2D VISIBLE LINES
100
AcDbVertex
100
AcDb2dVertex
 10
-1209.059576873255
 20
4619.620726895174
 30
0.0
  0
VERTEX
  5
148
330
145
100
AcDbEntity
  8
MAKE2D VISIBLE LINES
100
AcDbVertex
100
AcDb2dVertex
 10
-1210.948848136645
 20
4587.50326791821
 30
0.0
 42
-0.3970382581206653
  0
VERTEX
  5
149
330
145
100
AcDbEntity
  8
MAKE2D VISIBLE LINES
100
AcDbVertex
100
AcDb2dVertex
 10
-1211.946623364827
 20
4586.562004954958
 30
0.0
  0
VERTEX
  5
14A
330
145
100
AcDbEntity
  8
MAKE2D VISIBLE LINES
100
AcDbVertex
100
AcDb2dVertex
 10
-1234.061983997083
 20
4586.562004873215
 30
0.0
 42
-0.3971939769303783
  0
VERTEX
  5
14B
330
145
100
AcDbEntity
  8
MAKE2D VISIBLE LINES
100
AcDbVertex
100
AcDb2dVertex
 10
-1235.060067516008
 20
4587.503269487337
 30
0.0
  0
VERTEX
  5
14C
330
145
100
AcDbEntity
  8
MAKE2D VISIBLE LINES
100
AcDbVertex
100
AcDb2dVertex
 10
-1236.949396354974
 20
4619.620726895175
 30
0.0
 42
0.3672907339555526
  0
VERTEX
  5
14D
330
145
100
AcDbEntity
  8
MAKE2D VISIBLE LINES
100
AcDbVertex
100
AcDb2dVertex
 10
-1237.844609341101
 20
4620.556646317687
 30
0.0
  0
SEQEND
  5
14E
330
145
100
AcDbEntity
  8
MAKE2D VISIBLE LINES
  0
POLYLINE
  5
14F
330
1F
100
AcDbEntity
  8
MAKE2D VISIBLE LINES
100
AcDb2dPolyline
 66
     1
 10
0.0
 20
0.0
 30
0.0
  0
VERTEX
  5
150
330
14F
100
AcDbEntity
  8
MAKE2D VISIBLE LINES
100
AcDbVertex
100
AcDb2dVertex
 10
-1166.013079350442
 20
5601.325257691589
 30
0.0
 42
-0.3537833770737409
  0
VERTEX
  5
151
330
14F
100
AcDbEntity
  8
MAKE2D VISIBLE LINES
100
AcDbVertex
100
AcDb2dVertex
 10
-1166.328933917808
 20
5601.716359364471
 30
0.0
  0
VERTEX
  5
152
330
14F
100
AcDbEntity
  8
MAKE2D VISIBLE LINES
100
AcDbVertex
100
AcDb2dVertex
 10
-1166.328686277904
 20
5603.316359364471
 30
0.0
  0
SEQEND
  5
153
330
14F
100
AcDbEntity
  8
MAKE2D VISIBLE LINES
  0
POLYLINE
  5
154
330
1F
100
AcDbEntity
  8
MAKE2D VISIBLE LINES
100
AcDb2dPolyline
 66
     1
 10
0.0
 20
0.0
 30
0.0
  0
VERTEX
  5
155
330
154
100
AcDbEntity
  8
MAKE2D VISIBLE LINES
100
AcDbVertex
100
AcDb2dVertex
 10
-1206.650685551405
 20
5601.322929306026
 30
0.0
 42
-0.3616738712559631
  0
VERTEX
  5
156
330
154
100
AcDbEntity
  8
MAKE2D VISIBLE LINES
100
AcDbVertex
100
AcDb2dVertex
 10
-1206.978639821394
 20
5601.716359364471
 30
0.0
  0
VERTEX
  5
157
330
154
100
AcDbEntity
  8
MAKE2D VISIBLE LINES
100
AcDbVertex
100
AcDb2dVertex
 10
-1206.978869674097
 20
5603.316359364471
 30
0.0
  0
SEQEND
  5
158
330
154
100
AcDbEntity
  8
MAKE2D VISIBLE LINES
  0
POLYLINE
  5
159
330
1F
100
AcDbEntity
  8
MAKE2D VISIBLE LINES
100
AcDb2dPolyline
 66
     1
 10
0.0
 20
0.0
 30
0.0
  0
VERTEX
  5
15A
330
159
100
AcDbEntity
  8
MAKE2D VISIBLE LINES
100
AcDbVertex
100
AcDb2dVertex
 10
-1296.084521303612
 20
5603.316359364471
 30
0.0
  0
VERTEX
  5
15B
330
159
100
AcDbEntity
  8
MAKE2D VISIBLE LINES
100
AcDbVertex
100
AcDb2dVertex
 10
-1296.084751156315
 20
5601.716359364471
 30
0.0
 42
-0.3617005930780647
  0
VERTEX
  5
15C
330
159
100
AcDbEntity
  8
MAKE2D VISIBLE LINES
100
AcDbVertex
100
AcDb2dVertex
 10
-1296.412722278178
 20
5601.322977610599
 30
0.0
  0
SEQEND
  5
15D
330
159
100
AcDbEntity
  8
MAKE2D VISIBLE LINES
  0
POLYLINE
  5
15E
330
1F
100
AcDbEntity
  8
MAKE2D VISIBLE LINES
100
AcDb2dPolyline
 66
     1
 10
0.0
 20
0.0
 30
0.0
  0
VERTEX
  5
15F
330
15E
100
AcDbEntity
  8
MAKE2D VISIBLE LINES
100
AcDbVertex
100
AcDb2dVertex
 10
-1213.213908324866
 20
5601.326371675473
 30
0.0
 42
-0.3496073522157749
  0
VERTEX
  5
160
330
15E
100
AcDbEntity
  8
MAKE2D VISIBLE LINES
100
AcDbVertex
100
AcDb2dVertex
 10
-1213.525084576835
 20
5601.716359364471
 30
0.0
  0
VERTEX
  5
161
330
15E
100
AcDbEntity
  8
MAKE2D VISIBLE LINES
100
AcDbVertex
100
AcDb2dVertex
 10
-1213.525298550934
 20
5603.316359364471
 30
0.0
  0
SEQEND
  5
162
330
15E
100
AcDbEntity
  8
MAKE2D VISIBLE LINES
  0
POLYLINE
  5
163
330
1F
100
AcDbEntity
  8
MAKE2D VISIBLE LINES
100
AcDb2dPolyline
 66
     1
 10
0.0
 20
0.0
 30
0.0
  0
VERTEX
  5
164
330
163
100
AcDbEntity
  8
MAKE2D VISIBLE LINES
100
AcDbVertex
100
AcDb2dVertex
 10
-1231.755705045849
 20
5603.316359364471
 30
0.0
  0
VERTEX
  5
165
330
163
100
AcDbEntity
  8
MAKE2D VISIBLE LINES
100
AcDbVertex
100
AcDb2dVertex
 10
-1231.755518366323
 20
5601.716359364472
 30
0.0
 42
-0.357192834833833
  0
VERTEX
  5
166
330
163
100
AcDbEntity
  8
MAKE2D VISIBLE LINES
100
AcDbVertex
100
AcDb2dVertex
 10
-1232.076225177301
 20
5601.324319654152
 30
0.0
  0
SEQEND
  5
167
330
163
100
AcDbEntity
  8
MAKE2D VISIBLE LINES
  0
POLYLINE
  5
168
330
1F
100
AcDbEntity
  8
MAKE2D VISIBLE LINES
100
AcDb2dPolyline
 66
     1
 10
0.0
 20
0.0
 30
0.0
  0
VERTEX
  5
169
330
168
100
AcDbEntity
  8
MAKE2D VISIBLE LINES
100
AcDbVertex
100
AcDb2dVertex
 10
-1243.511410091699
 20
5603.316359364471
 30
0.0
  0
VERTEX
  5
16A
330
168
100
AcDbEntity
  8
MAKE2D VISIBLE LINES
100
AcDbVertex
100
AcDb2dVertex
 10
-1243.511223412173
 20
5601.716359364473
 30
0.0
 42
-0.3571928352405547
  0
VERTEX
  5
16B
330
168
100
AcDbEntity
  8
MAKE2D VISIBLE LINES
100
AcDbVertex
100
AcDb2dVertex
 10
-1243.831930223688
 20
5601.324319654046
 30
0.0
  0
SEQEND
  5
16C
330
168
100
AcDbEntity
  8
MAKE2D VISIBLE LINES
  0
POLYLINE
  5
16D
330
1F
100
AcDbEntity
  8
MAKE2D VISIBLE LINES
100
AcDb2dPolyline
 66
     1
 10
0.0
 20
0.0
 30
0.0
  0
VERTEX
  5
16E
330
16D
100
AcDbEntity
  8
MAKE2D VISIBLE LINES
100
AcDbVertex
100
AcDb2dVertex
 10
-1267.022820183398
 20
5603.316359364471
 30
0.0
  0
VERTEX
  5
16F
330
16D
100
AcDbEntity
  8
MAKE2D VISIBLE LINES
100
AcDbVertex
100
AcDb2dVertex
 10
-1267.022633503871
 20
5601.716359364472
 30
0.0
 42
-0.3571928351352534
  0
VERTEX
  5
170
330
16D
100
AcDbEntity
  8
MAKE2D VISIBLE LINES
100
AcDbVertex
100
AcDb2dVertex
 10
-1267.343340315384
 20
5601.32431965399
 30
0.0
  0
SEQEND
  5
171
330
16D
100
AcDbEntity
  8
MAKE2D VISIBLE LINES
  0
POLYLINE
  5
172
330
1F
100
AcDbEntity
  8
MAKE2D VISIBLE LINES
100
AcDb2dPolyline
 66
     1
 10
0.0
 20
0.0
 30
0.0
  0
VERTEX
  5
173
330
172
100
AcDbEntity
  8
MAKE2D VISIBLE LINES
100
AcDbVertex
100
AcDb2dVertex
 10
-1255.267115137548
 20
5603.316359364471
 30
0.0
  0
VERTEX
  5
174
330
172
100
AcDbEntity
  8
MAKE2D VISIBLE LINES
100
AcDbVertex
100
AcDb2dVertex
 10
-1255.266928458022
 20
5601.716359364472
 30
0.0
 42
-0.3571928349342749
  0
VERTEX
  5
175
330
172
100
AcDbEntity
  8
MAKE2D VISIBLE LINES
100
AcDbVertex
100
AcDb2dVertex
 10
-1255.587635269002
 20
5601.3243196542
 30
0.0
  0
SEQEND
  5
176
330
172
100
AcDbEntity
  8
MAKE2D VISIBLE LINES
  0
POLYLINE
  5
177
330
1F
100
AcDbEntity
  8
MAKE2D VISIBLE LINES
100
AcDb2dPolyline
 66
     1
 10
0.0
 20
0.0
 30
0.0
  0
VERTEX
  5
178
330
177
100
AcDbEntity
  8
MAKE2D VISIBLE LINES
100
AcDbVertex
100
AcDb2dVertex
 10
-1207.525298550934
 20
5603.316359364471
 30
0.0
  0
VERTEX
  5
179
330
177
100
AcDbEntity
  8
MAKE2D VISIBLE LINES
100
AcDbVertex
100
AcDb2dVertex
 10
-1207.525458772753
 20
5601.716359364472
 30
0.0
 42
-0.3630255720521949
  0
VERTEX
  5
17A
330
177
100
AcDbEntity
  8
MAKE2D VISIBLE LINES
100
AcDbVertex
100
AcDb2dVertex
 10
-1207.855126831712
 20
5601.322650820641
 30
0.0
  0
SEQEND
  5
17B
330
177
100
AcDbEntity
  8
MAKE2D VISIBLE LINES
  0
POLYLINE
  5
17C
330
1F
100
AcDbEntity
  8
MAKE2D VISIBLE LINES
100
AcDb2dPolyline
 66
     1
 10
0.0
 20
0.0
 30
0.0
  0
VERTEX
  5
17D
330
17C
100
AcDbEntity
  8
MAKE2D VISIBLE LINES
100
AcDbVertex
100
AcDb2dVertex
 10
-1284.721359549996
 20
5603.316359364471
 30
0.0
  0
VERTEX
  5
17E
330
17C
100
AcDbEntity
  8
MAKE2D VISIBLE LINES
100
AcDbVertex
100
AcDb2dVertex
 10
-1284.721209216628
 20
5601.716359364472
 30
0.0
 42
-0.3571068313239625
  0
VERTEX
  5
17F
330
17C
100
AcDbEntity
  8
MAKE2D VISIBLE LINES
100
AcDbVertex
100
AcDb2dVertex
 10
-1285.04188351316
 20
5601.324332049861
 30
0.0
  0
SEQEND
  5
180
330
17C
100
AcDbEntity
  8
MAKE2D VISIBLE LINES
  0
POLYLINE
  5
181
330
1F
100
AcDbEntity
  8
MAKE2D VISIBLE LINES
100
AcDb2dPolyline
 66
     1
 10
0.0
 20
0.0
 30
0.0
  0
VERTEX
  5
182
330
181
100
AcDbEntity
  8
MAKE2D VISIBLE LINES
100
AcDbVertex
100
AcDb2dVertex
 10
-1230.430763769312
 20
5633.321257904103
 30
0.0
 42
0.373816943947492
  0
VERTEX
  5
183
330
181
100
AcDbEntity
  8
MAKE2D VISIBLE LINES
100
AcDbVertex
100
AcDb2dVertex
 10
-1230.000147833845
 20
5633.816359364471
 30
0.0
  0
VERTEX
  5
184
330
181
100
AcDbEntity
  8
MAKE2D VISIBLE LINES
100
AcDbVertex
100
AcDb2dVertex
 10
-1230.000147833845
 20
5634.816359364471
 30
0.0
 42
0.3737470091890606
  0
VERTEX
  5
185
330
181
100
AcDbEntity
  8
MAKE2D VISIBLE LINES
100
AcDbVertex
100
AcDb2dVertex
 10
-1230.430758851894
 20
5635.311496864524
 30
0.0
  0
SEQEND
  5
186
330
181
100
AcDbEntity
  8
MAKE2D VISIBLE LINES
  0
POLYLINE
  5
187
330
1F
100
AcDbEntity
  8
MAKE2D VISIBLE LINES
100
AcDb2dPolyline
 66
     1
 10
0.0
 20
0.0
 30
0.0
  0
VERTEX
  5
188
330
187
100
AcDbEntity
  8
MAKE2D VISIBLE LINES
100
AcDbVertex
100
AcDb2dVertex
 10
-1215.569258742837
 20
5635.311462267298
 30
0.0
 42
0.3738362501091687
  0
VERTEX
  5
189
330
187
100
AcDbEntity
  8
MAKE2D VISIBLE LINES
100
AcDbVertex
100
AcDb2dVertex
 10
-1215.999867692135
 20
5634.816359364471
 30
0.0
  0
VERTEX
  5
18A
330
187
100
AcDbEntity
  8
MAKE2D VISIBLE LINES
100
AcDbVertex
100
AcDb2dVertex
 10
-1215.999867692135
 20
5633.816359364471
 30
0.0
 42
0.373766270482797
  0
VERTEX
  5
18B
330
187
100
AcDbEntity
  8
MAKE2D VISIBLE LINES
100
AcDbVertex
100
AcDb2dVertex
 10
-1215.569263667659
 20
5633.321220391738
 30
0.0
  0
SEQEND
  5
18C
330
187
100
AcDbEntity
  8
MAKE2D VISIBLE LINES
  0
POLYLINE
  5
18D
330
1F
100
AcDbEntity
  8
MAKE2D VISIBLE LINES
100
AcDb2dPolyline
 66
     1
 10
0.0
 20
0.0
 30
0.0
  0
VERTEX
  5
18E
330
18D
100
AcDbEntity
  8
MAKE2D VISIBLE LINES
100
AcDbVertex
100
AcDb2dVertex
 10
-1213.923768412735
 20
5601.324349753326
 30
0.0
 42
-0.3565556866853072
  0
VERTEX
  5
18F
330
18D
100
AcDbEntity
  8
MAKE2D VISIBLE LINES
100
AcDbVertex
100
AcDb2dVertex
 10
-1214.244228389458
 20
5601.716359364471
 30
0.0
  0
VERTEX
  5
190
330
18D
100
AcDbEntity
  8
MAKE2D VISIBLE LINES
100
AcDbVertex
100
AcDb2dVertex
 10
-1214.244294954151
 20
5603.316359364471
 30
0.0
  0
SEQEND
  5
191
330
18D
100
AcDbEntity
  8
MAKE2D VISIBLE LINES
  0
POLYLINE
  5
192
330
1F
100
AcDbEntity
  8
MAKE2D VISIBLE LINES
100
AcDb2dPolyline
 66
     1
 10
0.0
 20
0.0
 30
0.0
  0
VERTEX
  5
193
330
192
100
AcDbEntity
  8
MAKE2D VISIBLE LINES
100
AcDbVertex
100
AcDb2dVertex
 10
-1178.656653274778
 20
5601.324349754801
 30
0.0
 42
-0.3565556897774408
  0
VERTEX
  5
194
330
192
100
AcDbEntity
  8
MAKE2D VISIBLE LINES
100
AcDbVertex
100
AcDb2dVertex
 10
-1178.97711325191
 20
5601.716359364472
 30
0.0
  0
VERTEX
  5
195
330
192
100
AcDbEntity
  8
MAKE2D VISIBLE LINES
100
AcDbVertex
100
AcDb2dVertex
 10
-1178.977179816602
 20
5603.316359364471
 30
0.0
  0
SEQEND
  5
196
330
192
100
AcDbEntity
  8
MAKE2D VISIBLE LINES
  0
POLYLINE
  5
197
330
1F
100
AcDbEntity
  8
MAKE2D VISIBLE LINES
100
AcDb2dPolyline
 66
     1
 10
0.0
 20
0.0
 30
0.0
  0
VERTEX
  5
198
330
197
100
AcDbEntity
  8
MAKE2D VISIBLE LINES
100
AcDbVertex
100
AcDb2dVertex
 10
-1190.412358317547
 20
5601.32434976591
 30
0.0
 42
-0.3565557130712469
  0
VERTEX
  5
199
330
197
100
AcDbEntity
  8
MAKE2D VISIBLE LINES
100
AcDbVertex
100
AcDb2dVertex
 10
-1190.732818297759
 20
5601.716359364472
 30
0.0
  0
VERTEX
  5
19A
330
197
100
AcDbEntity
  8
MAKE2D VISIBLE LINES
100
AcDbVertex
100
AcDb2dVertex
 10
-1190.732884862452
 20
5603.316359364471
 30
0.0
  0
SEQEND
  5
19B
330
197
100
AcDbEntity
  8
MAKE2D VISIBLE LINES
  0
POLYLINE
  5
19C
330
1F
100
AcDbEntity
  8
MAKE2D VISIBLE LINES
100
AcDb2dPolyline
 66
     1
 10
0.0
 20
0.0
 30
0.0
  0
VERTEX
  5
19D
330
19C
100
AcDbEntity
  8
MAKE2D VISIBLE LINES
100
AcDbVertex
100
AcDb2dVertex
 10
-1202.172633574399
 20
5601.325303291283
 30
0.0
 42
-0.3532629508749088
  0
VERTEX
  5
19E
330
19C
100
AcDbEntity
  8
MAKE2D VISIBLE LINES
100
AcDbVertex
100
AcDb2dVertex
 10
-1202.488523343609
 20
5601.716359364471
 30
0.0
  0
VERTEX
  5
19F
330
19C
100
AcDbEntity
  8
MAKE2D VISIBLE LINES
100
AcDbVertex
100
AcDb2dVertex
 10
-1202.488589908301
 20
5603.316359364471
 30
0.0
  0
SEQEND
  5
1A0
330
19C
100
AcDbEntity
  8
MAKE2D VISIBLE LINES
  0
POLYLINE
  5
1A1
330
1F
100
AcDbEntity
  8
MAKE2D VISIBLE LINES
100
AcDb2dPolyline
 66
     1
 10
0.0
 20
0.0
 30
0.0
  0
VERTEX
  5
1A2
330
1A1
100
AcDbEntity
  8
MAKE2D VISIBLE LINES
100
AcDbVertex
100
AcDb2dVertex
 10
-1168.038475772933
 20
5603.316359364471
 30
0.0
  0
VERTEX
  5
1A3
330
1A1
100
AcDbEntity
  8
MAKE2D VISIBLE LINES
100
AcDbVertex
100
AcDb2dVertex
 10
-1168.038539682103
 20
5601.716359364472
 30
0.0
 42
-0.3592506123825318
  0
VERTEX
  5
1A4
330
1A1
100
AcDbEntity
  8
MAKE2D VISIBLE LINES
100
AcDbVertex
100
AcDb2dVertex
 10
-1168.362708581008
 20
5601.323672364462
 30
0.0
  0
SEQEND
  5
1A5
330
1A1
100
AcDbEntity
  8
MAKE2D VISIBLE LINES
  0
POLYLINE
  5
1A6
330
1F
100
AcDbEntity
  8
MAKE2D VISIBLE LINES
100
AcDb2dPolyline
 66
     1
 10
0.0
 20
0.0
 30
0.0
  0
VERTEX
  5
1A7
330
1A6
100
AcDbEntity
  8
MAKE2D VISIBLE LINES
100
AcDbVertex
100
AcDb2dVertex
 10
-1136.143884950219
 20
5379.305854486027
 30
0.0
 42
0.3723233534457758
  0
VERTEX
  5
1A8
330
1A6
100
AcDbEntity
  8
MAKE2D VISIBLE LINES
100
AcDbVertex
100
AcDb2dVertex
 10
-1136.999348350429
 20
5378.316310285294
 30
0.0
  0
VERTEX
  5
1A9
330
1A6
100
AcDbEntity
  8
MAKE2D VISIBLE LINES
100
AcDbVertex
100
AcDb2dVertex
 10
-1136.999327819067
 20
5377.316408574974
 30
0.0
 42
-0.414330789392777
  0
VERTEX
  5
1AA
330
1A6
100
AcDbEntity
  8
MAKE2D VISIBLE LINES
100
AcDbVertex
100
AcDb2dVertex
 10
-1135.999636708168
 20
5376.316359364471
 30
0.0
  0
VERTEX
  5
1AB
330
1A6
100
AcDbEntity
  8
MAKE2D VISIBLE LINES
100
AcDbVertex
100
AcDb2dVertex
 10
-1135.999636708164
 20
5285.316359364471
 30
0.0
 42
-0.4142356653097999
  0
VERTEX
  5
1AC
330
1A6
100
AcDbEntity
  8
MAKE2D VISIBLE LINES
100
AcDbVertex
100
AcDb2dVertex
 10
-1136.998934950493
 20
5284.316359445682
 30
0.0
  0
SEQEND
  5
1AD
330
1A6
100
AcDbEntity
  8
MAKE2D VISIBLE LINES
  0
POLYLINE
  5
1AE
330
1F
100
AcDbEntity
  8
MAKE2D VISIBLE LINES
100
AcDb2dPolyline
 66
     1
 10
0.0
 20
0.0
 30
0.0
  0
VERTEX
  5
1AF
330
1AE
100
AcDbEntity
  8
MAKE2D VISIBLE LINES
100
AcDbVertex
100
AcDb2dVertex
 10
-1238.144904786566
 20
5601.322549007479
 30
0.0
 42
-0.3635072418617339
  0
VERTEX
  5
1B0
330
1AE
100
AcDbEntity
  8
MAKE2D VISIBLE LINES
100
AcDbVertex
100
AcDb2dVertex
 10
-1238.474748703163
 20
5601.716359364471
 30
0.0
  0
VERTEX
  5
1B1
330
1AE
100
AcDbEntity
  8
MAKE2D VISIBLE LINES
100
AcDbVertex
100
AcDb2dVertex
 10
-1238.474701449065
 20
5603.316359364471
 30
0.0
  0
SEQEND
  5
1B2
330
1AE
100
AcDbEntity
  8
MAKE2D VISIBLE LINES
  0
POLYLINE
  5
1B3
330
1F
100
AcDbEntity
  8
MAKE2D VISIBLE LINES
100
AcDb2dPolyline
 66
     1
 10
0.0
 20
0.0
 30
0.0
  0
VERTEX
  5
1B4
330
1B3
100
AcDbEntity
  8
MAKE2D VISIBLE LINES
100
AcDbVertex
100
AcDb2dVertex
 10
-1255.271426540658
 20
5601.316360473633
 30
0.0
  0
VERTEX
  5
1B5
330
1B3
100
AcDbEntity
  8
MAKE2D VISIBLE LINES
100
AcDbVertex
100
AcDb2dVertex
 10
-1261.262803731778
 20
5601.316382807243
 30
0.0
 42
-0.0000030526065315
  0
VERTEX
  5
1B6
330
1B3
100
AcDbEntity
  8
MAKE2D VISIBLE LINES
100
AcDbVertex
100
AcDb2dVertex
 10
-1264.03634688169
 20
5601.31635936448
 30
0.0
  0
SEQEND
  5
1B7
330
1B3
100
AcDbEntity
  8
MAKE2D VISIBLE LINES
  0
POLYLINE
  5
1B8
330
1F
100
AcDbEntity
  8
MAKE2D VISIBLE LINES
100
AcDb2dPolyline
 66
     1
 10
0.0
 20
0.0
 30
0.0
  0
VERTEX
  5
1B9
330
1B8
100
AcDbEntity
  8
MAKE2D VISIBLE LINES
100
AcDbVertex
100
AcDb2dVertex
 10
-1181.959619422777
 20
5601.316359364471
 30
0.0
  0
VERTEX
  5
1BA
330
1B8
100
AcDbEntity
  8
MAKE2D VISIBLE LINES
100
AcDbVertex
100
AcDb2dVertex
 10
-1184.736528617904
 20
5601.316382807236
 30
0.0
  0
VERTEX
  5
1BB
330
1B8
100
AcDbEntity
  8
MAKE2D VISIBLE LINES
100
AcDbVertex
100
AcDb2dVertex
 10
-1190.729241109677
 20
5601.316360473635
 30
0.0
  0
SEQEND
  5
1BC
330
1B8
100
AcDbEntity
  8
MAKE2D VISIBLE LINES
  0
POLYLINE
  5
1BD
330
1F
100
AcDbEntity
  8
MAKE2D VISIBLE LINES
100
AcDb2dPolyline
 66
     1
 10
0.0
 20
0.0
 30
0.0
  0
VERTEX
  5
1BE
330
1BD
100
AcDbEntity
  8
MAKE2D VISIBLE LINES
100
AcDbVertex
100
AcDb2dVertex
 10
-1155.282284202779
 20
5601.316360473633
 30
0.0
  0
VERTEX
  5
1BF
330
1BD
100
AcDbEntity
  8
MAKE2D VISIBLE LINES
100
AcDbVertex
100
AcDb2dVertex
 10
-1161.274996697022
 20
5601.316382807236
 30
0.0
  0
VERTEX
  5
1C0
330
1BD
100
AcDbEntity
  8
MAKE2D VISIBLE LINES
100
AcDbVertex
100
AcDb2dVertex
 10
-1166.328849034221
 20
5601.316359364471
 30
0.0
  0
VERTEX
  5
1C1
330
1BD
100
AcDbEntity
  8
MAKE2D VISIBLE LINES
100
AcDbVertex
100
AcDb2dVertex
 10
-1168.043083015257
 20
5601.316359919052
 30
0.0
  0
VERTEX
  5
1C2
330
1BD
100
AcDbEntity
  8
MAKE2D VISIBLE LINES
100
AcDbVertex
100
AcDb2dVertex
 10
-1172.980823569201
 20
5601.316383361816
 30
0.0
  0
VERTEX
  5
1C3
330
1BD
100
AcDbEntity
  8
MAKE2D VISIBLE LINES
100
AcDbVertex
100
AcDb2dVertex
 10
-1178.978932711876
 20
5601.316359919052
 30
0.0
  0
VERTEX
  5
1C4
330
1BD
100
AcDbEntity
  8
MAKE2D VISIBLE LINES
100
AcDbVertex
100
AcDb2dVertex
 10
-1180.640744947788
 20
5601.316359364471
 30
0.0
  0
VERTEX
  5
1C5
330
1BD
100
AcDbEntity
  8
MAKE2D VISIBLE LINES
100
AcDbVertex
100
AcDb2dVertex
 10
-1181.407394336137
 20
5601.316359364472
 30
0.0
  0
SEQEND
  5
1C6
330
1BD
100
AcDbEntity
  8
MAKE2D VISIBLE LINES
  0
POLYLINE
  5
1C7
330
1F
100
AcDbEntity
  8
MAKE2D VISIBLE LINES
100
AcDb2dPolyline
 66
     1
 10
0.0
 20
0.0
 30
0.0
  0
VERTEX
  5
1C8
330
1C7
100
AcDbEntity
  8
MAKE2D VISIBLE LINES
100
AcDbVertex
100
AcDb2dVertex
 10
-1208.978114756079
 20
4711.316246588753
 30
0.0
 42
-0.411167323770908
  0
VERTEX
  5
1C9
330
1C7
100
AcDbEntity
  8
MAKE2D VISIBLE LINES
100
AcDbVertex
100
AcDb2dVertex
 10
-1206.999662094158
 20
4709.316359364471
 30
0.0
  0
VERTEX
  5
1CA
330
1C7
100
AcDbEntity
  8
MAKE2D VISIBLE LINES
100
AcDbVertex
100
AcDb2dVertex
 10
-1206.999977739854
 20
4704.316558548509
 30
0.0
 42
0.4141873932243329
  0
VERTEX
  5
1CB
330
1C7
100
AcDbEntity
  8
MAKE2D VISIBLE LINES
100
AcDbVertex
100
AcDb2dVertex
 10
-1196.999927666351
 20
4694.316428784102
 30
0.0
  0
VERTEX
  5
1CC
330
1C7
100
AcDbEntity
  8
MAKE2D VISIBLE LINES
100
AcDbVertex
100
AcDb2dVertex
 10
-1135.0
 20
4694.316794090184
 30
0.0
 42
-0.4142909065917929
  0
VERTEX
  5
1CD
330
1C7
100
AcDbEntity
  8
MAKE2D VISIBLE LINES
100
AcDbVertex
100
AcDb2dVertex
 10
-1133.0
 20
4692.31354849754
 30
0.0
  0
VERTEX
  5
1CE
330
1C7
100
AcDbEntity
  8
MAKE2D VISIBLE LINES
100
AcDbVertex
100
AcDb2dVertex
 10
-1133.0
 20
4650.319081780678
 30
0.0
 42
-0.4143127325828127
  0
VERTEX
  5
1CF
330
1C7
100
AcDbEntity
  8
MAKE2D VISIBLE LINES
100
AcDbVertex
100
AcDb2dVertex
 10
-1135.0
 20
4648.315873624823
 30
0.0
  0
VERTEX
  5
1D0
330
1C7
100
AcDbEntity
  8
MAKE2D VISIBLE LINES
100
AcDbVertex
100
AcDb2dVertex
 10
-1209.003258104794
 20
4648.316359364471
 30
0.0
  0
SEQEND
  5
1D1
330
1C7
100
AcDbEntity
  8
MAKE2D VISIBLE LINES
  0
POLYLINE
  5
1D2
330
1F
100
AcDbEntity
  8
MAKE2D VISIBLE LINES
100
AcDb2dPolyline
 66
     1
 10
0.0
 20
0.0
 30
0.0
  0
VERTEX
  5
1D3
330
1D2
100
AcDbEntity
  8
MAKE2D VISIBLE LINES
100
AcDbVertex
100
AcDb2dVertex
 10
-1172.977179816602
 20
5603.316359364471
 30
0.0
  0
VERTEX
  5
1D4
330
1D2
100
AcDbEntity
  8
MAKE2D VISIBLE LINES
100
AcDbVertex
100
AcDb2dVertex
 10
-1172.977199168722
 20
5601.716359364472
 30
0.0
 42
-0.3566900150784826
  0
VERTEX
  5
1D5
330
1D2
100
AcDbEntity
  8
MAKE2D VISIBLE LINES
100
AcDbVertex
100
AcDb2dVertex
 10
-1173.297720224822
 20
5601.32438248458
 30
0.0
  0
SEQEND
  5
1D6
330
1D2
100
AcDbEntity
  8
MAKE2D VISIBLE LINES
  0
POLYLINE
  5
1D7
330
1F
100
AcDbEntity
  8
MAKE2D VISIBLE LINES
100
AcDb2dPolyline
 66
     1
 10
0.0
 20
0.0
 30
0.0
  0
VERTEX
  5
1D8
330
1D7
100
AcDbEntity
  8
MAKE2D VISIBLE LINES
100
AcDbVertex
100
AcDb2dVertex
 10
-1184.732884862452
 20
5603.316359364471
 30
0.0
  0
VERTEX
  5
1D9
330
1D7
100
AcDbEntity
  8
MAKE2D VISIBLE LINES
100
AcDbVertex
100
AcDb2dVertex
 10
-1184.732904214571
 20
5601.716359364472
 30
0.0
 42
-0.3566900151647043
  0
VERTEX
  5
1DA
330
1D7
100
AcDbEntity
  8
MAKE2D VISIBLE LINES
100
AcDbVertex
100
AcDb2dVertex
 10
-1185.053425270524
 20
5601.324382484717
 30
0.0
  0
SEQEND
  5
1DB
330
1D7
100
AcDbEntity
  8
MAKE2D VISIBLE LINES
  0
POLYLINE
  5
1DC
330
1F
100
AcDbEntity
  8
MAKE2D VISIBLE LINES
100
AcDb2dPolyline
 66
     1
 10
0.0
 20
0.0
 30
0.0
  0
VERTEX
  5
1DD
330
1DC
100
AcDbEntity
  8
MAKE2D VISIBLE LINES
100
AcDbVertex
100
AcDb2dVertex
 10
-1290.400838502446
 20
5601.324332027975
 30
0.0
 42
-0.356679317701867
  0
VERTEX
  5
1DE
330
1DC
100
AcDbEntity
  8
MAKE2D VISIBLE LINES
100
AcDbVertex
100
AcDb2dVertex
 10
-1290.721345116253
 20
5601.716359364471
 30
0.0
  0
VERTEX
  5
1DF
330
1DC
100
AcDbEntity
  8
MAKE2D VISIBLE LINES
100
AcDbVertex
100
AcDb2dVertex
 10
-1290.721359549996
 20
5603.316359364471
 30
0.0
  0
SEQEND
  5
1E0
330
1DC
100
AcDbEntity
  8
MAKE2D VISIBLE LINES
  0
POLYLINE
  5
1E1
330
1F
100
AcDbEntity
  8
MAKE2D VISIBLE LINES
100
AcDb2dPolyline
 66
     1
 10
0.0
 20
0.0
 30
0.0
  0
VERTEX
  5
1E2
330
1E1
100
AcDbEntity
  8
MAKE2D VISIBLE LINES
100
AcDbVertex
100
AcDb2dVertex
 10
-1264.59280092438
 20
5601.316345214844
 30
0.0
  0
VERTEX
  5
1E3
330
1E1
100
AcDbEntity
  8
MAKE2D VISIBLE LINES
100
AcDbVertex
100
AcDb2dVertex
 10
-1284.72500330256
 20
5601.316359364486
 30
0.0
 42
0.0000086658058863
  0
VERTEX
  5
1E4
330
1E1
100
AcDbEntity
  8
MAKE2D VISIBLE LINES
100
AcDbVertex
100
AcDb2dVertex
 10
-1290.717715797221
 20
5601.316360473652
 30
0.0
  0
SEQEND
  5
1E5
330
1E1
100
AcDbEntity
  8
MAKE2D VISIBLE LINES
  0
POLYLINE
  5
1E6
330
1F
100
AcDbEntity
  8
MAKE2D VISIBLE LINES
100
AcDb2dPolyline
 66
     1
 10
0.0
 20
0.0
 30
0.0
  0
VERTEX
  5
1E7
330
1E6
100
AcDbEntity
  8
MAKE2D VISIBLE LINES
100
AcDbVertex
100
AcDb2dVertex
 10
-1232.474701449065
 20
5603.316359364471
 30
0.0
  0
VERTEX
  5
1E8
330
1E6
100
AcDbEntity
  8
MAKE2D VISIBLE LINES
100
AcDbVertex
100
AcDb2dVertex
 10
-1232.474696021962
 20
5601.716359364472
 30
0.0
 42
-0.3634319593513378
  0
VERTEX
  5
1E9
330
1E6
100
AcDbEntity
  8
MAKE2D VISIBLE LINES
100
AcDbVertex
100
AcDb2dVertex
 10
-1232.804517431846
 20
5601.322607804012
 30
0.0
  0
SEQEND
  5
1EA
330
1E6
100
AcDbEntity
  8
MAKE2D VISIBLE LINES
  0
POLYLINE
  5
1EB
330
1F
100
AcDbEntity
  8
MAKE2D VISIBLE LINES
100
AcDb2dPolyline
 66
     1
 10
0.0
 20
0.0
 30
0.0
  0
VERTEX
  5
1EC
330
1EB
100
AcDbEntity
  8
MAKE2D VISIBLE LINES
100
AcDbVertex
100
AcDb2dVertex
 10
-1236.000520721108
 20
4641.316359364471
 30
0.0
  0
VERTEX
  5
1ED
330
1EB
100
AcDbEntity
  8
MAKE2D VISIBLE LINES
100
AcDbVertex
100
AcDb2dVertex
 10
-1209.999324175553
 20
4641.316359340242
 30
0.0
 42
-0.4142311644547803
  0
VERTEX
  5
1EE
330
1EB
100
AcDbEntity
  8
MAKE2D VISIBLE LINES
100
AcDbVertex
100
AcDb2dVertex
 10
-1208.999735384348
 20
4640.316359368602
 30
0.0
  0
VERTEX
  5
1EF
330
1EB
100
AcDbEntity
  8
MAKE2D VISIBLE LINES
100
AcDbVertex
100
AcDb2dVertex
 10
-1209.002135918032
 20
4631.316331428065
 30
0.0
 42
0.334133381675768
  0
VERTEX
  5
1F0
330
1EB
100
AcDbEntity
  8
MAKE2D VISIBLE LINES
100
AcDbVertex
100
AcDb2dVertex
 10
-1208.282282909137
 20
4630.355678707723
 30
0.0
  0
VERTEX
  5
1F1
330
1EB
100
AcDbEntity
  8
MAKE2D VISIBLE LINES
100
AcDbVertex
100
AcDb2dVertex
 10
-1202.728411431886
 20
4628.768848394015
 30
0.0
 42
-0.3351287184371013
  0
VERTEX
  5
1F2
330
1EB
100
AcDbEntity
  8
MAKE2D VISIBLE LINES
100
AcDbVertex
100
AcDb2dVertex
 10
-1202.004471149539
 20
4627.807250056661
 30
0.0
  0
VERTEX
  5
1F3
330
1EB
100
AcDbEntity
  8
MAKE2D VISIBLE LINES
100
AcDbVertex
100
AcDb2dVertex
 10
-1202.004468093331
 20
4621.562004873215
 30
0.0
 42
-0.4142134173210255
  0
VERTEX
  5
1F4
330
1EB
100
AcDbEntity
  8
MAKE2D VISIBLE LINES
100
AcDbVertex
100
AcDb2dVertex
 10
-1203.004468107305
 20
4620.562004873215
 30
0.0
  0
VERTEX
  5
1F5
330
1EB
100
AcDbEntity
  8
MAKE2D VISIBLE LINES
100
AcDbVertex
100
AcDb2dVertex
 10
-1243.001887467121
 20
4620.562004873215
 30
0.0
 42
-0.4143965794474438
  0
VERTEX
  5
1F6
330
1EB
100
AcDbEntity
  8
MAKE2D VISIBLE LINES
100
AcDbVertex
100
AcDb2dVertex
 10
-1244.004919239587
 20
4621.562004873215
 30
0.0
  0
VERTEX
  5
1F7
330
1EB
100
AcDbEntity
  8
MAKE2D VISIBLE LINES
100
AcDbVertex
100
AcDb2dVertex
 10
-1244.004665174959
 20
4627.807917358024
 30
0.0
 42
-0.3349325679205594
  0
VERTEX
  5
1F8
330
1EB
100
AcDbEntity
  8
MAKE2D VISIBLE LINES
100
AcDbVertex
100
AcDb2dVertex
 10
-1243.279526499344
 20
4628.769606816199
 30
0.0
  0
VERTEX
  5
1F9
330
1EB
100
AcDbEntity
  8
MAKE2D VISIBLE LINES
100
AcDbVertex
100
AcDb2dVertex
 10
-1237.730488914066
 20
4630.354842022138
 30
0.0
 42
0.3338304784778744
  0
VERTEX
  5
1FA
330
1EB
100
AcDbEntity
  8
MAKE2D VISIBLE LINES
100
AcDbVertex
100
AcDb2dVertex
 10
-1237.002100041524
 20
4631.316597234958
 30
0.0
  0
VERTEX
  5
1FB
330
1EB
100
AcDbEntity
  8
MAKE2D VISIBLE LINES
100
AcDbVertex
100
AcDb2dVertex
 10
-1237.000295622967
 20
4640.316742388273
 30
0.0
 42
-0.414222124424921
  0
VERTEX
  5
1FC
330
1EB
100
AcDbEntity
  8
MAKE2D VISIBLE LINES
100
AcDbVertex
100
AcDb2dVertex
 10
-1236.000520721108
 20
4641.316359364471
 30
0.0
  0
SEQEND
  5
1FD
330
1EB
100
AcDbEntity
  8
MAKE2D VISIBLE LINES
  0
POLYLINE
  5
1FE
330
1F
100
AcDbEntity
  8
MAKE2D VISIBLE LINES
100
AcDb2dPolyline
 66
     1
 10
0.0
 20
0.0
 30
0.0
  0
VERTEX
  5
1FF
330
1FE
100
AcDbEntity
  8
MAKE2D VISIBLE LINES
100
AcDbVertex
100
AcDb2dVertex
 10
-1316.79481462984
 20
4694.183175152052
 30
0.0
 42
-0.0497259979754867
  0
VERTEX
  5
200
330
1FE
100
AcDbEntity
  8
MAKE2D VISIBLE LINES
100
AcDbVertex
100
AcDb2dVertex
 10
-1311.803758083498
 20
4698.433931960156
 30
0.0
 42
-0.095167186525552
  0
VERTEX
  5
201
330
1FE
100
AcDbEntity
  8
MAKE2D VISIBLE LINES
100
AcDbVertex
100
AcDb2dVertex
 10
-1300.465473732338
 20
4703.459086749497
 30
0.0
  0
SEQEND
  5
202
330
1FE
100
AcDbEntity
  8
MAKE2D VISIBLE LINES
  0
POLYLINE
  5
203
330
1F
100
AcDbEntity
  8
MAKE2D VISIBLE LINES
100
AcDb2dPolyline
 66
     1
 10
0.0
 20
0.0
 30
0.0
  0
VERTEX
  5
204
330
203
100
AcDbEntity
  8
MAKE2D VISIBLE LINES
100
AcDbVertex
100
AcDb2dVertex
 10
-1137.00451572808
 20
5378.316359364471
 30
0.0
  0
VERTEX
  5
205
330
203
100
AcDbEntity
  8
MAKE2D VISIBLE LINES
100
AcDbVertex
100
AcDb2dVertex
 10
-1167.000002183006
 20
5378.316359364471
 30
0.0
 42
0.3712720454313022
  0
VERTEX
  5
206
330
203
100
AcDbEntity
  8
MAKE2D VISIBLE LINES
100
AcDbVertex
100
AcDb2dVertex
 10
-1167.859512868365
 20
5379.306410142862
 30
0.0
  0
VERTEX
  5
207
330
203
100
AcDbEntity
  8
MAKE2D VISIBLE LINES
100
AcDbVertex
100
AcDb2dVertex
 10
-1167.81802943593
 20
5379.299664732888
 30
0.0
  0
SEQEND
  5
208
330
203
100
AcDbEntity
  8
MAKE2D VISIBLE LINES
  0
POLYLINE
  5
209
330
1F
100
AcDbEntity
  8
MAKE2D VISIBLE LINES
100
AcDb2dPolyline
 66
     1
 10
0.0
 20
0.0
 30
0.0
  0
VERTEX
  5
20A
330
209
100
AcDbEntity
  8
MAKE2D VISIBLE LINES
100
AcDbVertex
100
AcDb2dVertex
 10
-1237.423027938812
 20
5617.322457477892
 30
0.0
 42
0.3690713790905881
  0
VERTEX
  5
20B
330
209
100
AcDbEntity
  8
MAKE2D VISIBLE LINES
100
AcDbVertex
100
AcDb2dVertex
 10
-1237.000295667652
 20
5617.816359364471
 30
0.0
  0
VERTEX
  5
20C
330
209
100
AcDbEntity
  8
MAKE2D VISIBLE LINES
100
AcDbVertex
100
AcDb2dVertex
 10
-1237.000264615691
 20
5628.14096883463
 30
0.0
 42
-0.1694185738204419
  0
VERTEX
  5
20D
330
209
100
AcDbEntity
  8
MAKE2D VISIBLE LINES
100
AcDbVertex
100
AcDb2dVertex
 10
-1236.89069694974
 20
5628.453316358268
 30
0.0
  0
VERTEX
  5
20E
330
209
100
AcDbEntity
  8
MAKE2D VISIBLE LINES
100
AcDbVertex
100
AcDb2dVertex
 10
-1233.150238889279
 20
5633.128800513163
 30
0.0
 42
-0.227778466466327
  0
VERTEX
  5
20F
330
209
100
AcDbEntity
  8
MAKE2D VISIBLE LINES
100
AcDbVertex
100
AcDb2dVertex
 10
-1232.760056915411
 20
5633.31635936447
 30
0.0
  0
VERTEX
  5
210
330
209
100
AcDbEntity
  8
MAKE2D VISIBLE LINES
100
AcDbVertex
100
AcDb2dVertex
 10
-1213.239898996043
 20
5633.316359364469
 30
0.0
 42
-0.2275319733431018
  0
VERTEX
  5
211
330
209
100
AcDbEntity
  8
MAKE2D VISIBLE LINES
100
AcDbVertex
100
AcDb2dVertex
 10
-1212.849747400895
 20
5633.128811504934
 30
0.0
  0
VERTEX
  5
212
330
209
100
AcDbEntity
  8
MAKE2D VISIBLE LINES
100
AcDbVertex
100
AcDb2dVertex
 10
-1209.109272241315
 20
5628.453316358269
 30
0.0
 42
-0.1695028939541878
  0
VERTEX
  5
213
330
209
100
AcDbEntity
  8
MAKE2D VISIBLE LINES
100
AcDbVertex
100
AcDb2dVertex
 10
-1208.999704332348
 20
5628.140968834631
 30
0.0
  0
VERTEX
  5
214
330
209
100
AcDbEntity
  8
MAKE2D VISIBLE LINES
100
AcDbVertex
100
AcDb2dVertex
 10
-1208.999735384309
 20
5617.816359364471
 30
0.0
 42
0.3791417411146989
  0
VERTEX
  5
215
330
209
100
AcDbEntity
  8
MAKE2D VISIBLE LINES
100
AcDbVertex
100
AcDb2dVertex
 10
-1208.559461364289
 20
5617.319968750568
 30
0.0
  0
SEQEND
  5
216
330
209
100
AcDbEntity
  8
MAKE2D VISIBLE LINES
  0
POLYLINE
  5
217
330
1F
100
AcDbEntity
  8
MAKE2D VISIBLE LINES
100
AcDb2dPolyline
 66
     1
 10
0.0
 20
0.0
 30
0.0
  0
VERTEX
  5
218
330
217
100
AcDbEntity
  8
MAKE2D VISIBLE LINES
100
AcDbVertex
100
AcDb2dVertex
 10
-1140.0
 20
5601.316359364471
 30
0.0
  0
VERTEX
  5
219
330
217
100
AcDbEntity
  8
MAKE2D VISIBLE LINES
100
AcDbVertex
100
AcDb2dVertex
 10
-1143.917358771361
 20
5601.316358965378
 30
0.0
  0
VERTEX
  5
21A
330
217
100
AcDbEntity
  8
MAKE2D VISIBLE LINES
100
AcDbVertex
100
AcDb2dVertex
 10
-1149.913598621804
 20
5601.316406249998
 30
0.0
  0
SEQEND
  5
21B
330
217
100
AcDbEntity
  8
MAKE2D VISIBLE LINES
  0
POLYLINE
  5
21C
330
1F
100
AcDbEntity
  8
MAKE2D VISIBLE LINES
100
AcDb2dPolyline
 66
     1
 10
0.0
 20
0.0
 30
0.0
  0
VERTEX
  5
21D
330
21C
100
AcDbEntity
  8
MAKE2D VISIBLE LINES
100
AcDbVertex
100
AcDb2dVertex
 10
-1167.101506326598
 20
5379.321525106432
 30
0.0
 42
-0.3847164660422884
  0
VERTEX
  5
21E
330
21C
100
AcDbEntity
  8
MAKE2D VISIBLE LINES
100
AcDbVertex
100
AcDb2dVertex
 10
-1167.999978494496
 20
5380.316359364471
 30
0.0
  0
VERTEX
  5
21F
330
21C
100
AcDbEntity
  8
MAKE2D VISIBLE LINES
100
AcDbVertex
100
AcDb2dVertex
 10
-1167.999978494496
 20
5388.31635936442
 30
0.0
 42
-0.4140845860126171
  0
VERTEX
  5
220
330
21C
100
AcDbEntity
  8
MAKE2D VISIBLE LINES
100
AcDbVertex
100
AcDb2dVertex
 10
-1167.000196734715
 20
5389.316359316781
 30
0.0
  0
VERTEX
  5
221
330
21C
100
AcDbEntity
  8
MAKE2D VISIBLE LINES
100
AcDbVertex
100
AcDb2dVertex
 10
-1137.001707857959
 20
5389.316359321138
 30
0.0
 42
-0.414231597555914
  0
VERTEX
  5
222
330
21C
100
AcDbEntity
  8
MAKE2D VISIBLE LINES
100
AcDbVertex
100
AcDb2dVertex
 10
-1135.999636708168
 20
5388.31635936442
 30
0.0
  0
VERTEX
  5
223
330
21C
100
AcDbEntity
  8
MAKE2D VISIBLE LINES
100
AcDbVertex
100
AcDb2dVertex
 10
-1135.999636708168
 20
5380.316359364471
 30
0.0
 42
-0.3767655631617999
  0
VERTEX
  5
224
330
21C
100
AcDbEntity
  8
MAKE2D VISIBLE LINES
100
AcDbVertex
100
AcDb2dVertex
 10
-1136.869697458834
 20
5379.324797772799
 30
0.0
  0
SEQEND
  5
225
330
21C
100
AcDbEntity
  8
MAKE2D VISIBLE LINES
  0
POLYLINE
  5
226
330
1F
100
AcDbEntity
  8
MAKE2D VISIBLE LINES
100
AcDb2dPolyline
 66
     1
 10
0.0
 20
0.0
 30
0.0
  0
VERTEX
  5
227
330
226
100
AcDbEntity
  8
MAKE2D VISIBLE LINES
100
AcDbVertex
100
AcDb2dVertex
 10
-1167.998187078232
 20
5379.316357711581
 30
0.0
  0
VERTEX
  5
228
330
226
100
AcDbEntity
  8
MAKE2D VISIBLE LINES
100
AcDbVertex
100
AcDb2dVertex
 10
-1167.999604393299
 20
5379.316359209421
 30
0.0
  0
VERTEX
  5
229
330
226
100
AcDbEntity
  8
MAKE2D VISIBLE LINES
100
AcDbVertex
100
AcDb2dVertex
 10
-1136.000369634105
 20
5379.316359089218
 30
0.0
  0
VERTEX
  5
22A
330
226
100
AcDbEntity
  8
MAKE2D VISIBLE LINES
100
AcDbVertex
100
AcDb2dVertex
 10
-1135.999317297203
 20
5379.316359364471
 30
0.0
  0
SEQEND
  5
22B
330
226
100
AcDbEntity
  8
MAKE2D VISIBLE LINES
  0
POLYLINE
  5
22C
330
1F
100
AcDbEntity
  8
MAKE2D VISIBLE LINES
100
AcDb2dPolyline
 66
     1
 10
0.0
 20
0.0
 30
0.0
  0
VERTEX
  5
22D
330
22C
100
AcDbEntity
  8
MAKE2D VISIBLE LINES
100
AcDbVertex
100
AcDb2dVertex
 10
-1296.086401378195
 20
5601.31640625
 30
0.0
  0
VERTEX
  5
22E
330
22C
100
AcDbEntity
  8
MAKE2D VISIBLE LINES
100
AcDbVertex
100
AcDb2dVertex
 10
-1302.082641228638
 20
5601.316359442214
 30
0.0
  0
VERTEX
  5
22F
330
22C
100
AcDbEntity
  8
MAKE2D VISIBLE LINES
100
AcDbVertex
100
AcDb2dVertex
 10
-1306.0
 20
5601.316359364471
 30
0.0
  0
SEQEND
  5
230
330
22C
100
AcDbEntity
  8
MAKE2D VISIBLE LINES
  0
POLYLINE
  5
231
330
1F
100
AcDbEntity
  8
MAKE2D VISIBLE LINES
100
AcDb2dPolyline
 66
     1
 10
0.0
 20
0.0
 30
0.0
  0
VERTEX
  5
232
330
231
100
AcDbEntity
  8
MAKE2D VISIBLE LINES
100
AcDbVertex
100
AcDb2dVertex
 10
-1231.760016448959
 20
5601.316360473633
 30
0.0
  0
VERTEX
  5
233
330
231
100
AcDbEntity
  8
MAKE2D VISIBLE LINES
100
AcDbVertex
100
AcDb2dVertex
 10
-1232.481905367097
 20
5601.316359442214
 30
0.0
  0
VERTEX
  5
234
330
231
100
AcDbEntity
  8
MAKE2D VISIBLE LINES
100
AcDbVertex
100
AcDb2dVertex
 10
-1238.467497531034
 20
5601.316406249999
 30
0.0
  0
SEQEND
  5
235
330
231
100
AcDbEntity
  8
MAKE2D VISIBLE LINES
  0
POLYLINE
  5
236
330
1F
100
AcDbEntity
  8
MAKE2D VISIBLE LINES
100
AcDb2dPolyline
 66
     1
 10
0.0
 20
0.0
 30
0.0
  0
VERTEX
  5
237
330
236
100
AcDbEntity
  8
MAKE2D VISIBLE LINES
100
AcDbVertex
100
AcDb2dVertex
 10
-1222.999999346355
 20
5159.316359364746
 30
0.0
  0
VERTEX
  5
238
330
236
100
AcDbEntity
  8
MAKE2D VISIBLE LINES
100
AcDbVertex
100
AcDb2dVertex
 10
-1177.999972398305
 20
5159.316359364746
 30
0.0
 42
-0.4142530093041997
  0
VERTEX
  5
239
330
236
100
AcDbEntity
  8
MAKE2D VISIBLE LINES
100
AcDbVertex
100
AcDb2dVertex
 10
-1177.000017078268
 20
5158.31635936461
 30
0.0
 42
-0.4142431305733382
  0
VERTEX
  5
23A
330
236
100
AcDbEntity
  8
MAKE2D VISIBLE LINES
100
AcDbVertex
100
AcDb2dVertex
 10
-1176.000038389226
 20
5159.316382807236
 30
0.0
  0
VERTEX
  5
23B
330
236
100
AcDbEntity
  8
MAKE2D VISIBLE LINES
100
AcDbVertex
100
AcDb2dVertex
 10
-1137.869873377704
 20
5159.312140125849
 30
0.0
 42
-0.3748420136435682
  0
VERTEX
  5
23C
330
236
100
AcDbEntity
  8
MAKE2D VISIBLE LINES
100
AcDbVertex
100
AcDb2dVertex
 10
-1136.999884741182
 20
5158.316359364471
 30
0.0
  0
VERTEX
  5
23D
330
236
100
AcDbEntity
  8
MAKE2D VISIBLE LINES
100
AcDbVertex
100
AcDb2dVertex
 10
-1136.999704332388
 20
5124.316359364471
 30
0.0
 42
-0.414216675759456
  0
VERTEX
  5
23E
330
236
100
AcDbEntity
  8
MAKE2D VISIBLE LINES
100
AcDbVertex
100
AcDb2dVertex
 10
-1137.999249406354
 20
5123.316359405108
 30
0.0
  0
VERTEX
  5
23F
330
236
100
AcDbEntity
  8
MAKE2D VISIBLE LINES
100
AcDbVertex
100
AcDb2dVertex
 10
-1164.000716563581
 20
5123.316359415194
 30
0.0
 42
-0.414190430641193
  0
VERTEX
  5
240
330
236
100
AcDbEntity
  8
MAKE2D VISIBLE LINES
100
AcDbVertex
100
AcDb2dVertex
 10
-1165.000264615651
 20
5124.316359364471
 30
0.0
  0
VERTEX
  5
241
330
236
100
AcDbEntity
  8
MAKE2D VISIBLE LINES
100
AcDbVertex
100
AcDb2dVertex
 10
-1165.0
 20
5127.316359364471
 30
0.0
  0
SEQEND
  5
242
330
236
100
AcDbEntity
  8
MAKE2D VISIBLE LINES
  0
POLYLINE
  5
243
330
1F
100
AcDbEntity
  8
MAKE2D VISIBLE LINES
100
AcDb2dPolyline
 66
     1
 10
0.0
 20
0.0
 30
0.0
  0
VERTEX
  5
244
330
243
100
AcDbEntity
  8
MAKE2D VISIBLE LINES
100
AcDbVertex
100
AcDb2dVertex
 10
-1239.0
 20
5603.316359364471
 30
0.0
  0
VERTEX
  5
245
330
243
100
AcDbEntity
  8
MAKE2D VISIBLE LINES
100
AcDbVertex
100
AcDb2dVertex
 10
-1239.000000001996
 20
5501.315608223851
 30
0.0
 42
0.0443414636510685
  0
VERTEX
  5
246
330
243
100
AcDbEntity
  8
MAKE2D VISIBLE LINES
100
AcDbVertex
100
AcDb2dVertex
 10
-1240.872446247778
 20
5498.29384400111
 30
0.0
  0
SEQEND
  5
247
330
243
100
AcDbEntity
  8
MAKE2D VISIBLE LINES
  0
POLYLINE
  5
248
330
1F
100
AcDbEntity
  8
MAKE2D VISIBLE LINES
100
AcDb2dPolyline
 66
     1
 10
0.0
 20
0.0
 30
0.0
  0
VERTEX
  5
249
330
248
100
AcDbEntity
  8
MAKE2D VISIBLE LINES
100
AcDbVertex
100
AcDb2dVertex
 10
-1239.0
 20
5613.316359364469
 30
0.0
  0
VERTEX
  5
24A
330
248
100
AcDbEntity
  8
MAKE2D VISIBLE LINES
100
AcDbVertex
100
AcDb2dVertex
 10
-1239.000003698025
 20
5743.326280721761
 30
0.0
 42
-1.000121823183176
  0
VERTEX
  5
24B
330
248
100
AcDbEntity
  8
MAKE2D VISIBLE LINES
100
AcDbVertex
100
AcDb2dVertex
 10
-1206.99999792703
 20
5743.321992472418
 30
0.0
  0
VERTEX
  5
24C
330
248
100
AcDbEntity
  8
MAKE2D VISIBLE LINES
100
AcDbVertex
100
AcDb2dVertex
 10
-1206.999697582112
 20
5654.316358949946
 30
0.0
 42
-0.4142270993174663
  0
VERTEX
  5
24D
330
248
100
AcDbEntity
  8
MAKE2D VISIBLE LINES
100
AcDbVertex
100
AcDb2dVertex
 10
-1208.001821057878
 20
5653.316359399481
 30
0.0
  0
VERTEX
  5
24E
330
248
100
AcDbEntity
  8
MAKE2D VISIBLE LINES
100
AcDbVertex
100
AcDb2dVertex
 10
-1237.998260802778
 20
5653.316359406759
 30
0.0
 42
-0.4140915513604379
  0
VERTEX
  5
24F
330
248
100
AcDbEntity
  8
MAKE2D VISIBLE LINES
100
AcDbVertex
100
AcDb2dVertex
 10
-1239.00067581169
 20
5654.316359364474
 30
0.0
  0
SEQEND
  5
250
330
248
100
AcDbEntity
  8
MAKE2D VISIBLE LINES
  0
LINE
  5
251
330
1F
100
AcDbEntity
  8
MAKE2D VISIBLE LINES
100
AcDbLine
 10
-1207.0
 20
5654.204063844129
 30
0.0
 11
-1207.0
 21
5613.316359364469
 31
0.0
  0
POLYLINE
  5
252
330
1F
100
AcDbEntity
  8
MAKE2D VISIBLE LINES
100
AcDb2dPolyline
 66
     1
 10
0.0
 20
0.0
 30
0.0
  0
VERTEX
  5
253
330
252
100
AcDbEntity
  8
MAKE2D VISIBLE LINES
100
AcDbVertex
100
AcDb2dVertex
 10
-1223.000001543319
 20
5127.316359364471
 30
0.0
  0
VERTEX
  5
254
330
252
100
AcDbEntity
  8
MAKE2D VISIBLE LINES
100
AcDbVertex
100
AcDb2dVertex
 10
-1243.0
 20
5127.316359364288
 30
0.0
  0
VERTEX
  5
255
330
252
100
AcDbEntity
  8
MAKE2D VISIBLE LINES
100
AcDbVertex
100
AcDb2dVertex
 10
-1242.999725238824
 20
5158.316359364948
 30
0.0
 42
-0.4139685316602764
  0
VERTEX
  5
256
330
252
100
AcDbEntity
  8
MAKE2D VISIBLE LINES
100
AcDbVertex
100
AcDb2dVertex
 10
-1241.999621766013
 20
5159.316359340217
 30
0.0
  0
VERTEX
  5
257
330
252
100
AcDbEntity
  8
MAKE2D VISIBLE LINES
100
AcDbVertex
100
AcDb2dVertex
 10
-1222.999999999908
 20
5159.316359364746
 30
0.0
  0
VERTEX
  5
258
330
252
100
AcDbEntity
  8
MAKE2D VISIBLE LINES
100
AcDbVertex
100
AcDb2dVertex
 10
-1223.0
 20
5127.316359364471
 30
0.0
  0
VERTEX
  5
259
330
252
100
AcDbEntity
  8
MAKE2D VISIBLE LINES
100
AcDbVertex
100
AcDb2dVertex
 10
-1180.0
 20
5127.316359364471
 30
0.0
  0
SEQEND
  5
25A
330
252
100
AcDbEntity
  8
MAKE2D VISIBLE LINES
  0
POLYLINE
  5
25B
330
1F
100
AcDbEntity
  8
MAKE2D VISIBLE LINES
100
AcDb2dPolyline
 66
     1
 10
0.0
 20
0.0
 30
0.0
  0
VERTEX
  5
25C
330
25B
100
AcDbEntity
  8
MAKE2D VISIBLE LINES
100
AcDbVertex
100
AcDb2dVertex
 10
-1125.089931167427
 20
4688.921422422565
 30
0.0
 42
-0.1297692048811945
  0
VERTEX
  5
25D
330
25B
100
AcDbEntity
  8
MAKE2D VISIBLE LINES
100
AcDbVertex
100
AcDb2dVertex
 10
-1120.035219904215
 20
4672.864490965601
 30
0.0
 42
-0.1622356889391876
  0
VERTEX
  5
25E
330
25B
100
AcDbEntity
  8
MAKE2D VISIBLE LINES
100
AcDbVertex
100
AcDb2dVertex
 10
-1125.705770298226
 20
4652.769705913935
 30
0.0
 42
-0.0975181645761326
  0
VERTEX
  5
25F
330
25B
100
AcDbEntity
  8
MAKE2D VISIBLE LINES
100
AcDbVertex
100
AcDb2dVertex
 10
-1134.741772043943
 20
4643.828911028977
 30
0.0
  0
SEQEND
  5
260
330
25B
100
AcDbEntity
  8
MAKE2D VISIBLE LINES
  0
POLYLINE
  5
261
330
1F
100
AcDbEntity
  8
MAKE2D VISIBLE LINES
100
AcDb2dPolyline
 66
     1
 10
0.0
 20
0.0
 30
0.0
  0
VERTEX
  5
262
330
261
100
AcDbEntity
  8
MAKE2D VISIBLE LINES
100
AcDbVertex
100
AcDb2dVertex
 10
-1167.000000000069
 20
5164.316359364471
 30
0.0
  0
VERTEX
  5
263
330
261
100
AcDbEntity
  8
MAKE2D VISIBLE LINES
100
AcDbVertex
100
AcDb2dVertex
 10
-1136.999360097563
 20
5164.316358703974
 30
0.0
 42
-0.4135044977628118
  0
VERTEX
  5
264
330
261
100
AcDbEntity
  8
MAKE2D VISIBLE LINES
100
AcDbVertex
100
AcDb2dVertex
 10
-1136.000518058587
 20
5163.316359364471
 30
0.0
  0
VERTEX
  5
265
330
261
100
AcDbEntity
  8
MAKE2D VISIBLE LINES
100
AcDbVertex
100
AcDb2dVertex
 10
-1135.999636708168
 20
5160.31635936442
 30
0.0
 42
-0.4142343427379168
  0
VERTEX
  5
266
330
261
100
AcDbEntity
  8
MAKE2D VISIBLE LINES
100
AcDbVertex
100
AcDb2dVertex
 10
-1136.998930432226
 20
5159.31635944746
 30
0.0
  0
SEQEND
  5
267
330
261
100
AcDbEntity
  8
MAKE2D VISIBLE LINES
  0
POLYLINE
  5
268
330
1F
100
AcDbEntity
  8
MAKE2D VISIBLE LINES
100
AcDb2dPolyline
 66
     1
 10
0.0
 20
0.0
 30
0.0
  0
VERTEX
  5
269
330
268
100
AcDbEntity
  8
MAKE2D VISIBLE LINES
100
AcDbVertex
100
AcDb2dVertex
 10
-1223.0
 20
5603.316359364471
 30
0.0
  0
VERTEX
  5
26A
330
268
100
AcDbEntity
  8
MAKE2D VISIBLE LINES
100
AcDbVertex
100
AcDb2dVertex
 10
-1321.998059641685
 20
5603.316361602991
 30
0.0
 42
-0.3202340587071891
  0
VERTEX
  5
26B
330
268
100
AcDbEntity
  8
MAKE2D VISIBLE LINES
100
AcDbVertex
100
AcDb2dVertex
 10
-1323.000307857292
 20
5603.816359364471
 30
0.0
  0
VERTEX
  5
26C
330
268
100
AcDbEntity
  8
MAKE2D VISIBLE LINES
100
AcDbVertex
100
AcDb2dVertex
 10
-1323.000047553118
 20
5612.816359364471
 30
0.0
 42
-0.3199325509319885
  0
VERTEX
  5
26D
330
268
100
AcDbEntity
  8
MAKE2D VISIBLE LINES
100
AcDbVertex
100
AcDb2dVertex
 10
-1321.998232141895
 20
5613.316355508578
 30
0.0
  0
VERTEX
  5
26E
330
268
100
AcDbEntity
  8
MAKE2D VISIBLE LINES
100
AcDbVertex
100
AcDb2dVertex
 10
-1124.003785574462
 20
5613.316359327834
 30
0.0
 42
-0.3200942565348159
  0
VERTEX
  5
26F
330
268
100
AcDbEntity
  8
MAKE2D VISIBLE LINES
100
AcDbVertex
100
AcDb2dVertex
 10
-1122.999692142708
 20
5612.816359364471
 30
0.0
  0
VERTEX
  5
270
330
268
100
AcDbEntity
  8
MAKE2D VISIBLE LINES
100
AcDbVertex
100
AcDb2dVertex
 10
-1122.999952446882
 20
5603.816359364471
 30
0.0
 42
-0.3199323991337186
  0
VERTEX
  5
271
330
268
100
AcDbEntity
  8
MAKE2D VISIBLE LINES
100
AcDbVertex
100
AcDb2dVertex
 10
-1124.001769822012
 20
5603.316363214914
 30
0.0
  0
VERTEX
  5
272
330
268
100
AcDbEntity
  8
MAKE2D VISIBLE LINES
100
AcDbVertex
100
AcDb2dVertex
 10
-1223.0
 20
5603.316359364471
 30
0.0
  0
SEQEND
  5
273
330
268
100
AcDbEntity
  8
MAKE2D VISIBLE LINES
  0
POLYLINE
  5
274
330
1F
100
AcDbEntity
  8
MAKE2D VISIBLE LINES
100
AcDb2dPolyline
 66
     1
 10
0.0
 20
0.0
 30
0.0
  0
VERTEX
  5
275
330
274
100
AcDbEntity
  8
MAKE2D VISIBLE LINES
100
AcDbVertex
100
AcDb2dVertex
 10
-1240.871755258681
 20
5480.339461579108
 30
0.0
 42
0.0442426569003798
  0
VERTEX
  5
276
330
274
100
AcDbEntity
  8
MAKE2D VISIBLE LINES
100
AcDbVertex
100
AcDb2dVertex
 10
-1239.0
 20
5477.316539319228
 30
0.0
  0
VERTEX
  5
277
330
274
100
AcDbEntity
  8
MAKE2D VISIBLE LINES
100
AcDbVertex
100
AcDb2dVertex
 10
-1239.0
 20
5159.316359364746
 30
0.0
  0
SEQEND
  5
278
330
274
100
AcDbEntity
  8
MAKE2D VISIBLE LINES
  0
POLYLINE
  5
279
330
1F
100
AcDbEntity
  8
MAKE2D VISIBLE LINES
100
AcDb2dPolyline
 66
     1
 10
0.0
 20
0.0
 30
0.0
  0
VERTEX
  5
27A
330
279
100
AcDbEntity
  8
MAKE2D VISIBLE LINES
100
AcDbVertex
100
AcDb2dVertex
 10
-1162.05340048921
 20
5123.31635936447
 30
0.0
  0
VERTEX
  5
27B
330
279
100
AcDbEntity
  8
MAKE2D VISIBLE LINES
100
AcDbVertex
100
AcDb2dVertex
 10
-1162.289381423745
 20
5054.591765106967
 30
0.0
  0
VERTEX
  5
27C
330
279
100
AcDbEntity
  8
MAKE2D VISIBLE LINES
100
AcDbVertex
100
AcDb2dVertex
 10
-1161.757136443895
 20
5026.542403144462
 30
0.0
  0
VERTEX
  5
27D
330
279
100
AcDbEntity
  8
MAKE2D VISIBLE LINES
100
AcDbVertex
100
AcDb2dVertex
 10
-1160.692429773092
 20
4998.509262056997
 30
0.0
  0
VERTEX
  5
27E
330
279
100
AcDbEntity
  8
MAKE2D VISIBLE LINES
100
AcDbVertex
100
AcDb2dVertex
 10
-1159.146270479943
 20
4972.685752857122
 30
0.0
  0
VERTEX
  5
27F
330
279
100
AcDbEntity
  8
MAKE2D VISIBLE LINES
100
AcDbVertex
100
AcDb2dVertex
 10
-1156.98195280328
 20
4946.906800795376
 30
0.0
  0
VERTEX
  5
280
330
279
100
AcDbEntity
  8
MAKE2D VISIBLE LINES
100
AcDbVertex
100
AcDb2dVertex
 10
-1154.39266681246
 20
4923.375058354422
 30
0.0
  0
VERTEX
  5
281
330
279
100
AcDbEntity
  8
MAKE2D VISIBLE LINES
100
AcDbVertex
100
AcDb2dVertex
 10
-1151.135392076386
 20
4899.928069076403
 30
0.0
  0
VERTEX
  5
282
330
279
100
AcDbEntity
  8
MAKE2D VISIBLE LINES
100
AcDbVertex
100
AcDb2dVertex
 10
-1147.84244656061
 20
4880.373790606143
 30
0.0
  0
VERTEX
  5
283
330
279
100
AcDbEntity
  8
MAKE2D VISIBLE LINES
100
AcDbVertex
100
AcDb2dVertex
 10
-1144.05615629722
 20
4860.908326283144
 30
0.0
  0
VERTEX
  5
284
330
279
100
AcDbEntity
  8
MAKE2D VISIBLE LINES
100
AcDbVertex
100
AcDb2dVertex
 10
-1139.447230108099
 20
4839.918200841202
 30
0.0
  0
VERTEX
  5
285
330
279
100
AcDbEntity
  8
MAKE2D VISIBLE LINES
100
AcDbVertex
100
AcDb2dVertex
 10
-1134.393337998951
 20
4819.03002480433
 30
0.0
  0
VERTEX
  5
286
330
279
100
AcDbEntity
  8
MAKE2D VISIBLE LINES
100
AcDbVertex
100
AcDb2dVertex
 10
-1117.547301932404
 20
4757.337012507631
 30
0.0
  0
VERTEX
  5
287
330
279
100
AcDbEntity
  8
MAKE2D VISIBLE LINES
100
AcDbVertex
100
AcDb2dVertex
 10
-1099.554766950911
 20
4694.739893599875
 30
0.0
  0
VERTEX
  5
288
330
279
100
AcDbEntity
  8
MAKE2D VISIBLE LINES
100
AcDbVertex
100
AcDb2dVertex
 10
-1094.626432552467
 20
4676.073431359436
 30
0.0
  0
VERTEX
  5
289
330
279
100
AcDbEntity
  8
MAKE2D VISIBLE LINES
100
AcDbVertex
100
AcDb2dVertex
 10
-1090.638634199159
 20
4659.448357213157
 30
0.0
  0
VERTEX
  5
28A
330
279
100
AcDbEntity
  8
MAKE2D VISIBLE LINES
100
AcDbVertex
100
AcDb2dVertex
 10
-1086.329940794282
 20
4638.943469229374
 30
0.0
  0
VERTEX
  5
28B
330
279
100
AcDbEntity
  8
MAKE2D VISIBLE LINES
100
AcDbVertex
100
AcDb2dVertex
 10
-1082.80022970396
 20
4618.850957744846
 30
0.0
  0
VERTEX
  5
28C
330
279
100
AcDbEntity
  8
MAKE2D VISIBLE LINES
100
AcDbVertex
100
AcDb2dVertex
 10
-1079.769831868822
 20
4597.570302023435
 30
0.0
  0
VERTEX
  5
28D
330
279
100
AcDbEntity
  8
MAKE2D VISIBLE LINES
100
AcDbVertex
100
AcDb2dVertex
 10
-1075.951193517467
 20
4562.496078796619
 30
0.0
  0
VERTEX
  5
28E
330
279
100
AcDbEntity
  8
MAKE2D VISIBLE LINES
100
AcDbVertex
100
AcDb2dVertex
 10
-1071.234976706618
 20
4505.285533015262
 30
0.0
  0
VERTEX
  5
28F
330
279
100
AcDbEntity
  8
MAKE2D VISIBLE LINES
100
AcDbVertex
100
AcDb2dVertex
 10
-1066.795696493472
 20
4430.278241693943
 30
0.0
  0
VERTEX
  5
290
330
279
100
AcDbEntity
  8
MAKE2D VISIBLE LINES
100
AcDbVertex
100
AcDb2dVertex
 10
-1064.479871310476
 20
4361.768548389803
 30
0.0
  0
VERTEX
  5
291
330
279
100
AcDbEntity
  8
MAKE2D VISIBLE LINES
100
AcDbVertex
100
AcDb2dVertex
 10
-1064.070127649169
 20
4293.223034394553
 30
0.0
  0
VERTEX
  5
292
330
279
100
AcDbEntity
  8
MAKE2D VISIBLE LINES
100
AcDbVertex
100
AcDb2dVertex
 10
-1065.569978074775
 20
4231.857422122641
 30
0.0
  0
VERTEX
  5
293
330
279
100
AcDbEntity
  8
MAKE2D VISIBLE LINES
100
AcDbVertex
100
AcDb2dVertex
 10
-1067.087482056541
 20
4201.204158186889
 30
0.0
  0
VERTEX
  5
294
330
279
100
AcDbEntity
  8
MAKE2D VISIBLE LINES
100
AcDbVertex
100
AcDb2dVertex
 10
-1069.177129997892
 20
4170.585413684653
 30
0.0
  0
VERTEX
  5
295
330
279
100
AcDbEntity
  8
MAKE2D VISIBLE LINES
100
AcDbVertex
100
AcDb2dVertex
 10
-1071.616581428212
 20
4142.774482785049
 30
0.0
  0
VERTEX
  5
296
330
279
100
AcDbEntity
  8
MAKE2D VISIBLE LINES
100
AcDbVertex
100
AcDb2dVertex
 10
-1074.622307224016
 20
4115.018621245265
 30
0.0
  0
VERTEX
  5
297
330
279
100
AcDbEntity
  8
MAKE2D VISIBLE LINES
100
AcDbVertex
100
AcDb2dVertex
 10
-1077.979281784586
 20
4089.267230820681
 30
0.0
  0
VERTEX
  5
298
330
279
100
AcDbEntity
  8
MAKE2D VISIBLE LINES
100
AcDbVertex
100
AcDb2dVertex
 10
-1081.944037137143
 20
4063.603479292454
 30
0.0
  0
VERTEX
  5
299
330
279
100
AcDbEntity
  8
MAKE2D VISIBLE LINES
100
AcDbVertex
100
AcDb2dVertex
 10
-1086.373081241908
 20
4039.157564330412
 30
0.0
  0
VERTEX
  5
29A
330
279
100
AcDbEntity
  8
MAKE2D VISIBLE LINES
100
AcDbVertex
100
AcDb2dVertex
 10
-1091.498644133737
 20
4014.84842649347
 30
0.0
  0
VERTEX
  5
29B
330
279
100
AcDbEntity
  8
MAKE2D VISIBLE LINES
100
AcDbVertex
100
AcDb2dVertex
 10
-1096.808795318128
 20
3993.013355690564
 30
0.0
  0
VERTEX
  5
29C
330
279
100
AcDbEntity
  8
MAKE2D VISIBLE LINES
100
AcDbVertex
100
AcDb2dVertex
 10
-1099.738836249194
 20
3982.166831742695
 30
0.0
  0
VERTEX
  5
29D
330
279
100
AcDbEntity
  8
MAKE2D VISIBLE LINES
100
AcDbVertex
100
AcDb2dVertex
 10
-1102.872407577184
 20
3971.377635664071
 30
0.0
  0
VERTEX
  5
29E
330
279
100
AcDbEntity
  8
MAKE2D VISIBLE LINES
100
AcDbVertex
100
AcDb2dVertex
 10
-1105.987300857556
 20
3961.387485625974
 30
0.0
  0
VERTEX
  5
29F
330
279
100
AcDbEntity
  8
MAKE2D VISIBLE LINES
100
AcDbVertex
100
AcDb2dVertex
 10
-1109.304071276414
 20
3951.462399363883
 30
0.0
  0
VERTEX
  5
2A0
330
279
100
AcDbEntity
  8
MAKE2D VISIBLE LINES
100
AcDbVertex
100
AcDb2dVertex
 10
-1112.642282538338
 20
3942.136308125059
 30
0.0
  0
VERTEX
  5
2A1
330
279
100
AcDbEntity
  8
MAKE2D VISIBLE LINES
100
AcDbVertex
100
AcDb2dVertex
 10
-1116.192339479886
 20
3932.889067826263
 30
0.0
  0
VERTEX
  5
2A2
330
279
100
AcDbEntity
  8
MAKE2D VISIBLE LINES
100
AcDbVertex
100
AcDb2dVertex
 10
-1119.702084930267
 20
3924.372858931932
 30
0.0
  0
VERTEX
  5
2A3
330
279
100
AcDbEntity
  8
MAKE2D VISIBLE LINES
100
AcDbVertex
100
AcDb2dVertex
 10
-1123.433763011938
 20
3915.95177010908
 30
0.0
  0
VERTEX
  5
2A4
330
279
100
AcDbEntity
  8
MAKE2D VISIBLE LINES
100
AcDbVertex
100
AcDb2dVertex
 10
-1127.068237349606
 20
3908.331106278592
 30
0.0
  0
VERTEX
  5
2A5
330
279
100
AcDbEntity
  8
MAKE2D VISIBLE LINES
100
AcDbVertex
100
AcDb2dVertex
 10
-1130.928000456563
 20
3900.822337719478
 30
0.0
  0
VERTEX
  5
2A6
330
279
100
AcDbEntity
  8
MAKE2D VISIBLE LINES
100
AcDbVertex
100
AcDb2dVertex
 10
-1134.825026777286
 20
3893.808725870862
 30
0.0
  0
VERTEX
  5
2A7
330
279
100
AcDbEntity
  8
MAKE2D VISIBLE LINES
100
AcDbVertex
100
AcDb2dVertex
 10
-1136.864705488134
 20
3890.354152207517
 30
0.0
  0
VERTEX
  5
2A8
330
279
100
AcDbEntity
  8
MAKE2D VISIBLE LINES
100
AcDbVertex
100
AcDb2dVertex
 10
-1138.969325091113
 20
3886.938699976049
 30
0.0
  0
VERTEX
  5
2A9
330
279
100
AcDbEntity
  8
MAKE2D VISIBLE LINES
100
AcDbVertex
100
AcDb2dVertex
 10
-1140.933668664528
 20
3883.883172987502
 30
0.0
  0
VERTEX
  5
2AA
330
279
100
AcDbEntity
  8
MAKE2D VISIBLE LINES
100
AcDbVertex
100
AcDb2dVertex
 10
-1142.957465216196
 20
3880.866803618366
 30
0.0
  0
VERTEX
  5
2AB
330
279
100
AcDbEntity
  8
MAKE2D VISIBLE LINES
100
AcDbVertex
100
AcDb2dVertex
 10
-1145.044374047526
 20
3877.894037049642
 30
0.0
  0
VERTEX
  5
2AC
330
279
100
AcDbEntity
  8
MAKE2D VISIBLE LINES
100
AcDbVertex
100
AcDb2dVertex
 10
-1147.198054459927
 20
3874.969318462331
 30
0.0
  0
VERTEX
  5
2AD
330
279
100
AcDbEntity
  8
MAKE2D VISIBLE LINES
100
AcDbVertex
100
AcDb2dVertex
 10
-1149.216835442936
 20
3872.356604666305
 30
0.0
  0
VERTEX
  5
2AE
330
279
100
AcDbEntity
  8
MAKE2D VISIBLE LINES
100
AcDbVertex
100
AcDb2dVertex
 10
-1151.297249644259
 20
3869.792845045657
 30
0.0
  0
VERTEX
  5
2AF
330
279
100
AcDbEntity
  8
MAKE2D VISIBLE LINES
100
AcDbVertex
100
AcDb2dVertex
 10
-1153.442736977418
 20
3867.283621458218
 30
0.0
  0
VERTEX
  5
2B0
330
279
100
AcDbEntity
  8
MAKE2D VISIBLE LINES
100
AcDbVertex
100
AcDb2dVertex
 10
-1155.656737355934
 20
3864.834515761822
 30
0.0
  0
VERTEX
  5
2B1
330
279
100
AcDbEntity
  8
MAKE2D VISIBLE LINES
100
AcDbVertex
100
AcDb2dVertex
 10
-1157.72494599561
 20
3862.672559800742
 30
0.0
  0
VERTEX
  5
2B2
330
279
100
AcDbEntity
  8
MAKE2D VISIBLE LINES
100
AcDbVertex
100
AcDb2dVertex
 10
-1159.855327631189
 20
3860.572076715842
 30
0.0
  0
VERTEX
  5
2B3
330
279
100
AcDbEntity
  8
MAKE2D VISIBLE LINES
100
AcDbVertex
100
AcDb2dVertex
 10
-1162.05098232503
 20
3858.540600296438
 30
0.0
  0
VERTEX
  5
2B4
330
279
100
AcDbEntity
  8
MAKE2D VISIBLE LINES
100
AcDbVertex
100
AcDb2dVertex
 10
-1163.174255838286
 20
3857.553093895459
 30
0.0
  0
VERTEX
  5
2B5
330
279
100
AcDbEntity
  8
MAKE2D VISIBLE LINES
100
AcDbVertex
100
AcDb2dVertex
 10
-1164.315010139493
 20
3856.585664331846
 30
0.0
  0
VERTEX
  5
2B6
330
279
100
AcDbEntity
  8
MAKE2D VISIBLE LINES
100
AcDbVertex
100
AcDb2dVertex
 10
-1166.402176686173
 20
3854.9072534438
 30
0.0
  0
VERTEX
  5
2B7
330
279
100
AcDbEntity
  8
MAKE2D VISIBLE LINES
100
AcDbVertex
100
AcDb2dVertex
 10
-1167.467687335035
 20
3854.096040291999
 30
0.0
  0
VERTEX
  5
2B8
330
279
100
AcDbEntity
  8
MAKE2D VISIBLE LINES
100
AcDbVertex
100
AcDb2dVertex
 10
-1168.54805533154
 20
3853.30494272837
 30
0.0
  0
VERTEX
  5
2B9
330
279
100
AcDbEntity
  8
MAKE2D VISIBLE LINES
100
AcDbVertex
100
AcDb2dVertex
 10
-1169.643459998658
 20
3852.535051297934
 30
0.0
  0
VERTEX
  5
2BA
330
279
100
AcDbEntity
  8
MAKE2D VISIBLE LINES
100
AcDbVertex
100
AcDb2dVertex
 10
-1170.754080659359
 20
3851.787456545708
 30
0.0
  0
VERTEX
  5
2BB
330
279
100
AcDbEntity
  8
MAKE2D VISIBLE LINES
100
AcDbVertex
100
AcDb2dVertex
 10
-1171.880096636613
 20
3851.063249016712
 30
0.0
  0
VERTEX
  5
2BC
330
279
100
AcDbEntity
  8
MAKE2D VISIBLE LINES
100
AcDbVertex
100
AcDb2dVertex
 10
-1173.021687253392
 20
3850.363519255964
 30
0.0
  0
VERTEX
  5
2BD
330
279
100
AcDbEntity
  8
MAKE2D VISIBLE LINES
100
AcDbVertex
100
AcDb2dVertex
 10
-1174.077378171371
 20
3849.747185898705
 30
0.0
  0
VERTEX
  5
2BE
330
279
100
AcDbEntity
  8
MAKE2D VISIBLE LINES
100
AcDbVertex
100
AcDb2dVertex
 10
-1175.146006916334
 20
3849.153338989356
 30
0.0
  0
VERTEX
  5
2BF
330
279
100
AcDbEntity
  8
MAKE2D VISIBLE LINES
100
AcDbVertex
100
AcDb2dVertex
 10
-1176.227386233104
 20
3848.583163273963
 30
0.0
  0
VERTEX
  5
2C0
330
279
100
AcDbEntity
  8
MAKE2D VISIBLE LINES
100
AcDbVertex
100
AcDb2dVertex
 10
-1177.321328866508
 20
3848.03784349857
 30
0.0
  0
VERTEX
  5
2C1
330
279
100
AcDbEntity
  8
MAKE2D VISIBLE LINES
100
AcDbVertex
100
AcDb2dVertex
 10
-1178.427647561369
 20
3847.518564409221
 30
0.0
  0
VERTEX
  5
2C2
330
279
100
AcDbEntity
  8
MAKE2D VISIBLE LINES
100
AcDbVertex
100
AcDb2dVertex
 10
-1179.546155062514
 20
3847.02651075196
 30
0.0
  0
VERTEX
  5
2C3
330
279
100
AcDbEntity
  8
MAKE2D VISIBLE LINES
100
AcDbVertex
100
AcDb2dVertex
 10
-1180.676664114766
 20
3846.562867272834
 30
0.0
  0
VERTEX
  5
2C4
330
279
100
AcDbEntity
  8
MAKE2D VISIBLE LINES
100
AcDbVertex
100
AcDb2dVertex
 10
-1181.818987462952
 20
3846.128818717884
 30
0.0
  0
VERTEX
  5
2C5
330
279
100
AcDbEntity
  8
MAKE2D VISIBLE LINES
100
AcDbVertex
100
AcDb2dVertex
 10
-1182.891084074995
 20
3845.752933967513
 30
0.0
  0
VERTEX
  5
2C6
330
279
100
AcDbEntity
  8
MAKE2D VISIBLE LINES
100
AcDbVertex
100
AcDb2dVertex
 10
-1183.972546341701
 20
3845.40444344912
 30
0.0
  0
VERTEX
  5
2C7
330
279
100
AcDbEntity
  8
MAKE2D VISIBLE LINES
100
AcDbVertex
100
AcDb2dVertex
 10
-1185.06269515577
 20
3845.084150410181
 30
0.0
  0
VERTEX
  5
2C8
330
279
100
AcDbEntity
  8
MAKE2D VISIBLE LINES
100
AcDbVertex
100
AcDb2dVertex
 10
-1186.160851409904
 20
3844.792858098174
 30
0.0
  0
VERTEX
  5
2C9
330
279
100
AcDbEntity
  8
MAKE2D VISIBLE LINES
100
AcDbVertex
100
AcDb2dVertex
 10
-1187.266335996805
 20
3844.531369760574
 30
0.0
  0
VERTEX
  5
2CA
330
279
100
AcDbEntity
  8
MAKE2D VISIBLE LINES
100
AcDbVertex
100
AcDb2dVertex
 10
-1188.378469809174
 20
3844.300488644857
 30
0.0
  0
VERTEX
  5
2CB
330
279
100
AcDbEntity
  8
MAKE2D VISIBLE LINES
100
AcDbVertex
100
AcDb2dVertex
 10
-1189.496573739714
 20
3844.101017998498
 30
0.0
  0
VERTEX
  5
2CC
330
279
100
AcDbEntity
  8
MAKE2D VISIBLE LINES
100
AcDbVertex
100
AcDb2dVertex
 10
-1190.619968681124
 20
3843.933761068976
 30
0.0
  0
VERTEX
  5
2CD
330
279
100
AcDbEntity
  8
MAKE2D VISIBLE LINES
100
AcDbVertex
100
AcDb2dVertex
 10
-1191.718436431869
 20
3843.802472248118
 30
0.0
  0
VERTEX
  5
2CE
330
279
100
AcDbEntity
  8
MAKE2D VISIBLE LINES
100
AcDbVertex
100
AcDb2dVertex
 10
-1192.820338959394
 20
3843.702489039127
 30
0.0
  0
VERTEX
  5
2CF
330
279
100
AcDbEntity
  8
MAKE2D VISIBLE LINES
100
AcDbVertex
100
AcDb2dVertex
 10
-1193.924736682037
 20
3843.63380069299
 30
0.0
  0
VERTEX
  5
2D0
330
279
100
AcDbEntity
  8
MAKE2D VISIBLE LINES
100
AcDbVertex
100
AcDb2dVertex
 10
-1195.030690018134
 20
3843.596396460694
 30
0.0
  0
VERTEX
  5
2D1
330
279
100
AcDbEntity
  8
MAKE2D VISIBLE LINES
100
AcDbVertex
100
AcDb2dVertex
 10
-1196.137259386021
 20
3843.590265593223
 30
0.0
  0
VERTEX
  5
2D2
330
279
100
AcDbEntity
  8
MAKE2D VISIBLE LINES
100
AcDbVertex
100
AcDb2dVertex
 10
-1197.243505204037
 20
3843.615397341565
 30
0.0
  0
VERTEX
  5
2D3
330
279
100
AcDbEntity
  8
MAKE2D VISIBLE LINES
100
AcDbVertex
100
AcDb2dVertex
 10
-1198.348487890517
 20
3843.671780956706
 30
0.0
  0
VERTEX
  5
2D4
330
279
100
AcDbEntity
  8
MAKE2D VISIBLE LINES
100
AcDbVertex
100
AcDb2dVertex
 10
-1199.451267863798
 20
3843.759405689632
 30
0.0
  0
VERTEX
  5
2D5
330
279
100
AcDbEntity
  8
MAKE2D VISIBLE LINES
100
AcDbVertex
100
AcDb2dVertex
 10
-1200.638385422918
 20
3843.888910012541
 30
0.0
  0
VERTEX
  5
2D6
330
279
100
AcDbEntity
  8
MAKE2D VISIBLE LINES
100
AcDbVertex
100
AcDb2dVertex
 10
-1201.821071689706
 20
3844.0538521464
 30
0.0
  0
VERTEX
  5
2D7
330
279
100
AcDbEntity
  8
MAKE2D VISIBLE LINES
100
AcDbVertex
100
AcDb2dVertex
 10
-1202.998558094432
 20
3844.253267151105
 30
0.0
  0
VERTEX
  5
2D8
330
279
100
AcDbEntity
  8
MAKE2D VISIBLE LINES
100
AcDbVertex
100
AcDb2dVertex
 10
-1204.170076067368
 20
3844.486190086553
 30
0.0
  0
VERTEX
  5
2D9
330
279
100
AcDbEntity
  8
MAKE2D VISIBLE LINES
100
AcDbVertex
100
AcDb2dVertex
 10
-1205.334857038783
 20
3844.751656012639
 30
0.0
  0
VERTEX
  5
2DA
330
279
100
AcDbEntity
  8
MAKE2D VISIBLE LINES
100
AcDbVertex
100
AcDb2dVertex
 10
-1206.49213243895
 20
3845.04869998926
 30
0.0
  0
VERTEX
  5
2DB
330
279
100
AcDbEntity
  8
MAKE2D VISIBLE LINES
100
AcDbVertex
100
AcDb2dVertex
 10
-1207.641133698138
 20
3845.376357076311
 30
0.0
  0
VERTEX
  5
2DC
330
279
100
AcDbEntity
  8
MAKE2D VISIBLE LINES
100
AcDbVertex
100
AcDb2dVertex
 10
-1208.781092246619
 20
3845.73366233369
 30
0.0
  0
VERTEX
  5
2DD
330
279
100
AcDbEntity
  8
MAKE2D VISIBLE LINES
100
AcDbVertex
100
AcDb2dVertex
 10
-1209.995944263102
 20
3846.149802758127
 30
0.0
  0
VERTEX
  5
2DE
330
279
100
AcDbEntity
  8
MAKE2D VISIBLE LINES
100
AcDbVertex
100
AcDb2dVertex
 10
-1211.199225015201
 20
3846.597830378272
 30
0.0
  0
VERTEX
  5
2DF
330
279
100
AcDbEntity
  8
MAKE2D VISIBLE LINES
100
AcDbVertex
100
AcDb2dVertex
 10
-1212.390705894379
 20
3847.076472191106
 30
0.0
  0
VERTEX
  5
2E0
330
279
100
AcDbEntity
  8
MAKE2D VISIBLE LINES
100
AcDbVertex
100
AcDb2dVertex
 10
-1213.5701582921
 20
3847.584455193614
 30
0.0
  0
VERTEX
  5
2E1
330
279
100
AcDbEntity
  8
MAKE2D VISIBLE LINES
100
AcDbVertex
100
AcDb2dVertex
 10
-1214.737353599828
 20
3848.120506382779
 30
0.0
  0
VERTEX
  5
2E2
330
279
100
AcDbEntity
  8
MAKE2D VISIBLE LINES
100
AcDbVertex
100
AcDb2dVertex
 10
-1215.892063209026
 20
3848.683352755583
 30
0.0
  0
VERTEX
  5
2E3
330
279
100
AcDbEntity
  8
MAKE2D VISIBLE LINES
100
AcDbVertex
100
AcDb2dVertex
 10
-1217.034058511158
 20
3849.27172130901
 30
0.0
  0
VERTEX
  5
2E4
330
279
100
AcDbEntity
  8
MAKE2D VISIBLE LINES
100
AcDbVertex
100
AcDb2dVertex
 10
-1218.163110897686
 20
3849.884339040042
 30
0.0
  0
VERTEX
  5
2E5
330
279
100
AcDbEntity
  8
MAKE2D VISIBLE LINES
100
AcDbVertex
100
AcDb2dVertex
 10
-1219.393515469329
 20
3850.586900353238
 30
0.0
  0
VERTEX
  5
2E6
330
279
100
AcDbEntity
  8
MAKE2D VISIBLE LINES
100
AcDbVertex
100
AcDb2dVertex
 10
-1220.608032612179
 20
3851.316249140174
 30
0.0
  0
VERTEX
  5
2E7
330
279
100
AcDbEntity
  8
MAKE2D VISIBLE LINES
100
AcDbVertex
100
AcDb2dVertex
 10
-1221.806806576733
 20
3852.071207495766
 30
0.0
  0
VERTEX
  5
2E8
330
279
100
AcDbEntity
  8
MAKE2D VISIBLE LINES
100
AcDbVertex
100
AcDb2dVertex
 10
-1222.989981613487
 20
3852.850597514928
 30
0.0
  0
VERTEX
  5
2E9
330
279
100
AcDbEntity
  8
MAKE2D VISIBLE LINES
100
AcDbVertex
100
AcDb2dVertex
 10
-1224.157701972937
 20
3853.653241292575
 30
0.0
  0
VERTEX
  5
2EA
330
279
100
AcDbEntity
  8
MAKE2D VISIBLE LINES
100
AcDbVertex
100
AcDb2dVertex
 10
-1225.310111905579
 20
3854.477960923622
 30
0.0
  0
VERTEX
  5
2EB
330
279
100
AcDbEntity
  8
MAKE2D VISIBLE LINES
100
AcDbVertex
100
AcDb2dVertex
 10
-1226.447355661908
 20
3855.323578502983
 30
0.0
  0
VERTEX
  5
2EC
330
279
100
AcDbEntity
  8
MAKE2D VISIBLE LINES
100
AcDbVertex
100
AcDb2dVertex
 10
-1227.569577492422
 20
3856.188916125574
 30
0.0
  0
VERTEX
  5
2ED
330
279
100
AcDbEntity
  8
MAKE2D VISIBLE LINES
100
AcDbVertex
100
AcDb2dVertex
 10
-1228.791977505351
 20
3857.166426460639
 30
0.0
  0
VERTEX
  5
2EE
330
279
100
AcDbEntity
  8
MAKE2D VISIBLE LINES
100
AcDbVertex
100
AcDb2dVertex
 10
-1229.996553110376
 20
3858.165608307601
 30
0.0
  0
VERTEX
  5
2EF
330
279
100
AcDbEntity
  8
MAKE2D VISIBLE LINES
100
AcDbVertex
100
AcDb2dVertex
 10
-1232.353551944499
 20
3860.22516772783
 30
0.0
  0
VERTEX
  5
2F0
330
279
100
AcDbEntity
  8
MAKE2D VISIBLE LINES
100
AcDbVertex
100
AcDb2dVertex
 10
-1234.643215690377
 20
3862.359956767475
 30
0.0
  0
VERTEX
  5
2F1
330
279
100
AcDbEntity
  8
MAKE2D VISIBLE LINES
100
AcDbVertex
100
AcDb2dVertex
 10
-1236.868186043591
 20
3864.562337807753
 30
0.0
  0
VERTEX
  5
2F2
330
279
100
AcDbEntity
  8
MAKE2D VISIBLE LINES
100
AcDbVertex
100
AcDb2dVertex
 10
-1239.2451683803
 20
3867.055893859325
 30
0.0
  0
VERTEX
  5
2F3
330
279
100
AcDbEntity
  8
MAKE2D VISIBLE LINES
100
AcDbVertex
100
AcDb2dVertex
 10
-1241.550011728963
 20
3869.616234005825
 30
0.0
  0
VERTEX
  5
2F4
330
279
100
AcDbEntity
  8
MAKE2D VISIBLE LINES
100
AcDbVertex
100
AcDb2dVertex
 10
-1243.78573456438
 20
3872.237525162659
 30
0.0
  0
VERTEX
  5
2F5
330
279
100
AcDbEntity
  8
MAKE2D VISIBLE LINES
100
AcDbVertex
100
AcDb2dVertex
 10
-1245.955355361353
 20
3874.913934245233
 30
0.0
  0
VERTEX
  5
2F6
330
279
100
AcDbEntity
  8
MAKE2D VISIBLE LINES
100
AcDbVertex
100
AcDb2dVertex
 10
-1248.239592543276
 20
3877.876029137883
 30
0.0
  0
VERTEX
  5
2F7
330
279
100
AcDbEntity
  8
MAKE2D VISIBLE LINES
100
AcDbVertex
100
AcDb2dVertex
 10
-1250.452464716481
 20
3880.891791649112
 30
0.0
  0
VERTEX
  5
2F8
330
279
100
AcDbEntity
  8
MAKE2D VISIBLE LINES
100
AcDbVertex
100
AcDb2dVertex
 10
-1252.596976204055
 20
3883.956787405592
 30
0.0
  0
VERTEX
  5
2F9
330
279
100
AcDbEntity
  8
MAKE2D VISIBLE LINES
100
AcDbVertex
100
AcDb2dVertex
 10
-1254.676131329084
 20
3887.066582033997
 30
0.0
  0
VERTEX
  5
2FA
330
279
100
AcDbEntity
  8
MAKE2D VISIBLE LINES
100
AcDbVertex
100
AcDb2dVertex
 10
-1256.849480930097
 20
3890.467547237623
 30
0.0
  0
VERTEX
  5
2FB
330
279
100
AcDbEntity
  8
MAKE2D VISIBLE LINES
100
AcDbVertex
100
AcDb2dVertex
 10
-1258.952838687338
 20
3893.912218458332
 30
0.0
  0
VERTEX
  5
2FC
330
279
100
AcDbEntity
  8
MAKE2D VISIBLE LINES
100
AcDbVertex
100
AcDb2dVertex
 10
-1260.988804437854
 20
3897.397308434012
 30
0.0
  0
VERTEX
  5
2FD
330
279
100
AcDbEntity
  8
MAKE2D VISIBLE LINES
100
AcDbVertex
100
AcDb2dVertex
 10
-1262.959978018691
 20
3900.919529902552
 30
0.0
  0
VERTEX
  5
2FE
330
279
100
AcDbEntity
  8
MAKE2D VISIBLE LINES
100
AcDbVertex
100
AcDb2dVertex
 10
-1264.998257832573
 20
3904.722268346745
 30
0.0
  0
VERTEX
  5
2FF
330
279
100
AcDbEntity
  8
MAKE2D VISIBLE LINES
100
AcDbVertex
100
AcDb2dVertex
 10
-1266.967785003049
 20
3908.5610760075
 30
0.0
  0
VERTEX
  5
300
330
279
100
AcDbEntity
  8
MAKE2D VISIBLE LINES
100
AcDbVertex
100
AcDb2dVertex
 10
-1270.70984051859
 20
3916.336480110203
 30
0.0
  0
VERTEX
  5
301
330
279
100
AcDbEntity
  8
MAKE2D VISIBLE LINES
100
AcDbVertex
100
AcDb2dVertex
 10
-1274.366661627756
 20
3924.610391021496
 30
0.0
  0
VERTEX
  5
302
330
279
100
AcDbEntity
  8
MAKE2D VISIBLE LINES
100
AcDbVertex
100
AcDb2dVertex
 10
-1277.766672773716
 20
3932.99340789431
 30
0.0
  0
VERTEX
  5
303
330
279
100
AcDbEntity
  8
MAKE2D VISIBLE LINES
100
AcDbVertex
100
AcDb2dVertex
 10
-1281.039782245931
 20
3941.796380086783
 30
0.0
  0
VERTEX
  5
304
330
279
100
AcDbEntity
  8
MAKE2D VISIBLE LINES
100
AcDbVertex
100
AcDb2dVertex
 10
-1284.063152057657
 20
3950.688273602697
 30
0.0
  0
VERTEX
  5
305
330
279
100
AcDbEntity
  8
MAKE2D VISIBLE LINES
100
AcDbVertex
100
AcDb2dVertex
 10
-1286.945678381812
 20
3959.991382022939
 30
0.0
  0
VERTEX
  5
306
330
279
100
AcDbEntity
  8
MAKE2D VISIBLE LINES
100
AcDbVertex
100
AcDb2dVertex
 10
-1289.578461079573
 20
3969.368283823334
 30
0.0
  0
VERTEX
  5
307
330
279
100
AcDbEntity
  8
MAKE2D VISIBLE LINES
100
AcDbVertex
100
AcDb2dVertex
 10
-1291.968555084561
 20
3978.810457445482
 30
0.0
  0
VERTEX
  5
308
330
279
100
AcDbEntity
  8
MAKE2D VISIBLE LINES
100
AcDbVertex
100
AcDb2dVertex
 10
-1294.123015330396
 20
3988.309381330987
 30
0.0
  0
VERTEX
  5
309
330
279
100
AcDbEntity
  8
MAKE2D VISIBLE LINES
100
AcDbVertex
100
AcDb2dVertex
 10
-1296.099713800285
 20
3998.130869945344
 30
0.0
  0
VERTEX
  5
30A
330
279
100
AcDbEntity
  8
MAKE2D VISIBLE LINES
100
AcDbVertex
100
AcDb2dVertex
 10
-1297.836294621408
 20
4007.997439248033
 30
0.0
  0
VERTEX
  5
30B
330
279
100
AcDbEntity
  8
MAKE2D VISIBLE LINES
100
AcDbVertex
100
AcDb2dVertex
 10
-1299.334485971678
 20
4017.903141968022
 30
0.0
  0
VERTEX
  5
30C
330
279
100
AcDbEntity
  8
MAKE2D VISIBLE LINES
100
AcDbVertex
100
AcDb2dVertex
 10
-1300.59601602901
 20
4027.842030834281
 30
0.0
  0
VERTEX
  5
30D
330
279
100
AcDbEntity
  8
MAKE2D VISIBLE LINES
100
AcDbVertex
100
AcDb2dVertex
 10
-1301.640915159827
 20
4038.015728020486
 30
0.0
  0
VERTEX
  5
30E
330
279
100
AcDbEntity
  8
MAKE2D VISIBLE LINES
100
AcDbVertex
100
AcDb2dVertex
 10
-1302.439433441891
 20
4048.211691672195
 30
0.0
  0
VERTEX
  5
30F
330
279
100
AcDbEntity
  8
MAKE2D VISIBLE LINES
100
AcDbVertex
100
AcDb2dVertex
 10
-1302.989997641577
 20
4058.423804499455
 30
0.0
  0
VERTEX
  5
310
330
279
100
AcDbEntity
  8
MAKE2D VISIBLE LINES
100
AcDbVertex
100
AcDb2dVertex
 10
-1303.291034525258
 20
4068.645949212312
 30
0.0
  0
VERTEX
  5
311
330
279
100
AcDbEntity
  8
MAKE2D VISIBLE LINES
100
AcDbVertex
100
AcDb2dVertex
 10
-1303.323869577375
 20
4080.940402330155
 30
0.0
  0
VERTEX
  5
312
330
279
100
AcDbEntity
  8
MAKE2D VISIBLE LINES
100
AcDbVertex
100
AcDb2dVertex
 10
-1303.011834313064
 20
4093.231570874592
 30
0.0
  0
VERTEX
  5
313
330
279
100
AcDbEntity
  8
MAKE2D VISIBLE LINES
100
AcDbVertex
100
AcDb2dVertex
 10
-1302.33857588411
 20
4106.061161288421
 30
0.0
  0
VERTEX
  5
314
330
279
100
AcDbEntity
  8
MAKE2D VISIBLE LINES
100
AcDbVertex
100
AcDb2dVertex
 10
-1301.338738820524
 20
4118.869521226095
 30
0.0
  0
VERTEX
  5
315
330
279
100
AcDbEntity
  8
MAKE2D VISIBLE LINES
100
AcDbVertex
100
AcDb2dVertex
 10
-1299.893474970161
 20
4132.9510018924
 30
0.0
  0
VERTEX
  5
316
330
279
100
AcDbEntity
  8
MAKE2D VISIBLE LINES
100
AcDbVertex
100
AcDb2dVertex
 10
-1298.12006942837
 20
4146.995142563369
 30
0.0
  0
VERTEX
  5
317
330
279
100
AcDbEntity
  8
MAKE2D VISIBLE LINES
100
AcDbVertex
100
AcDb2dVertex
 10
-1296.050275518489
 20
4160.999953690515
 30
0.0
  0
VERTEX
  5
318
330
279
100
AcDbEntity
  8
MAKE2D VISIBLE LINES
100
AcDbVertex
100
AcDb2dVertex
 10
-1293.715846563856
 20
4174.963445725353
 30
0.0
  0
VERTEX
  5
319
330
279
100
AcDbEntity
  8
MAKE2D VISIBLE LINES
100
AcDbVertex
100
AcDb2dVertex
 10
-1290.581931823294
 20
4191.795968581784
 30
0.0
  0
VERTEX
  5
31A
330
279
100
AcDbEntity
  8
MAKE2D VISIBLE LINES
100
AcDbVertex
100
AcDb2dVertex
 10
-1287.150555629992
 20
4208.570448448076
 30
0.0
  0
VERTEX
  5
31B
330
279
100
AcDbEntity
  8
MAKE2D VISIBLE LINES
100
AcDbVertex
100
AcDb2dVertex
 10
-1279.568337044924
 20
4241.966538282973
 30
0.0
  0
VERTEX
  5
31C
330
279
100
AcDbEntity
  8
MAKE2D VISIBLE LINES
100
AcDbVertex
100
AcDb2dVertex
 10
-1233.482567220458
 20
4423.13894670976
 30
0.0
  0
VERTEX
  5
31D
330
279
100
AcDbEntity
  8
MAKE2D VISIBLE LINES
100
AcDbVertex
100
AcDb2dVertex
 10
-1226.448661191096
 20
4456.083283282399
 30
0.0
  0
VERTEX
  5
31E
330
279
100
AcDbEntity
  8
MAKE2D VISIBLE LINES
100
AcDbVertex
100
AcDb2dVertex
 10
-1223.209223176676
 20
4473.181044768255
 30
0.0
  0
VERTEX
  5
31F
330
279
100
AcDbEntity
  8
MAKE2D VISIBLE LINES
100
AcDbVertex
100
AcDb2dVertex
 10
-1220.29237959484
 20
4490.33617515376
 30
0.0
  0
VERTEX
  5
320
330
279
100
AcDbEntity
  8
MAKE2D VISIBLE LINES
100
AcDbVertex
100
AcDb2dVertex
 10
-1217.741825322767
 20
4507.547686751685
 30
0.0
  0
VERTEX
  5
321
330
279
100
AcDbEntity
  8
MAKE2D VISIBLE LINES
100
AcDbVertex
100
AcDb2dVertex
 10
-1215.601255237636
 20
4524.814591874802
 30
0.0
  0
VERTEX
  5
322
330
279
100
AcDbEntity
  8
MAKE2D VISIBLE LINES
100
AcDbVertex
100
AcDb2dVertex
 10
-1214.078349611424
 20
4540.210531817317
 30
0.0
  0
VERTEX
  5
323
330
279
100
AcDbEntity
  8
MAKE2D VISIBLE LINES
100
AcDbVertex
100
AcDb2dVertex
 10
-1212.948393344664
 20
4555.640035271536
 30
0.0
  0
VERTEX
  5
324
330
279
100
AcDbEntity
  8
MAKE2D VISIBLE LINES
100
AcDbVertex
100
AcDb2dVertex
 10
-1212.245718294778
 20
4571.093659828792
 30
0.0
  0
VERTEX
  5
325
330
279
100
AcDbEntity
  8
MAKE2D VISIBLE LINES
100
AcDbVertex
100
AcDb2dVertex
 10
-1212.004656319188
 20
4586.561963080418
 30
0.0
 42
-0.0280513703138783
  0
VERTEX
  5
326
330
279
100
AcDbEntity
  8
MAKE2D VISIBLE LINES
100
AcDbVertex
100
AcDb2dVertex
 10
-1222.279322184842
 20
4586.259179556122
 30
0.0
  0
VERTEX
  5
327
330
279
100
AcDbEntity
  8
MAKE2D VISIBLE LINES
100
AcDbVertex
100
AcDb2dVertex
 10
-1230.253013218037
 20
4586.333552667508
 30
0.0
  0
VERTEX
  5
328
330
279
100
AcDbEntity
  8
MAKE2D VISIBLE LINES
100
AcDbVertex
100
AcDb2dVertex
 10
-1232.943074908778
 20
4586.43170371578
 30
0.0
  0
VERTEX
  5
329
330
279
100
AcDbEntity
  8
MAKE2D VISIBLE LINES
100
AcDbVertex
100
AcDb2dVertex
 10
-1233.357445096978
 20
4586.459206968862
 30
0.0
  0
VERTEX
  5
32A
330
279
100
AcDbEntity
  8
MAKE2D VISIBLE LINES
100
AcDbVertex
100
AcDb2dVertex
 10
-1233.665488507898
 20
4586.486985111534
 30
0.0
  0
VERTEX
  5
32B
330
279
100
AcDbEntity
  8
MAKE2D VISIBLE LINES
100
AcDbVertex
100
AcDb2dVertex
 10
-1233.780767234736
 20
4586.500845328091
 30
0.0
  0
VERTEX
  5
32C
330
279
100
AcDbEntity
  8
MAKE2D VISIBLE LINES
100
AcDbVertex
100
AcDb2dVertex
 10
-1233.829015924737
 20
4586.507746847081
 30
0.0
  0
VERTEX
  5
32D
330
279
100
AcDbEntity
  8
MAKE2D VISIBLE LINES
100
AcDbVertex
100
AcDb2dVertex
 10
-1233.871139850313
 20
4586.514621716879
 30
0.0
  0
VERTEX
  5
32E
330
279
100
AcDbEntity
  8
MAKE2D VISIBLE LINES
100
AcDbVertex
100
AcDb2dVertex
 10
-1233.907250306535
 20
4586.521464525468
 30
0.0
  0
VERTEX
  5
32F
330
279
100
AcDbEntity
  8
MAKE2D VISIBLE LINES
100
AcDbVertex
100
AcDb2dVertex
 10
-1233.923087160786
 20
4586.524872278977
 30
0.0
  0
VERTEX
  5
330
330
279
100
AcDbEntity
  8
MAKE2D VISIBLE LINES
100
AcDbVertex
100
AcDb2dVertex
 10
-1233.93746546521
 20
4586.528270093349
 30
0.0
  0
VERTEX
  5
331
330
279
100
AcDbEntity
  8
MAKE2D VISIBLE LINES
100
AcDbVertex
100
AcDb2dVertex
 10
-1233.950400963401
 20
4586.531657358366
 30
0.0
  0
VERTEX
  5
332
330
279
100
AcDbEntity
  8
MAKE2D VISIBLE LINES
100
AcDbVertex
100
AcDb2dVertex
 10
-1233.961909750962
 20
4586.535033478938
 30
0.0
  0
VERTEX
  5
333
330
279
100
AcDbEntity
  8
MAKE2D VISIBLE LINES
100
AcDbVertex
100
AcDb2dVertex
 10
-1233.972008256296
 20
4586.538397875211
 30
0.0
  0
VERTEX
  5
334
330
279
100
AcDbEntity
  8
MAKE2D VISIBLE LINES
100
AcDbVertex
100
AcDb2dVertex
 10
-1233.980713221541
 20
4586.541749982644
 30
0.0
  0
VERTEX
  5
335
330
279
100
AcDbEntity
  8
MAKE2D VISIBLE LINES
100
AcDbVertex
100
AcDb2dVertex
 10
-1233.981678718466
 20
4586.541924321792
 30
0.0
  0
VERTEX
  5
336
330
279
100
AcDbEntity
  8
MAKE2D VISIBLE LINES
100
AcDbVertex
100
AcDb2dVertex
 10
-1233.982646307713
 20
4586.542131518019
 30
0.0
  0
VERTEX
  5
337
330
279
100
AcDbEntity
  8
MAKE2D VISIBLE LINES
100
AcDbVertex
100
AcDb2dVertex
 10
-1233.983614390997
 20
4586.542372035214
 30
0.0
  0
VERTEX
  5
338
330
279
100
AcDbEntity
  8
MAKE2D VISIBLE LINES
100
AcDbVertex
100
AcDb2dVertex
 10
-1233.984581316777
 20
4586.54264623774
 30
0.0
  0
VERTEX
  5
339
330
279
100
AcDbEntity
  8
MAKE2D VISIBLE LINES
100
AcDbVertex
100
AcDb2dVertex
 10
-1233.98554538769
 20
4586.54295438445
 30
0.0
  0
VERTEX
  5
33A
330
279
100
AcDbEntity
  8
MAKE2D VISIBLE LINES
100
AcDbVertex
100
AcDb2dVertex
 10
-1233.986504868727
 20
4586.543296623326
 30
0.0
  0
VERTEX
  5
33B
330
279
100
AcDbEntity
  8
MAKE2D VISIBLE LINES
100
AcDbVertex
100
AcDb2dVertex
 10
-1233.987457996076
 20
4586.543672986873
 30
0.0
  0
VERTEX
  5
33C
330
279
100
AcDbEntity
  8
MAKE2D VISIBLE LINES
100
AcDbVertex
100
AcDb2dVertex
 10
-1233.988402986571
 20
4586.544083388349
 30
0.0
  0
VERTEX
  5
33D
330
279
100
AcDbEntity
  8
MAKE2D VISIBLE LINES
100
AcDbVertex
100
AcDb2dVertex
 10
-1233.989338047642
 20
4586.544527618909
 30
0.0
  0
VERTEX
  5
33E
330
279
100
AcDbEntity
  8
MAKE2D VISIBLE LINES
100
AcDbVertex
100
AcDb2dVertex
 10
-1233.990261387675
 20
4586.545005345742
 30
0.0
  0
VERTEX
  5
33F
330
279
100
AcDbEntity
  8
MAKE2D VISIBLE LINES
100
AcDbVertex
100
AcDb2dVertex
 10
-1233.991171226658
 20
4586.545516111252
 30
0.0
  0
VERTEX
  5
340
330
279
100
AcDbEntity
  8
MAKE2D VISIBLE LINES
100
AcDbVertex
100
AcDb2dVertex
 10
-1233.99206580699
 20
4586.546059333353
 30
0.0
  0
VERTEX
  5
341
330
279
100
AcDbEntity
  8
MAKE2D VISIBLE LINES
100
AcDbVertex
100
AcDb2dVertex
 10
-1233.99294340433
 20
4586.546634306846
 30
0.0
  0
VERTEX
  5
342
330
279
100
AcDbEntity
  8
MAKE2D VISIBLE LINES
100
AcDbVertex
100
AcDb2dVertex
 10
-1233.993802338346
 20
4586.547240205959
 30
0.0
  0
VERTEX
  5
343
330
279
100
AcDbEntity
  8
MAKE2D VISIBLE LINES
100
AcDbVertex
100
AcDb2dVertex
 10
-1233.994640983219
 20
4586.547876087979
 30
0.0
  0
VERTEX
  5
344
330
279
100
AcDbEntity
  8
MAKE2D VISIBLE LINES
100
AcDbVertex
100
AcDb2dVertex
 10
-1233.995457777785
 20
4586.548540897994
 30
0.0
  0
VERTEX
  5
345
330
279
100
AcDbEntity
  8
MAKE2D VISIBLE LINES
100
AcDbVertex
100
AcDb2dVertex
 10
-1233.996251235165
 20
4586.549233474654
 30
0.0
  0
VERTEX
  5
346
330
279
100
AcDbEntity
  8
MAKE2D VISIBLE LINES
100
AcDbVertex
100
AcDb2dVertex
 10
-1233.997019951773
 20
4586.549952556928
 30
0.0
  0
VERTEX
  5
347
330
279
100
AcDbEntity
  8
MAKE2D VISIBLE LINES
100
AcDbVertex
100
AcDb2dVertex
 10
-1233.997762615576
 20
4586.550696791734
 30
0.0
  0
VERTEX
  5
348
330
279
100
AcDbEntity
  8
MAKE2D VISIBLE LINES
100
AcDbVertex
100
AcDb2dVertex
 10
-1233.998478013518
 20
4586.551464742392
 30
0.0
  0
VERTEX
  5
349
330
279
100
AcDbEntity
  8
MAKE2D VISIBLE LINES
100
AcDbVertex
100
AcDb2dVertex
 10
-1233.999165038005
 20
4586.552254897728
 30
0.0
  0
VERTEX
  5
34A
330
279
100
AcDbEntity
  8
MAKE2D VISIBLE LINES
100
AcDbVertex
100
AcDb2dVertex
 10
-1233.999822692389
 20
4586.55306568178
 30
0.0
  0
VERTEX
  5
34B
330
279
100
AcDbEntity
  8
MAKE2D VISIBLE LINES
100
AcDbVertex
100
AcDb2dVertex
 10
-1234.0004500954
 20
4586.553895463919
 30
0.0
  0
VERTEX
  5
34C
330
279
100
AcDbEntity
  8
MAKE2D VISIBLE LINES
100
AcDbVertex
100
AcDb2dVertex
 10
-1234.001046484482
 20
4586.554742569284
 30
0.0
  0
VERTEX
  5
34D
330
279
100
AcDbEntity
  8
MAKE2D VISIBLE LINES
100
AcDbVertex
100
AcDb2dVertex
 10
-1234.001611218017
 20
4586.555605289391
 30
0.0
  0
VERTEX
  5
34E
330
279
100
AcDbEntity
  8
MAKE2D VISIBLE LINES
100
AcDbVertex
100
AcDb2dVertex
 10
-1234.002143776453
 20
4586.556481892771
 30
0.0
  0
VERTEX
  5
34F
330
279
100
AcDbEntity
  8
MAKE2D VISIBLE LINES
100
AcDbVertex
100
AcDb2dVertex
 10
-1234.002643762334
 20
4586.55737063552
 30
0.0
  0
VERTEX
  5
350
330
279
100
AcDbEntity
  8
MAKE2D VISIBLE LINES
100
AcDbVertex
100
AcDb2dVertex
 10
-1234.003110899282
 20
4586.558269771636
 30
0.0
  0
VERTEX
  5
351
330
279
100
AcDbEntity
  8
MAKE2D VISIBLE LINES
100
AcDbVertex
100
AcDb2dVertex
 10
-1234.003545029984
 20
4586.559177563019
 30
0.0
  0
VERTEX
  5
352
330
279
100
AcDbEntity
  8
MAKE2D VISIBLE LINES
100
AcDbVertex
100
AcDb2dVertex
 10
-1234.003946113237
 20
4586.560092289034
 30
0.0
  0
VERTEX
  5
353
330
279
100
AcDbEntity
  8
MAKE2D VISIBLE LINES
100
AcDbVertex
100
AcDb2dVertex
 10
-1234.004314220145
 20
4586.561012255544
 30
0.0
  0
VERTEX
  5
354
330
279
100
AcDbEntity
  8
MAKE2D VISIBLE LINES
100
AcDbVertex
100
AcDb2dVertex
 10
-1234.004649529534
 20
4586.561935803335
 30
0.0
  0
VERTEX
  5
355
330
279
100
AcDbEntity
  8
MAKE2D VISIBLE LINES
100
AcDbVertex
100
AcDb2dVertex
 10
-1234.239398701297
 20
4571.63708966181
 30
0.0
  0
VERTEX
  5
356
330
279
100
AcDbEntity
  8
MAKE2D VISIBLE LINES
100
AcDbVertex
100
AcDb2dVertex
 10
-1234.922628137103
 20
4556.72669881937
 30
0.0
  0
VERTEX
  5
357
330
279
100
AcDbEntity
  8
MAKE2D VISIBLE LINES
100
AcDbVertex
100
AcDb2dVertex
 10
-1236.019615143007
 20
4541.839812312552
 30
0.0
  0
VERTEX
  5
358
330
279
100
AcDbEntity
  8
MAKE2D VISIBLE LINES
100
AcDbVertex
100
AcDb2dVertex
 10
-1237.495637025065
 20
4526.985479177893
 30
0.0
  0
VERTEX
  5
359
330
279
100
AcDbEntity
  8
MAKE2D VISIBLE LINES
100
AcDbVertex
100
AcDb2dVertex
 10
-1239.614519284575
 20
4509.976698682472
 30
0.0
  0
VERTEX
  5
35A
330
279
100
AcDbEntity
  8
MAKE2D VISIBLE LINES
100
AcDbVertex
100
AcDb2dVertex
 10
-1242.142223805347
 20
4493.023449665181
 30
0.0
  0
VERTEX
  5
35B
330
279
100
AcDbEntity
  8
MAKE2D VISIBLE LINES
100
AcDbVertex
100
AcDb2dVertex
 10
-1245.033498760176
 20
4476.126398929647
 30
0.0
  0
VERTEX
  5
35C
330
279
100
AcDbEntity
  8
MAKE2D VISIBLE LINES
100
AcDbVertex
100
AcDb2dVertex
 10
-1248.243092321858
 20
4459.286213279493
 30
0.0
  0
VERTEX
  5
35D
330
279
100
AcDbEntity
  8
MAKE2D VISIBLE LINES
100
AcDbVertex
100
AcDb2dVertex
 10
-1255.2025145856
 20
4426.84188900337
 30
0.0
  0
VERTEX
  5
35E
330
279
100
AcDbEntity
  8
MAKE2D VISIBLE LINES
100
AcDbVertex
100
AcDb2dVertex
 10
-1301.363026518777
 20
4245.412766951926
 30
0.0
  0
VERTEX
  5
35F
330
279
100
AcDbEntity
  8
MAKE2D VISIBLE LINES
100
AcDbVertex
100
AcDb2dVertex
 10
-1309.432764957041
 20
4209.52892510276
 30
0.0
  0
VERTEX
  5
360
330
279
100
AcDbEntity
  8
MAKE2D VISIBLE LINES
100
AcDbVertex
100
AcDb2dVertex
 10
-1313.047230703631
 20
4191.49914506798
 30
0.0
  0
VERTEX
  5
361
330
279
100
AcDbEntity
  8
MAKE2D VISIBLE LINES
100
AcDbVertex
100
AcDb2dVertex
 10
-1316.312555494987
 20
4173.40250268248
 30
0.0
  0
VERTEX
  5
362
330
279
100
AcDbEntity
  8
MAKE2D VISIBLE LINES
100
AcDbVertex
100
AcDb2dVertex
 10
-1318.85371446942
 20
4157.425515711452
 30
0.0
  0
VERTEX
  5
363
330
279
100
AcDbEntity
  8
MAKE2D VISIBLE LINES
100
AcDbVertex
100
AcDb2dVertex
 10
-1321.040674051471
 20
4141.396752281935
 30
0.0
  0
VERTEX
  5
364
330
279
100
AcDbEntity
  8
MAKE2D VISIBLE LINES
100
AcDbVertex
100
AcDb2dVertex
 10
-1322.82934677264
 20
4125.320980668246
 30
0.0
  0
VERTEX
  5
365
330
279
100
AcDbEntity
  8
MAKE2D VISIBLE LINES
100
AcDbVertex
100
AcDb2dVertex
 10
-1324.175645164431
 20
4109.202969144709
 30
0.0
  0
VERTEX
  5
366
330
279
100
AcDbEntity
  8
MAKE2D VISIBLE LINES
100
AcDbVertex
100
AcDb2dVertex
 10
-1324.969744839097
 20
4094.709608695878
 30
0.0
  0
VERTEX
  5
367
330
279
100
AcDbEntity
  8
MAKE2D VISIBLE LINES
100
AcDbVertex
100
AcDb2dVertex
 10
-1325.333467537549
 20
4080.19905341067
 30
0.0
  0
VERTEX
  5
368
330
279
100
AcDbEntity
  8
MAKE2D VISIBLE LINES
100
AcDbVertex
100
AcDb2dVertex
 10
-1325.24028024531
 20
4065.963545720548
 30
0.0
  0
VERTEX
  5
369
330
279
100
AcDbEntity
  8
MAKE2D VISIBLE LINES
100
AcDbVertex
100
AcDb2dVertex
 10
-1324.692213475694
 20
4051.738467824687
 30
0.0
  0
VERTEX
  5
36A
330
279
100
AcDbEntity
  8
MAKE2D VISIBLE LINES
100
AcDbVertex
100
AcDb2dVertex
 10
-1323.917686202678
 20
4040.293818901321
 30
0.0
  0
VERTEX
  5
36B
330
279
100
AcDbEntity
  8
MAKE2D VISIBLE LINES
100
AcDbVertex
100
AcDb2dVertex
 10
-1322.846603060112
 20
4028.873001867327
 30
0.0
  0
VERTEX
  5
36C
330
279
100
AcDbEntity
  8
MAKE2D VISIBLE LINES
100
AcDbVertex
100
AcDb2dVertex
 10
-1321.480124068732
 20
4017.483670592497
 30
0.0
  0
VERTEX
  5
36D
330
279
100
AcDbEntity
  8
MAKE2D VISIBLE LINES
100
AcDbVertex
100
AcDb2dVertex
 10
-1319.819409249272
 20
4006.133478946621
 30
0.0
  0
VERTEX
  5
36E
330
279
100
AcDbEntity
  8
MAKE2D VISIBLE LINES
100
AcDbVertex
100
AcDb2dVertex
 10
-1317.914829786201
 20
3995.10077423446
 30
0.0
  0
VERTEX
  5
36F
330
279
100
AcDbEntity
  8
MAKE2D VISIBLE LINES
100
AcDbVertex
100
AcDb2dVertex
 10
-1315.725797050292
 20
3984.121374303239
 30
0.0
  0
VERTEX
  5
370
330
279
100
AcDbEntity
  8
MAKE2D VISIBLE LINES
100
AcDbVertex
100
AcDb2dVertex
 10
-1313.247047414327
 20
3973.204007547843
 30
0.0
  0
VERTEX
  5
371
330
279
100
AcDbEntity
  8
MAKE2D VISIBLE LINES
100
AcDbVertex
100
AcDb2dVertex
 10
-1310.473317251086
 20
3962.357402363157
 30
0.0
  0
VERTEX
  5
372
330
279
100
AcDbEntity
  8
MAKE2D VISIBLE LINES
100
AcDbVertex
100
AcDb2dVertex
 10
-1307.536768276639
 20
3952.052897630128
 30
0.0
  0
VERTEX
  5
373
330
279
100
AcDbEntity
  8
MAKE2D VISIBLE LINES
100
AcDbVertex
100
AcDb2dVertex
 10
-1304.313899067694
 20
3941.834671202523
 30
0.0
  0
VERTEX
  5
374
330
279
100
AcDbEntity
  8
MAKE2D VISIBLE LINES
100
AcDbVertex
100
AcDb2dVertex
 10
-1300.793346010111
 20
3931.716206322266
 30
0.0
  0
VERTEX
  5
375
330
279
100
AcDbEntity
  8
MAKE2D VISIBLE LINES
100
AcDbVertex
100
AcDb2dVertex
 10
-1296.963745489747
 20
3921.71098623128
 30
0.0
  0
VERTEX
  5
376
330
279
100
AcDbEntity
  8
MAKE2D VISIBLE LINES
100
AcDbVertex
100
AcDb2dVertex
 10
-1293.034831551139
 20
3912.341887742516
 30
0.0
  0
VERTEX
  5
377
330
279
100
AcDbEntity
  8
MAKE2D VISIBLE LINES
100
AcDbVertex
100
AcDb2dVertex
 10
-1288.79814619264
 20
3903.10791434954
 30
0.0
  0
VERTEX
  5
378
330
279
100
AcDbEntity
  8
MAKE2D VISIBLE LINES
100
AcDbVertex
100
AcDb2dVertex
 10
-1286.682242818955
 20
3898.795499566437
 30
0.0
  0
VERTEX
  5
379
330
279
100
AcDbEntity
  8
MAKE2D VISIBLE LINES
100
AcDbVertex
100
AcDb2dVertex
 10
-1284.490653127146
 20
3894.52113556505
 30
0.0
  0
VERTEX
  5
37A
330
279
100
AcDbEntity
  8
MAKE2D VISIBLE LINES
100
AcDbVertex
100
AcDb2dVertex
 10
-1282.22087961918
 20
3890.287936894848
 30
0.0
  0
VERTEX
  5
37B
330
279
100
AcDbEntity
  8
MAKE2D VISIBLE LINES
100
AcDbVertex
100
AcDb2dVertex
 10
-1279.870424797024
 20
3886.099018105298
 30
0.0
  0
VERTEX
  5
37C
330
279
100
AcDbEntity
  8
MAKE2D VISIBLE LINES
100
AcDbVertex
100
AcDb2dVertex
 10
-1277.614434033534
 20
3882.253790284314
 30
0.0
  0
VERTEX
  5
37D
330
279
100
AcDbEntity
  8
MAKE2D VISIBLE LINES
100
AcDbVertex
100
AcDb2dVertex
 10
-1275.284037488906
 20
3878.45326974505
 30
0.0
  0
VERTEX
  5
37E
330
279
100
AcDbEntity
  8
MAKE2D VISIBLE LINES
100
AcDbVertex
100
AcDb2dVertex
 10
-1272.876479440698
 20
3874.701338304073
 30
0.0
  0
VERTEX
  5
37F
330
279
100
AcDbEntity
  8
MAKE2D VISIBLE LINES
100
AcDbVertex
100
AcDb2dVertex
 10
-1270.389004166472
 20
3871.001877777946
 30
0.0
  0
VERTEX
  5
380
330
279
100
AcDbEntity
  8
MAKE2D VISIBLE LINES
100
AcDbVertex
100
AcDb2dVertex
 10
-1267.98045524084
 20
3867.583126087761
 30
0.0
  0
VERTEX
  5
381
330
279
100
AcDbEntity
  8
MAKE2D VISIBLE LINES
100
AcDbVertex
100
AcDb2dVertex
 10
-1265.496196995316
 20
3864.219087743775
 30
0.0
  0
VERTEX
  5
382
330
279
100
AcDbEntity
  8
MAKE2D VISIBLE LINES
100
AcDbVertex
100
AcDb2dVertex
 10
-1262.933264797759
 20
3860.914890805498
 30
0.0
  0
VERTEX
  5
383
330
279
100
AcDbEntity
  8
MAKE2D VISIBLE LINES
100
AcDbVertex
100
AcDb2dVertex
 10
-1260.288694016025
 20
3857.67566333244
 30
0.0
  0
VERTEX
  5
384
330
279
100
AcDbEntity
  8
MAKE2D VISIBLE LINES
100
AcDbVertex
100
AcDb2dVertex
 10
-1257.75599811374
 20
3854.729298230198
 30
0.0
  0
VERTEX
  5
385
330
279
100
AcDbEntity
  8
MAKE2D VISIBLE LINES
100
AcDbVertex
100
AcDb2dVertex
 10
-1255.147892223593
 20
3851.849598214582
 30
0.0
  0
VERTEX
  5
386
330
279
100
AcDbEntity
  8
MAKE2D VISIBLE LINES
100
AcDbVertex
100
AcDb2dVertex
 10
-1252.461990636471
 20
3849.042724511864
 30
0.0
  0
VERTEX
  5
387
330
279
100
AcDbEntity
  8
MAKE2D VISIBLE LINES
100
AcDbVertex
100
AcDb2dVertex
 10
-1249.695907643261
 20
3846.314838348316
 30
0.0
  0
VERTEX
  5
388
330
279
100
AcDbEntity
  8
MAKE2D VISIBLE LINES
100
AcDbVertex
100
AcDb2dVertex
 10
-1247.066493840646
 20
3843.869993503504
 30
0.0
  0
VERTEX
  5
389
330
279
100
AcDbEntity
  8
MAKE2D VISIBLE LINES
100
AcDbVertex
100
AcDb2dVertex
 10
-1244.365027651988
 20
3841.505226224217
 30
0.0
  0
VERTEX
  5
38A
330
279
100
AcDbEntity
  8
MAKE2D VISIBLE LINES
100
AcDbVertex
100
AcDb2dVertex
 10
-1241.589964813565
 20
3839.227901355494
 30
0.0
  0
VERTEX
  5
38B
330
279
100
AcDbEntity
  8
MAKE2D VISIBLE LINES
100
AcDbVertex
100
AcDb2dVertex
 10
-1238.739761061653
 20
3837.045383742373
 30
0.0
  0
VERTEX
  5
38C
330
279
100
AcDbEntity
  8
MAKE2D VISIBLE LINES
100
AcDbVertex
100
AcDb2dVertex
 10
-1236.013854439675
 20
3835.102902913652
 30
0.0
  0
VERTEX
  5
38D
330
279
100
AcDbEntity
  8
MAKE2D VISIBLE LINES
100
AcDbVertex
100
AcDb2dVertex
 10
-1234.626024908587
 20
3834.16743459895
 30
0.0
  0
VERTEX
  5
38E
330
279
100
AcDbEntity
  8
MAKE2D VISIBLE LINES
100
AcDbVertex
100
AcDb2dVertex
 10
-1233.221673549396
 20
3833.257132958168
 30
0.0
  0
VERTEX
  5
38F
330
279
100
AcDbEntity
  8
MAKE2D VISIBLE LINES
100
AcDbVertex
100
AcDb2dVertex
 10
-1231.800847101076
 20
3832.372986946913
 30
0.0
  0
VERTEX
  5
390
330
279
100
AcDbEntity
  8
MAKE2D VISIBLE LINES
100
AcDbVertex
100
AcDb2dVertex
 10
-1230.363592302601
 20
3831.515985520798
 30
0.0
  0
VERTEX
  5
391
330
279
100
AcDbEntity
  8
MAKE2D VISIBLE LINES
100
AcDbVertex
100
AcDb2dVertex
 10
-1228.909955892944
 20
3830.68711763543
 30
0.0
  0
VERTEX
  5
392
330
279
100
AcDbEntity
  8
MAKE2D VISIBLE LINES
100
AcDbVertex
100
AcDb2dVertex
 10
-1227.439984611076
 20
3829.887372246418
 30
0.0
  0
VERTEX
  5
393
330
279
100
AcDbEntity
  8
MAKE2D VISIBLE LINES
100
AcDbVertex
100
AcDb2dVertex
 10
-1226.048114383026
 20
3829.165444635107
 30
0.0
  0
VERTEX
  5
394
330
279
100
AcDbEntity
  8
MAKE2D VISIBLE LINES
100
AcDbVertex
100
AcDb2dVertex
 10
-1224.64230828395
 20
3828.470848104264
 30
0.0
  0
VERTEX
  5
395
330
279
100
AcDbEntity
  8
MAKE2D VISIBLE LINES
100
AcDbVertex
100
AcDb2dVertex
 10
-1223.2229263944
 20
3827.804485177262
 30
0.0
  0
VERTEX
  5
396
330
279
100
AcDbEntity
  8
MAKE2D VISIBLE LINES
100
AcDbVertex
100
AcDb2dVertex
 10
-1221.790328794929
 20
3827.167258377471
 30
0.0
  0
VERTEX
  5
397
330
279
100
AcDbEntity
  8
MAKE2D VISIBLE LINES
100
AcDbVertex
100
AcDb2dVertex
 10
-1220.344875566087
 20
3826.560070228263
 30
0.0
  0
VERTEX
  5
398
330
279
100
AcDbEntity
  8
MAKE2D VISIBLE LINES
100
AcDbVertex
100
AcDb2dVertex
 10
-1218.886926788427
 20
3825.983823253008
 30
0.0
  0
VERTEX
  5
399
330
279
100
AcDbEntity
  8
MAKE2D VISIBLE LINES
100
AcDbVertex
100
AcDb2dVertex
 10
-1217.4168425425
 20
3825.439419975078
 30
0.0
  0
VERTEX
  5
39A
330
279
100
AcDbEntity
  8
MAKE2D VISIBLE LINES
100
AcDbVertex
100
AcDb2dVertex
 10
-1215.934982908858
 20
3824.927762917844
 30
0.0
  0
VERTEX
  5
39B
330
279
100
AcDbEntity
  8
MAKE2D VISIBLE LINES
100
AcDbVertex
100
AcDb2dVertex
 10
-1214.501450448526
 20
3824.468109635871
 30
0.0
  0
VERTEX
  5
39C
330
279
100
AcDbEntity
  8
MAKE2D VISIBLE LINES
100
AcDbVertex
100
AcDb2dVertex
 10
-1213.058064276167
 20
3824.040114288497
 30
0.0
  0
VERTEX
  5
39D
330
279
100
AcDbEntity
  8
MAKE2D VISIBLE LINES
100
AcDbVertex
100
AcDb2dVertex
 10
-1211.605494856429
 20
3823.644412839339
 30
0.0
  0
VERTEX
  5
39E
330
279
100
AcDbEntity
  8
MAKE2D VISIBLE LINES
100
AcDbVertex
100
AcDb2dVertex
 10
-1210.14441265396
 20
3823.281641252012
 30
0.0
  0
VERTEX
  5
39F
330
279
100
AcDbEntity
  8
MAKE2D VISIBLE LINES
100
AcDbVertex
100
AcDb2dVertex
 10
-1208.675488133412
 20
3822.952435490138
 30
0.0
  0
VERTEX
  5
3A0
330
279
100
AcDbEntity
  8
MAKE2D VISIBLE LINES
100
AcDbVertex
100
AcDb2dVertex
 10
-1207.199391759432
 20
3822.657431517331
 30
0.0
  0
VERTEX
  5
3A1
330
279
100
AcDbEntity
  8
MAKE2D VISIBLE LINES
100
AcDbVertex
100
AcDb2dVertex
 10
-1205.71679399667
 20
3822.397265297211
 30
0.0
  0
VERTEX
  5
3A2
330
279
100
AcDbEntity
  8
MAKE2D VISIBLE LINES
100
AcDbVertex
100
AcDb2dVertex
 10
-1204.228365309775
 20
3822.172572793394
 30
0.0
  0
VERTEX
  5
3A3
330
279
100
AcDbEntity
  8
MAKE2D VISIBLE LINES
100
AcDbVertex
100
AcDb2dVertex
 10
-1202.779421358724
 20
3821.989020793451
 30
0.0
  0
VERTEX
  5
3A4
330
279
100
AcDbEntity
  8
MAKE2D VISIBLE LINES
100
AcDbVertex
100
AcDb2dVertex
 10
-1201.326469215699
 20
3821.839652767026
 30
0.0
  0
VERTEX
  5
3A5
330
279
100
AcDbEntity
  8
MAKE2D VISIBLE LINES
100
AcDbVertex
100
AcDb2dVertex
 10
-1199.870357976527
 20
3821.724664414257
 30
0.0
  0
VERTEX
  5
3A6
330
279
100
AcDbEntity
  8
MAKE2D VISIBLE LINES
100
AcDbVertex
100
AcDb2dVertex
 10
-1198.411936737032
 20
3821.644251435287
 30
0.0
  0
VERTEX
  5
3A7
330
279
100
AcDbEntity
  8
MAKE2D VISIBLE LINES
100
AcDbVertex
100
AcDb2dVertex
 10
-1196.952054593039
 20
3821.598609530256
 30
0.0
  0
VERTEX
  5
3A8
330
279
100
AcDbEntity
  8
MAKE2D VISIBLE LINES
100
AcDbVertex
100
AcDb2dVertex
 10
-1195.491560640373
 20
3821.587934399306
 30
0.0
  0
VERTEX
  5
3A9
330
279
100
AcDbEntity
  8
MAKE2D VISIBLE LINES
100
AcDbVertex
100
AcDb2dVertex
 10
-1194.03130397486
 20
3821.612421742577
 30
0.0
  0
VERTEX
  5
3AA
330
279
100
AcDbEntity
  8
MAKE2D VISIBLE LINES
100
AcDbVertex
100
AcDb2dVertex
 10
-1192.572133692324
 20
3821.672267260211
 30
0.0
  0
VERTEX
  5
3AB
330
279
100
AcDbEntity
  8
MAKE2D VISIBLE LINES
100
AcDbVertex
100
AcDb2dVertex
 10
-1190.72404885509
 20
3821.799163057474
 30
0.0
  0
VERTEX
  5
3AC
330
279
100
AcDbEntity
  8
MAKE2D VISIBLE LINES
100
AcDbVertex
100
AcDb2dVertex
 10
-1188.880648050939
 20
3821.982481027484
 30
0.0
  0
VERTEX
  5
3AD
330
279
100
AcDbEntity
  8
MAKE2D VISIBLE LINES
100
AcDbVertex
100
AcDb2dVertex
 10
-1187.043500968591
 20
3822.221434238716
 30
0.0
  0
VERTEX
  5
3AE
330
279
100
AcDbEntity
  8
MAKE2D VISIBLE LINES
100
AcDbVertex
100
AcDb2dVertex
 10
-1185.214177296768
 20
3822.515235759646
 30
0.0
  0
VERTEX
  5
3AF
330
279
100
AcDbEntity
  8
MAKE2D VISIBLE LINES
100
AcDbVertex
100
AcDb2dVertex
 10
-1183.394246724189
 20
3822.863098658749
 30
0.0
  0
VERTEX
  5
3B0
330
279
100
AcDbEntity
  8
MAKE2D VISIBLE LINES
100
AcDbVertex
100
AcDb2dVertex
 10
-1181.585278939575
 20
3823.2642360045
 30
0.0
  0
VERTEX
  5
3B1
330
279
100
AcDbEntity
  8
MAKE2D VISIBLE LINES
100
AcDbVertex
100
AcDb2dVertex
 10
-1179.788843631647
 20
3823.717860865374
 30
0.0
  0
VERTEX
  5
3B2
330
279
100
AcDbEntity
  8
MAKE2D VISIBLE LINES
100
AcDbVertex
100
AcDb2dVertex
 10
-1178.006510489126
 20
3824.223186309848
 30
0.0
  0
VERTEX
  5
3B3
330
279
100
AcDbEntity
  8
MAKE2D VISIBLE LINES
100
AcDbVertex
100
AcDb2dVertex
 10
-1176.168712887012
 20
3824.802801834949
 30
0.0
  0
VERTEX
  5
3B4
330
279
100
AcDbEntity
  8
MAKE2D VISIBLE LINES
100
AcDbVertex
100
AcDb2dVertex
 10
-1174.348712929553
 20
3825.435793663816
 30
0.0
  0
VERTEX
  5
3B5
330
279
100
AcDbEntity
  8
MAKE2D VISIBLE LINES
100
AcDbVertex
100
AcDb2dVertex
 10
-1172.547345293774
 20
3826.120429966551
 30
0.0
  0
VERTEX
  5
3B6
330
279
100
AcDbEntity
  8
MAKE2D VISIBLE LINES
100
AcDbVertex
100
AcDb2dVertex
 10
-1170.765444656701
 20
3826.854978913258
 30
0.0
  0
VERTEX
  5
3B7
330
279
100
AcDbEntity
  8
MAKE2D VISIBLE LINES
100
AcDbVertex
100
AcDb2dVertex
 10
-1169.003845695358
 20
3827.637708674035
 30
0.0
  0
VERTEX
  5
3B8
330
279
100
AcDbEntity
  8
MAKE2D VISIBLE LINES
100
AcDbVertex
100
AcDb2dVertex
 10
-1167.263383086773
 20
3828.466887418987
 30
0.0
  0
VERTEX
  5
3B9
330
279
100
AcDbEntity
  8
MAKE2D VISIBLE LINES
100
AcDbVertex
100
AcDb2dVertex
 10
-1165.544891507969
 20
3829.340783318216
 30
0.0
  0
VERTEX
  5
3BA
330
279
100
AcDbEntity
  8
MAKE2D VISIBLE LINES
100
AcDbVertex
100
AcDb2dVertex
 10
-1163.849205635974
 20
3830.257664541823
 30
0.0
  0
VERTEX
  5
3BB
330
279
100
AcDbEntity
  8
MAKE2D VISIBLE LINES
100
AcDbVertex
100
AcDb2dVertex
 10
-1162.039153174454
 20
3831.297231237223
 30
0.0
  0
VERTEX
  5
3BC
330
279
100
AcDbEntity
  8
MAKE2D VISIBLE LINES
100
AcDbVertex
100
AcDb2dVertex
 10
-1160.256805769161
 20
3832.383153000289
 30
0.0
  0
VERTEX
  5
3BD
330
279
100
AcDbEntity
  8
MAKE2D VISIBLE LINES
100
AcDbVertex
100
AcDb2dVertex
 10
-1158.502136773992
 20
3833.513391876096
 30
0.0
  0
VERTEX
  5
3BE
330
279
100
AcDbEntity
  8
MAKE2D VISIBLE LINES
100
AcDbVertex
100
AcDb2dVertex
 10
-1156.775119542846
 20
3834.685909909716
 30
0.0
  0
VERTEX
  5
3BF
330
279
100
AcDbEntity
  8
MAKE2D VISIBLE LINES
100
AcDbVertex
100
AcDb2dVertex
 10
-1155.07572742962
 20
3835.898669146224
 30
0.0
  0
VERTEX
  5
3C0
330
279
100
AcDbEntity
  8
MAKE2D VISIBLE LINES
100
AcDbVertex
100
AcDb2dVertex
 10
-1153.403933788211
 20
3837.149631630693
 30
0.0
  0
VERTEX
  5
3C1
330
279
100
AcDbEntity
  8
MAKE2D VISIBLE LINES
100
AcDbVertex
100
AcDb2dVertex
 10
-1151.759711972517
 20
3838.436759408196
 30
0.0
  0
VERTEX
  5
3C2
330
279
100
AcDbEntity
  8
MAKE2D VISIBLE LINES
100
AcDbVertex
100
AcDb2dVertex
 10
-1150.143035336436
 20
3839.758014523806
 30
0.0
  0
VERTEX
  5
3C3
330
279
100
AcDbEntity
  8
MAKE2D VISIBLE LINES
100
AcDbVertex
100
AcDb2dVertex
 10
-1148.392062348119
 20
3841.252282547502
 30
0.0
  0
VERTEX
  5
3C4
330
279
100
AcDbEntity
  8
MAKE2D VISIBLE LINES
100
AcDbVertex
100
AcDb2dVertex
 10
-1146.673882319577
 20
3842.783720381638
 30
0.0
  0
VERTEX
  5
3C5
330
279
100
AcDbEntity
  8
MAKE2D VISIBLE LINES
100
AcDbVertex
100
AcDb2dVertex
 10
-1144.987824820054
 20
3844.350476151117
 30
0.0
  0
VERTEX
  5
3C6
330
279
100
AcDbEntity
  8
MAKE2D VISIBLE LINES
100
AcDbVertex
100
AcDb2dVertex
 10
-1143.333219418797
 20
3845.950697980838
 30
0.0
  0
VERTEX
  5
3C7
330
279
100
AcDbEntity
  8
MAKE2D VISIBLE LINES
100
AcDbVertex
100
AcDb2dVertex
 10
-1141.709395685054
 20
3847.582533995701
 30
0.0
  0
VERTEX
  5
3C8
330
279
100
AcDbEntity
  8
MAKE2D VISIBLE LINES
100
AcDbVertex
100
AcDb2dVertex
 10
-1140.115683188068
 20
3849.244132320607
 30
0.0
  0
VERTEX
  5
3C9
330
279
100
AcDbEntity
  8
MAKE2D VISIBLE LINES
100
AcDbVertex
100
AcDb2dVertex
 10
-1137.015910181356
 20
3852.649208400151
 30
0.0
  0
VERTEX
  5
3CA
330
279
100
AcDbEntity
  8
MAKE2D VISIBLE LINES
100
AcDbVertex
100
AcDb2dVertex
 10
-1133.669063951277
 20
3856.588817237436
 30
0.0
  0
VERTEX
  5
3CB
330
279
100
AcDbEntity
  8
MAKE2D VISIBLE LINES
100
AcDbVertex
100
AcDb2dVertex
 10
-1130.456618069044
 20
3860.638701079864
 30
0.0
  0
VERTEX
  5
3CC
330
279
100
AcDbEntity
  8
MAKE2D VISIBLE LINES
100
AcDbVertex
100
AcDb2dVertex
 10
-1127.371259144816
 20
3864.787055695998
 30
0.0
  0
VERTEX
  5
3CD
330
279
100
AcDbEntity
  8
MAKE2D VISIBLE LINES
100
AcDbVertex
100
AcDb2dVertex
 10
-1124.405673788752
 20
3869.022076854399
 30
0.0
  0
VERTEX
  5
3CE
330
279
100
AcDbEntity
  8
MAKE2D VISIBLE LINES
100
AcDbVertex
100
AcDb2dVertex
 10
-1121.310308999275
 20
3873.70974797883
 30
0.0
  0
VERTEX
  5
3CF
330
279
100
AcDbEntity
  8
MAKE2D VISIBLE LINES
100
AcDbVertex
100
AcDb2dVertex
 10
-1118.338572820129
 20
3878.476870322642
 30
0.0
  0
VERTEX
  5
3D0
330
279
100
AcDbEntity
  8
MAKE2D VISIBLE LINES
100
AcDbVertex
100
AcDb2dVertex
 10
-1115.343117370225
 20
3883.556340567239
 30
0.0
  0
VERTEX
  5
3D1
330
279
100
AcDbEntity
  8
MAKE2D VISIBLE LINES
100
AcDbVertex
100
AcDb2dVertex
 10
-1112.467413767772
 20
3888.704696214915
 30
0.0
  0
VERTEX
  5
3D2
330
279
100
AcDbEntity
  8
MAKE2D VISIBLE LINES
100
AcDbVertex
100
AcDb2dVertex
 10
-1109.498676236704
 20
3894.314127312848
 30
0.0
  0
VERTEX
  5
3D3
330
279
100
AcDbEntity
  8
MAKE2D VISIBLE LINES
100
AcDbVertex
100
AcDb2dVertex
 10
-1106.654094789146
 20
3899.987144596568
 30
0.0
  0
VERTEX
  5
3D4
330
279
100
AcDbEntity
  8
MAKE2D VISIBLE LINES
100
AcDbVertex
100
AcDb2dVertex
 10
-1103.926417322313
 20
3905.717692177241
 30
0.0
  0
VERTEX
  5
3D5
330
279
100
AcDbEntity
  8
MAKE2D VISIBLE LINES
100
AcDbVertex
100
AcDb2dVertex
 10
-1101.30839173342
 20
3911.499714166034
 30
0.0
  0
VERTEX
  5
3D6
330
279
100
AcDbEntity
  8
MAKE2D VISIBLE LINES
100
AcDbVertex
100
AcDb2dVertex
 10
-1098.590265167895
 20
3917.809566795223
 30
0.0
  0
VERTEX
  5
3D7
330
279
100
AcDbEntity
  8
MAKE2D VISIBLE LINES
100
AcDbVertex
100
AcDb2dVertex
 10
-1095.985497853521
 20
3924.167505497605
 30
0.0
  0
VERTEX
  5
3D8
330
279
100
AcDbEntity
  8
MAKE2D VISIBLE LINES
100
AcDbVertex
100
AcDb2dVertex
 10
-1091.089600820699
 20
3937.007140121752
 30
0.0
  0
VERTEX
  5
3D9
330
279
100
AcDbEntity
  8
MAKE2D VISIBLE LINES
100
AcDbVertex
100
AcDb2dVertex
 10
-1086.022825292478
 20
3951.640752862238
 30
0.0
  0
VERTEX
  5
3DA
330
279
100
AcDbEntity
  8
MAKE2D VISIBLE LINES
100
AcDbVertex
100
AcDb2dVertex
 10
-1081.391915275633
 20
3966.417875383476
 30
0.0
  0
VERTEX
  5
3DB
330
279
100
AcDbEntity
  8
MAKE2D VISIBLE LINES
100
AcDbVertex
100
AcDb2dVertex
 10
-1077.157391457669
 20
3981.31577319294
 30
0.0
  0
VERTEX
  5
3DC
330
279
100
AcDbEntity
  8
MAKE2D VISIBLE LINES
100
AcDbVertex
100
AcDb2dVertex
 10
-1073.279774526091
 20
3996.311711798103
 30
0.0
  0
VERTEX
  5
3DD
330
279
100
AcDbEntity
  8
MAKE2D VISIBLE LINES
100
AcDbVertex
100
AcDb2dVertex
 10
-1069.219535712568
 20
4013.633755120476
 30
0.0
  0
VERTEX
  5
3DE
330
279
100
AcDbEntity
  8
MAKE2D VISIBLE LINES
100
AcDbVertex
100
AcDb2dVertex
 10
-1065.547804159846
 20
4031.041879451677
 30
0.0
  0
VERTEX
  5
3DF
330
279
100
AcDbEntity
  8
MAKE2D VISIBLE LINES
100
AcDbVertex
100
AcDb2dVertex
 10
-1062.23418291861
 20
4048.522785248745
 30
0.0
  0
VERTEX
  5
3E0
330
279
100
AcDbEntity
  8
MAKE2D VISIBLE LINES
100
AcDbVertex
100
AcDb2dVertex
 10
-1059.248275039545
 20
4066.063172968719
 30
0.0
  0
VERTEX
  5
3E1
330
279
100
AcDbEntity
  8
MAKE2D VISIBLE LINES
100
AcDbVertex
100
AcDb2dVertex
 10
-1056.283858949571
 20
4085.587858079234
 30
0.0
  0
VERTEX
  5
3E2
330
279
100
AcDbEntity
  8
MAKE2D VISIBLE LINES
100
AcDbVertex
100
AcDb2dVertex
 10
-1053.662331903367
 20
4105.161404619179
 30
0.0
  0
VERTEX
  5
3E3
330
279
100
AcDbEntity
  8
MAKE2D VISIBLE LINES
100
AcDbVertex
100
AcDb2dVertex
 10
-1049.35425904699
 20
4144.422930562495
 30
0.0
  0
VERTEX
  5
3E4
330
279
100
AcDbEntity
  8
MAKE2D VISIBLE LINES
100
AcDbVertex
100
AcDb2dVertex
 10
-1045.870415079892
 20
4187.946349790289
 30
0.0
  0
VERTEX
  5
3E5
330
279
100
AcDbEntity
  8
MAKE2D VISIBLE LINES
100
AcDbVertex
100
AcDb2dVertex
 10
-1043.569537568557
 20
4231.549609662879
 30
0.0
  0
VERTEX
  5
3E6
330
279
100
AcDbEntity
  8
MAKE2D VISIBLE LINES
100
AcDbVertex
100
AcDb2dVertex
 10
-1042.360708544549
 20
4272.438795446385
 30
0.0
  0
VERTEX
  5
3E7
330
279
100
AcDbEntity
  8
MAKE2D VISIBLE LINES
100
AcDbVertex
100
AcDb2dVertex
 10
-1041.974578442766
 20
4313.344536636792
 30
0.0
  0
VERTEX
  5
3E8
330
279
100
AcDbEntity
  8
MAKE2D VISIBLE LINES
100
AcDbVertex
100
AcDb2dVertex
 10
-1042.37163433378
 20
4356.458851904779
 30
0.0
  0
VERTEX
  5
3E9
330
279
100
AcDbEntity
  8
MAKE2D VISIBLE LINES
100
AcDbVertex
100
AcDb2dVertex
 10
-1045.045569404158
 20
4435.989330331437
 30
0.0
  0
VERTEX
  5
3EA
330
279
100
AcDbEntity
  8
MAKE2D VISIBLE LINES
100
AcDbVertex
100
AcDb2dVertex
 10
-1050.497600116979
 20
4523.099267214055
 30
0.0
  0
VERTEX
  5
3EB
330
279
100
AcDbEntity
  8
MAKE2D VISIBLE LINES
100
AcDbVertex
100
AcDb2dVertex
 10
-1055.9179692859
 20
4583.084289784542
 30
0.0
  0
VERTEX
  5
3EC
330
279
100
AcDbEntity
  8
MAKE2D VISIBLE LINES
100
AcDbVertex
100
AcDb2dVertex
 10
-1058.482773070092
 20
4604.471521545636
 30
0.0
  0
VERTEX
  5
3ED
330
279
100
AcDbEntity
  8
MAKE2D VISIBLE LINES
100
AcDbVertex
100
AcDb2dVertex
 10
-1061.633095719918
 20
4625.778766048305
 30
0.0
  0
VERTEX
  5
3EE
330
279
100
AcDbEntity
  8
MAKE2D VISIBLE LINES
100
AcDbVertex
100
AcDb2dVertex
 10
-1065.264538166998
 20
4645.851000996274
 30
0.0
  0
VERTEX
  5
3EF
330
279
100
AcDbEntity
  8
MAKE2D VISIBLE LINES
100
AcDbVertex
100
AcDb2dVertex
 10
-1069.521146856202
 20
4665.800895054676
 30
0.0
  0
VERTEX
  5
3F0
330
279
100
AcDbEntity
  8
MAKE2D VISIBLE LINES
100
AcDbVertex
100
AcDb2dVertex
 10
-1073.668279226204
 20
4682.930061825635
 30
0.0
  0
VERTEX
  5
3F1
330
279
100
AcDbEntity
  8
MAKE2D VISIBLE LINES
100
AcDbVertex
100
AcDb2dVertex
 10
-1101.947189102215
 20
4782.866065549412
 30
0.0
  0
VERTEX
  5
3F2
330
279
100
AcDbEntity
  8
MAKE2D VISIBLE LINES
100
AcDbVertex
100
AcDb2dVertex
 10
-1112.900933983075
 20
4823.782448999418
 30
0.0
  0
VERTEX
  5
3F3
330
279
100
AcDbEntity
  8
MAKE2D VISIBLE LINES
100
AcDbVertex
100
AcDb2dVertex
 10
-1117.834030678078
 20
4844.103279678302
 30
0.0
  0
VERTEX
  5
3F4
330
279
100
AcDbEntity
  8
MAKE2D VISIBLE LINES
100
AcDbVertex
100
AcDb2dVertex
 10
-1122.339569974396
 20
4864.522472975234
 30
0.0
  0
VERTEX
  5
3F5
330
279
100
AcDbEntity
  8
MAKE2D VISIBLE LINES
100
AcDbVertex
100
AcDb2dVertex
 10
-1126.037537527371
 20
4883.430774626525
 30
0.0
  0
VERTEX
  5
3F6
330
279
100
AcDbEntity
  8
MAKE2D VISIBLE LINES
100
AcDbVertex
100
AcDb2dVertex
 10
-1129.257284726209
 20
4902.425696376615
 30
0.0
  0
VERTEX
  5
3F7
330
279
100
AcDbEntity
  8
MAKE2D VISIBLE LINES
100
AcDbVertex
100
AcDb2dVertex
 10
-1132.499748926898
 20
4925.606230843585
 30
0.0
  0
VERTEX
  5
3F8
330
279
100
AcDbEntity
  8
MAKE2D VISIBLE LINES
100
AcDbVertex
100
AcDb2dVertex
 10
-1135.071109887206
 20
4948.872268314335
 30
0.0
  0
VERTEX
  5
3F9
330
279
100
AcDbEntity
  8
MAKE2D VISIBLE LINES
100
AcDbVertex
100
AcDb2dVertex
 10
-1137.192898584452
 20
4974.11353822206
 30
0.0
  0
VERTEX
  5
3FA
330
279
100
AcDbEntity
  8
MAKE2D VISIBLE LINES
100
AcDbVertex
100
AcDb2dVertex
 10
-1138.708108671685
 20
4999.398825649893
 30
0.0
  0
VERTEX
  5
3FB
330
279
100
AcDbEntity
  8
MAKE2D VISIBLE LINES
100
AcDbVertex
100
AcDb2dVertex
 10
-1139.75812941579
 20
5026.907925571641
 30
0.0
  0
VERTEX
  5
3FC
330
279
100
AcDbEntity
  8
MAKE2D VISIBLE LINES
100
AcDbVertex
100
AcDb2dVertex
 10
-1140.392466507377
 20
5085.252022708369
 30
0.0
  0
VERTEX
  5
3FD
330
279
100
AcDbEntity
  8
MAKE2D VISIBLE LINES
100
AcDbVertex
100
AcDb2dVertex
 10
-1140.051566653598
 20
5123.316359364469
 30
0.0
  0
SEQEND
  5
3FE
330
279
100
AcDbEntity
  8
MAKE2D VISIBLE LINES
  0
POLYLINE
  5
3FF
330
1F
100
AcDbEntity
  8
MAKE2D VISIBLE LINES
100
AcDb2dPolyline
 66
     1
 10
0.0
 20
0.0
 30
0.0
  0
VERTEX
  5
400
330
3FF
100
AcDbEntity
  8
MAKE2D VISIBLE LINES
100
AcDbVertex
100
AcDb2dVertex
 10
-1166.999982739238
 20
5159.31635936442
 30
0.0
 42
-0.4142136232200079
  0
VERTEX
  5
401
330
3FF
100
AcDbEntity
  8
MAKE2D VISIBLE LINES
100
AcDbVertex
100
AcDb2dVertex
 10
-1167.999980438649
 20
5160.31635936442
 30
0.0
  0
VERTEX
  5
402
330
3FF
100
AcDbEntity
  8
MAKE2D VISIBLE LINES
100
AcDbVertex
100
AcDb2dVertex
 10
-1167.999978110109
 20
5163.316359364471
 30
0.0
  0
VERTEX
  5
403
330
3FF
100
AcDbEntity
  8
MAKE2D VISIBLE LINES
100
AcDbVertex
100
AcDb2dVertex
 10
-1136.003263053328
 20
5163.316359364471
 30
0.0
  0
SEQEND
  5
404
330
3FF
100
AcDbEntity
  8
MAKE2D VISIBLE LINES
  0
POLYLINE
  5
405
330
1F
100
AcDbEntity
  8
MAKE2D VISIBLE LINES
100
AcDb2dPolyline
 66
     1
 10
0.0
 20
0.0
 30
0.0
  0
VERTEX
  5
406
330
405
100
AcDbEntity
  8
MAKE2D VISIBLE LINES
100
AcDbVertex
100
AcDb2dVertex
 10
-1242.993450430731
 20
5158.316359364643
 30
0.0
  0
VERTEX
  5
407
330
405
100
AcDbEntity
  8
MAKE2D VISIBLE LINES
100
AcDbVertex
100
AcDb2dVertex
 10
-1177.0
 20
5158.316359364746
 30
0.0
  0
VERTEX
  5
408
330
405
100
AcDbEntity
  8
MAKE2D VISIBLE LINES
100
AcDbVertex
100
AcDb2dVertex
 10
-1177.0
 20
5127.316359364471
 30
0.0
  0
VERTEX
  5
409
330
405
100
AcDbEntity
  8
MAKE2D VISIBLE LINES
100
AcDbVertex
100
AcDb2dVertex
 10
-1148.01663092157
 20
5127.316359364471
 30
0.0
  0
SEQEND
  5
40A
330
405
100
AcDbEntity
  8
MAKE2D VISIBLE LINES
  0
POLYLINE
  5
40B
330
1F
100
AcDbEntity
  8
MAKE2D VISIBLE LINES
100
AcDb2dPolyline
 66
     1
 10
0.0
 20
0.0
 30
0.0
  0
VERTEX
  5
40C
330
40B
100
AcDbEntity
  8
MAKE2D VISIBLE LINES
100
AcDbVertex
100
AcDb2dVertex
 10
-1146.466663701946
 20
4638.969954662909
 30
0.0
 42
-0.1193860301148939
  0
VERTEX
  5
40D
330
40B
100
AcDbEntity
  8
MAKE2D VISIBLE LINES
100
AcDbVertex
100
AcDb2dVertex
 10
-1161.989742563954
 20
4639.564752203745
 30
0.0
 42
-0.1315494572654437
  0
VERTEX
  5
40E
330
40B
100
AcDbEntity
  8
MAKE2D VISIBLE LINES
100
AcDbVertex
100
AcDb2dVertex
 10
-1176.666322562495
 20
4648.316359364471
 30
0.0
  0
SEQEND
  5
40F
330
40B
100
AcDbEntity
  8
MAKE2D VISIBLE LINES
  0
POLYLINE
  5
410
330
1F
100
AcDbEntity
  8
MAKE2D VISIBLE LINES
100
AcDb2dPolyline
 66
     1
 10
0.0
 20
0.0
 30
0.0
  0
VERTEX
  5
411
330
410
100
AcDbEntity
  8
MAKE2D VISIBLE LINES
100
AcDbVertex
100
AcDb2dVertex
 10
-1195.280520524587
 20
5601.316359364486
 30
0.0
 42
0.0000084448897737
  0
VERTEX
  5
412
330
410
100
AcDbEntity
  8
MAKE2D VISIBLE LINES
100
AcDbVertex
100
AcDb2dVertex
 10
-1201.271629966996
 20
5601.316352289658
 30
0.0
  0
VERTEX
  5
413
330
410
100
AcDbEntity
  8
MAKE2D VISIBLE LINES
100
AcDbVertex
100
AcDb2dVertex
 10
-1206.976989599514
 20
5601.316359364471
 30
0.0
  0
SEQEND
  5
414
330
410
100
AcDbEntity
  8
MAKE2D VISIBLE LINES
  0
POLYLINE
  5
415
330
1F
100
AcDbEntity
  8
MAKE2D VISIBLE LINES
100
AcDb2dPolyline
 66
     1
 10
0.0
 20
0.0
 30
0.0
  0
VERTEX
  5
416
330
415
100
AcDbEntity
  8
MAKE2D VISIBLE LINES
100
AcDbVertex
100
AcDb2dVertex
 10
-1269.333677437505
 20
4648.316359364471
 30
0.0
 42
-0.1315494570567023
  0
VERTEX
  5
417
330
415
100
AcDbEntity
  8
MAKE2D VISIBLE LINES
100
AcDbVertex
100
AcDb2dVertex
 10
-1284.010257410117
 20
4639.564752211079
 30
0.0
 42
-0.1193952829854959
  0
VERTEX
  5
418
330
415
100
AcDbEntity
  8
MAKE2D VISIBLE LINES
100
AcDbVertex
100
AcDb2dVertex
 10
-1299.533336306816
 20
4638.969954664678
 30
0.0
  0
SEQEND
  5
419
330
415
100
AcDbEntity
  8
MAKE2D VISIBLE LINES
  0
POLYLINE
  5
41A
330
1F
100
AcDbEntity
  8
MAKE2D VISIBLE LINES
100
AcDb2dPolyline
 66
     1
 10
0.0
 20
0.0
 30
0.0
  0
VERTEX
  5
41B
330
41A
100
AcDbEntity
  8
MAKE2D VISIBLE LINES
100
AcDbVertex
100
AcDb2dVertex
 10
-1315.000000063729
 20
4692.190412864682
 30
0.0
  0
VERTEX
  5
41C
330
41A
100
AcDbEntity
  8
MAKE2D VISIBLE LINES
100
AcDbVertex
100
AcDb2dVertex
 10
-1315.0
 20
4650.442751027665
 30
0.0
 42
-0.4325596012894357
  0
VERTEX
  5
41D
330
41A
100
AcDbEntity
  8
MAKE2D VISIBLE LINES
100
AcDbVertex
100
AcDb2dVertex
 10
-1317.119784581456
 20
4648.443114117625
 30
0.0
  0
VERTEX
  5
41E
330
41A
100
AcDbEntity
  8
MAKE2D VISIBLE LINES
100
AcDbVertex
100
AcDb2dVertex
 10
-1363.11980998775
 20
4651.203123199311
 30
0.0
 42
-0.3968385043128829
  0
VERTEX
  5
41F
330
41A
100
AcDbEntity
  8
MAKE2D VISIBLE LINES
100
AcDbVertex
100
AcDb2dVertex
 10
-1365.0
 20
4653.202305000814
 30
0.0
  0
VERTEX
  5
420
330
41A
100
AcDbEntity
  8
MAKE2D VISIBLE LINES
100
AcDbVertex
100
AcDb2dVertex
 10
-1365.0
 20
4689.430337248004
 30
0.0
 42
-0.3968395331082604
  0
VERTEX
  5
421
330
41A
100
AcDbEntity
  8
MAKE2D VISIBLE LINES
100
AcDbVertex
100
AcDb2dVertex
 10
-1363.119807318441
 20
4691.4295510797
 30
0.0
  0
VERTEX
  5
422
330
41A
100
AcDbEntity
  8
MAKE2D VISIBLE LINES
100
AcDbVertex
100
AcDb2dVertex
 10
-1317.119784581456
 20
4694.189655343154
 30
0.0
 42
-0.4325145240020852
  0
VERTEX
  5
423
330
41A
100
AcDbEntity
  8
MAKE2D VISIBLE LINES
100
AcDbVertex
100
AcDb2dVertex
 10
-1315.000000063729
 20
4692.190412864682
 30
0.0
  0
SEQEND
  5
424
330
41A
100
AcDbEntity
  8
MAKE2D VISIBLE LINES
  0
LINE
  5
425
330
1F
100
AcDbEntity
  8
MAKE2D VISIBLE LINES
100
AcDbLine
 10
-1203.006031026443
 20
5106.316359362705
 30
0.0
 11
-1242.993888823278
 21
5106.316359362696
 31
0.0
  0
POLYLINE
  5
426
330
1F
100
AcDbEntity
  8
MAKE2D VISIBLE LINES
100
AcDb2dPolyline
 66
     1
 10
0.0
 20
0.0
 30
0.0
  0
VERTEX
  5
427
330
426
100
AcDbEntity
  8
MAKE2D VISIBLE LINES
100
AcDbVertex
100
AcDb2dVertex
 10
-1239.027044096019
 20
5601.316359364472
 30
0.0
  0
VERTEX
  5
428
330
426
100
AcDbEntity
  8
MAKE2D VISIBLE LINES
100
AcDbVertex
100
AcDb2dVertex
 10
-1239.021400328107
 20
5601.316359364471
 30
0.0
  0
VERTEX
  5
429
330
426
100
AcDbEntity
  8
MAKE2D VISIBLE LINES
100
AcDbVertex
100
AcDb2dVertex
 10
-1239.021132332463
 20
5601.316359364471
 30
0.0
  0
VERTEX
  5
42A
330
426
100
AcDbEntity
  8
MAKE2D VISIBLE LINES
100
AcDbVertex
100
AcDb2dVertex
 10
-1239.021135756998
 20
5601.316359364471
 30
0.0
  0
VERTEX
  5
42B
330
426
100
AcDbEntity
  8
MAKE2D VISIBLE LINES
100
AcDbVertex
100
AcDb2dVertex
 10
-1239.021167227956
 20
5601.316359364471
 30
0.0
  0
VERTEX
  5
42C
330
426
100
AcDbEntity
  8
MAKE2D VISIBLE LINES
100
AcDbVertex
100
AcDb2dVertex
 10
-1239.021314058022
 20
5601.316359364471
 30
0.0
  0
VERTEX
  5
42D
330
426
100
AcDbEntity
  8
MAKE2D VISIBLE LINES
100
AcDbVertex
100
AcDb2dVertex
 10
-1239.023010400486
 20
5601.316359364472
 30
0.0
  0
VERTEX
  5
42E
330
426
100
AcDbEntity
  8
MAKE2D VISIBLE LINES
100
AcDbVertex
100
AcDb2dVertex
 10
-1239.04690436485
 20
5601.316359364472
 30
0.0
  0
VERTEX
  5
42F
330
426
100
AcDbEntity
  8
MAKE2D VISIBLE LINES
100
AcDbVertex
100
AcDb2dVertex
 10
-1239.167960777017
 20
5601.316359364471
 30
0.0
  0
VERTEX
  5
430
330
426
100
AcDbEntity
  8
MAKE2D VISIBLE LINES
100
AcDbVertex
100
AcDb2dVertex
 10
-1250.715445779879
 20
5601.316359364472
 30
0.0
  0
SEQEND
  5
431
330
426
100
AcDbEntity
  8
MAKE2D VISIBLE LINES
  0
POLYLINE
  5
432
330
1F
100
AcDbEntity
  8
MAKE2D VISIBLE LINES
100
AcDb2dPolyline
 66
     1
 10
0.0
 20
0.0
 30
0.0
  0
VERTEX
  5
433
330
432
100
AcDbEntity
  8
MAKE2D VISIBLE LINES
100
AcDbVertex
100
AcDb2dVertex
 10
-1207.0
 20
5603.316359364471
 30
0.0
  0
VERTEX
  5
434
330
432
100
AcDbEntity
  8
MAKE2D VISIBLE LINES
100
AcDbVertex
100
AcDb2dVertex
 10
-1207.0
 20
5501.315835096503
 30
0.0
 42
-0.3334578628880949
  0
VERTEX
  5
435
330
432
100
AcDbEntity
  8
MAKE2D VISIBLE LINES
100
AcDbVertex
100
AcDb2dVertex
 10
-1207.0
 20
5477.317326098235
 30
0.0
  0
VERTEX
  5
436
330
432
100
AcDbEntity
  8
MAKE2D VISIBLE LINES
100
AcDbVertex
100
AcDb2dVertex
 10
-1207.0
 20
5159.316359364745
 30
0.0
  0
SEQEND
  5
437
330
432
100
AcDbEntity
  8
MAKE2D VISIBLE LINES
  0
POLYLINE
  5
438
330
1F
100
AcDbEntity
  8
MAKE2D VISIBLE LINES
100
AcDb2dPolyline
 66
     1
 10
0.0
 20
0.0
 30
0.0
  0
VERTEX
  5
439
330
438
100
AcDbEntity
  8
MAKE2D VISIBLE LINES
100
AcDbVertex
100
AcDb2dVertex
 10
-1239.0
 20
5105.316359362512
 30
0.0
  0
VERTEX
  5
43A
330
438
100
AcDbEntity
  8
MAKE2D VISIBLE LINES
100
AcDbVertex
100
AcDb2dVertex
 10
-1239.0
 20
4711.316359364471
 30
0.0
  0
VERTEX
  5
43B
330
438
100
AcDbEntity
  8
MAKE2D VISIBLE LINES
100
AcDbVertex
100
AcDb2dVertex
 10
-1207.0
 20
4711.316359364471
 30
0.0
  0
VERTEX
  5
43C
330
438
100
AcDbEntity
  8
MAKE2D VISIBLE LINES
100
AcDbVertex
100
AcDb2dVertex
 10
-1207.0
 20
5105.316359362512
 30
0.0
  0
SEQEND
  5
43D
330
438
100
AcDbEntity
  8
MAKE2D VISIBLE LINES
  0
POLYLINE
  5
43E
330
1F
100
AcDbEntity
  8
MAKE2D VISIBLE LINES
100
AcDb2dPolyline
 66
     1
 10
0.0
 20
0.0
 30
0.0
  0
VERTEX
  5
43F
330
43E
100
AcDbEntity
  8
MAKE2D VISIBLE LINES
100
AcDbVertex
100
AcDb2dVertex
 10
-1180.0
 20
5159.316359364746
 30
0.0
  0
VERTEX
  5
440
330
43E
100
AcDbEntity
  8
MAKE2D VISIBLE LINES
100
AcDbVertex
100
AcDb2dVertex
 10
-1180.0
 20
5127.316359364471
 30
0.0
  0
VERTEX
  5
441
330
43E
100
AcDbEntity
  8
MAKE2D VISIBLE LINES
100
AcDbVertex
100
AcDb2dVertex
 10
-1177.0
 20
5127.316359364471
 30
0.0
  0
SEQEND
  5
442
330
43E
100
AcDbEntity
  8
MAKE2D VISIBLE LINES
  0
CIRCLE
  5
443
330
1F
100
AcDbEntity
  8
MAKE2D VISIBLE LINES
100
AcDbCircle
 10
-1149.0
 20
5313.31635936447
 30
0.0
 40
1.000000000000909
  0
CIRCLE
  5
444
330
1F
100
AcDbEntity
  8
MAKE2D VISIBLE LINES
100
AcDbCircle
 10
-1158.0
 20
5335.31635936447
 30
0.0
 40
0.5000000000009095
  0
CIRCLE
  5
445
330
1F
100
AcDbEntity
  8
MAKE2D VISIBLE LINES
100
AcDbCircle
 10
-1152.0
 20
5339.316359364471
 30
0.0
 40
1.0
  0
CIRCLE
  5
446
330
1F
100
AcDbEntity
  8
MAKE2D VISIBLE LINES
100
AcDbCircle
 10
-1152.0
 20
5335.31635936447
 30
0.0
 40
1.000000000000909
  0
CIRCLE
  5
447
330
1F
100
AcDbEntity
  8
MAKE2D VISIBLE LINES
100
AcDbCircle
 10
-1158.0
 20
5311.316359364472
 30
0.0
 40
0.9999999999990905
  0
CIRCLE
  5
448
330
1F
100
AcDbEntity
  8
MAKE2D VISIBLE LINES
100
AcDbCircle
 10
-1158.0
 20
5311.316359364471
 30
0.0
 40
0.5
  0
CIRCLE
  5
449
330
1F
100
AcDbEntity
  8
MAKE2D VISIBLE LINES
100
AcDbCircle
 10
-1146.0
 20
5351.31635936447
 30
0.0
 40
1.000000000000909
  0
CIRCLE
  5
44A
330
1F
100
AcDbEntity
  8
MAKE2D VISIBLE LINES
100
AcDbCircle
 10
-1146.000000000001
 20
5335.316359364471
 30
0.0
 40
1.0
  0
CIRCLE
  5
44B
330
1F
100
AcDbEntity
  8
MAKE2D VISIBLE LINES
100
AcDbCircle
 10
-1145.999999999999
 20
5319.31635936447
 30
0.0
 40
1.000000000000909
  0
CIRCLE
  5
44C
330
1F
100
AcDbEntity
  8
MAKE2D VISIBLE LINES
100
AcDbCircle
 10
-1158.0
 20
5339.31635936447
 30
0.0
 40
0.5000000000009095
  0
CIRCLE
  5
44D
330
1F
100
AcDbEntity
  8
MAKE2D VISIBLE LINES
100
AcDbCircle
 10
-1155.0
 20
5317.31635936447
 30
0.0
 40
1.000000000000909
  0
CIRCLE
  5
44E
330
1F
100
AcDbEntity
  8
MAKE2D VISIBLE LINES
100
AcDbCircle
 10
-1155.0
 20
5345.31635936447
 30
0.0
 40
1.000000000000909
  0
CIRCLE
  5
44F
330
1F
100
AcDbEntity
  8
MAKE2D VISIBLE LINES
100
AcDbCircle
 10
-1152.0
 20
5315.316359364471
 30
0.0
 40
0.5
  0
CIRCLE
  5
450
330
1F
100
AcDbEntity
  8
MAKE2D VISIBLE LINES
100
AcDbCircle
 10
-1146.0
 20
5339.316359364471
 30
0.0
 40
0.5
  0
CIRCLE
  5
451
330
1F
100
AcDbEntity
  8
MAKE2D VISIBLE LINES
100
AcDbCircle
 10
-1155.0
 20
5317.31635936447
 30
0.0
 40
0.5000000000009095
  0
CIRCLE
  5
452
330
1F
100
AcDbEntity
  8
MAKE2D VISIBLE LINES
100
AcDbCircle
 10
-1145.999999999999
 20
5335.316359364471
 30
0.0
 40
0.5
  0
CIRCLE
  5
453
330
1F
100
AcDbEntity
  8
MAKE2D VISIBLE LINES
100
AcDbCircle
 10
-1149.0
 20
5325.316359364471
 30
0.0
 40
1.0
  0
CIRCLE
  5
454
330
1F
100
AcDbEntity
  8
MAKE2D VISIBLE LINES
100
AcDbCircle
 10
-1148.999999999999
 20
5325.316359364471
 30
0.0
 40
0.5
  0
CIRCLE
  5
455
330
1F
100
AcDbEntity
  8
MAKE2D VISIBLE LINES
100
AcDbCircle
 10
-1152.0
 20
5355.316359364471
 30
0.0
 40
0.5
  0
CIRCLE
  5
456
330
1F
100
AcDbEntity
  8
MAKE2D VISIBLE LINES
100
AcDbCircle
 10
-1146.0
 20
5347.316359364471
 30
0.0
 40
0.5
  0
CIRCLE
  5
457
330
1F
100
AcDbEntity
  8
MAKE2D VISIBLE LINES
100
AcDbCircle
 10
-1155.0
 20
5345.316359364471
 30
0.0
 40
0.5
  0
CIRCLE
  5
458
330
1F
100
AcDbEntity
  8
MAKE2D VISIBLE LINES
100
AcDbCircle
 10
-1145.999999999999
 20
5355.316359364472
 30
0.0
 40
0.9999999999990905
  0
CIRCLE
  5
459
330
1F
100
AcDbEntity
  8
MAKE2D VISIBLE LINES
100
AcDbCircle
 10
-1149.0
 20
5345.316359364471
 30
0.0
 40
0.5
  0
CIRCLE
  5
45A
330
1F
100
AcDbEntity
  8
MAKE2D VISIBLE LINES
100
AcDbCircle
 10
-1155.0
 20
5329.316359364471
 30
0.0
 40
0.5
  0
CIRCLE
  5
45B
330
1F
100
AcDbEntity
  8
MAKE2D VISIBLE LINES
100
AcDbCircle
 10
-1155.000000000001
 20
5329.31635936447
 30
0.0
 40
1.000000000000909
  0
CIRCLE
  5
45C
330
1F
100
AcDbEntity
  8
MAKE2D VISIBLE LINES
100
AcDbCircle
 10
-1158.0
 20
5319.31635936447
 30
0.0
 40
0.5000000000009095
  0
CIRCLE
  5
45D
330
1F
100
AcDbEntity
  8
MAKE2D VISIBLE LINES
100
AcDbCircle
 10
-1155.0
 20
5309.316359364471
 30
0.0
 40
0.5
  0
CIRCLE
  5
45E
330
1F
100
AcDbEntity
  8
MAKE2D VISIBLE LINES
100
AcDbCircle
 10
-1145.999999999999
 20
5355.31635936447
 30
0.0
 40
0.5000000000009095
  0
CIRCLE
  5
45F
330
1F
100
AcDbEntity
  8
MAKE2D VISIBLE LINES
100
AcDbCircle
 10
-1155.0
 20
5313.316359364471
 30
0.0
 40
1.0
  0
CIRCLE
  5
460
330
1F
100
AcDbEntity
  8
MAKE2D VISIBLE LINES
100
AcDbCircle
 10
-1158.0
 20
5355.316359364471
 30
0.0
 40
0.5
  0
CIRCLE
  5
461
330
1F
100
AcDbEntity
  8
MAKE2D VISIBLE LINES
100
AcDbCircle
 10
-1146.0
 20
5331.316359364471
 30
0.0
 40
1.0
  0
CIRCLE
  5
462
330
1F
100
AcDbEntity
  8
MAKE2D VISIBLE LINES
100
AcDbCircle
 10
-1151.999999999999
 20
5343.316359364471
 30
0.0
 40
0.5
  0
CIRCLE
  5
463
330
1F
100
AcDbEntity
  8
MAKE2D VISIBLE LINES
100
AcDbCircle
 10
-1152.0
 20
5319.316359364471
 30
0.0
 40
1.0
  0
CIRCLE
  5
464
330
1F
100
AcDbEntity
  8
MAKE2D VISIBLE LINES
100
AcDbCircle
 10
-1152.000000000001
 20
5315.31635936447
 30
0.0
 40
1.000000000000909
  0
CIRCLE
  5
465
330
1F
100
AcDbEntity
  8
MAKE2D VISIBLE LINES
100
AcDbCircle
 10
-1155.000000000001
 20
5309.316359364472
 30
0.0
 40
0.9999999999990905
  0
CIRCLE
  5
466
330
1F
100
AcDbEntity
  8
MAKE2D VISIBLE LINES
100
AcDbCircle
 10
-1158.0
 20
5351.316359364471
 30
0.0
 40
0.5
  0
CIRCLE
  5
467
330
1F
100
AcDbEntity
  8
MAKE2D VISIBLE LINES
100
AcDbCircle
 10
-1152.0
 20
5359.31635936447
 30
0.0
 40
0.5000000000009095
  0
CIRCLE
  5
468
330
1F
100
AcDbEntity
  8
MAKE2D VISIBLE LINES
100
AcDbCircle
 10
-1146.0
 20
5315.316359364471
 30
0.0
 40
0.5
  0
CIRCLE
  5
469
330
1F
100
AcDbEntity
  8
MAKE2D VISIBLE LINES
100
AcDbCircle
 10
-1155.0
 20
5313.31635936447
 30
0.0
 40
0.5000000000009095
  0
CIRCLE
  5
46A
330
1F
100
AcDbEntity
  8
MAKE2D VISIBLE LINES
100
AcDbCircle
 10
-1149.0
 20
5309.316359364471
 30
0.0
 40
1.0
  0
CIRCLE
  5
46B
330
1F
100
AcDbEntity
  8
MAKE2D VISIBLE LINES
100
AcDbCircle
 10
-1145.999999999999
 20
5319.316359364469
 30
0.0
 40
0.500000000001819
  0
CIRCLE
  5
46C
330
1F
100
AcDbEntity
  8
MAKE2D VISIBLE LINES
100
AcDbCircle
 10
-1149.0
 20
5321.316359364471
 30
0.0
 40
1.0
  0
CIRCLE
  5
46D
330
1F
100
AcDbEntity
  8
MAKE2D VISIBLE LINES
100
AcDbCircle
 10
-1149.0
 20
5321.31635936447
 30
0.0
 40
0.5000000000009095
  0
CIRCLE
  5
46E
330
1F
100
AcDbEntity
  8
MAKE2D VISIBLE LINES
100
AcDbCircle
 10
-1146.0
 20
5347.316359364471
 30
0.0
 40
1.0
  0
CIRCLE
  5
46F
330
1F
100
AcDbEntity
  8
MAKE2D VISIBLE LINES
100
AcDbCircle
 10
-1157.999999999998
 20
5335.316359364471
 30
0.0
 40
1.0
  0
CIRCLE
  5
470
330
1F
100
AcDbEntity
  8
MAKE2D VISIBLE LINES
100
AcDbCircle
 10
-1155.0
 20
5341.316359364471
 30
0.0
 40
0.5
  0
CIRCLE
  5
471
330
1F
100
AcDbEntity
  8
MAKE2D VISIBLE LINES
100
AcDbCircle
 10
-1149.0
 20
5309.316359364471
 30
0.0
 40
0.5
  0
CIRCLE
  5
472
330
1F
100
AcDbEntity
  8
MAKE2D VISIBLE LINES
100
AcDbCircle
 10
-1154.999999999999
 20
5337.316359364472
 30
0.0
 40
0.4999999999990905
  0
CIRCLE
  5
473
330
1F
100
AcDbEntity
  8
MAKE2D VISIBLE LINES
100
AcDbCircle
 10
-1155.0
 20
5337.316359364471
 30
0.0
 40
1.0
  0
CIRCLE
  5
474
330
1F
100
AcDbEntity
  8
MAKE2D VISIBLE LINES
100
AcDbCircle
 10
-1151.999999999999
 20
5331.316359364471
 30
0.0
 40
1.0
  0
CIRCLE
  5
475
330
1F
100
AcDbEntity
  8
MAKE2D VISIBLE LINES
100
AcDbCircle
 10
-1151.999999999999
 20
5327.316359364472
 30
0.0
 40
0.4999999999990905
  0
CIRCLE
  5
476
330
1F
100
AcDbEntity
  8
MAKE2D VISIBLE LINES
100
AcDbCircle
 10
-1148.999999999999
 20
5341.31635936447
 30
0.0
 40
1.000000000000909
  0
CIRCLE
  5
477
330
1F
100
AcDbEntity
  8
MAKE2D VISIBLE LINES
100
AcDbCircle
 10
-1158.0
 20
5351.31635936447
 30
0.0
 40
1.000000000000909
  0
CIRCLE
  5
478
330
1F
100
AcDbEntity
  8
MAKE2D VISIBLE LINES
100
AcDbCircle
 10
-1155.000000000001
 20
5341.31635936447
 30
0.0
 40
1.000000000000909
  0
CIRCLE
  5
479
330
1F
100
AcDbEntity
  8
MAKE2D VISIBLE LINES
100
AcDbCircle
 10
-1149.0
 20
5317.316359364471
 30
0.0
 40
1.0
  0
CIRCLE
  5
47A
330
1F
100
AcDbEntity
  8
MAKE2D VISIBLE LINES
100
AcDbCircle
 10
-1152.000000000001
 20
5319.31635936447
 30
0.0
 40
0.5000000000009095
  0
CIRCLE
  5
47B
330
1F
100
AcDbEntity
  8
MAKE2D VISIBLE LINES
100
AcDbCircle
 10
-1152.0
 20
5311.316359364471
 30
0.0
 40
1.0
  0
CIRCLE
  5
47C
330
1F
100
AcDbEntity
  8
MAKE2D VISIBLE LINES
100
AcDbCircle
 10
-1155.0
 20
5321.316359364472
 30
0.0
 40
0.4999999999990905
  0
CIRCLE
  5
47D
330
1F
100
AcDbEntity
  8
MAKE2D VISIBLE LINES
100
AcDbCircle
 10
-1152.0
 20
5311.316359364471
 30
0.0
 40
0.5
  0
CIRCLE
  5
47E
330
1F
100
AcDbEntity
  8
MAKE2D VISIBLE LINES
100
AcDbCircle
 10
-1157.999999999999
 20
5343.316359364471
 30
0.0
 40
1.0
  0
CIRCLE
  5
47F
330
1F
100
AcDbEntity
  8
MAKE2D VISIBLE LINES
100
AcDbCircle
 10
-1155.0
 20
5325.316359364471
 30
0.0
 40
0.5
  0
CIRCLE
  5
480
330
1F
100
AcDbEntity
  8
MAKE2D VISIBLE LINES
100
AcDbCircle
 10
-1149.0
 20
5357.31635936447
 30
0.0
 40
1.000000000000909
  0
CIRCLE
  5
481
330
1F
100
AcDbEntity
  8
MAKE2D VISIBLE LINES
100
AcDbCircle
 10
-1158.0
 20
5331.316359364471
 30
0.0
 40
1.0
  0
CIRCLE
  5
482
330
1F
100
AcDbEntity
  8
MAKE2D VISIBLE LINES
100
AcDbCircle
 10
-1158.0
 20
5347.316359364472
 30
0.0
 40
0.4999999999990905
  0
CIRCLE
  5
483
330
1F
100
AcDbEntity
  8
MAKE2D VISIBLE LINES
100
AcDbCircle
 10
-1155.0
 20
5333.316359364471
 30
0.0
 40
1.0
  0
CIRCLE
  5
484
330
1F
100
AcDbEntity
  8
MAKE2D VISIBLE LINES
100
AcDbCircle
 10
-1146.0
 20
5315.316359364471
 30
0.0
 40
1.0
  0
CIRCLE
  5
485
330
1F
100
AcDbEntity
  8
MAKE2D VISIBLE LINES
100
AcDbCircle
 10
-1155.0
 20
5349.316359364471
 30
0.0
 40
1.0
  0
CIRCLE
  5
486
330
1F
100
AcDbEntity
  8
MAKE2D VISIBLE LINES
100
AcDbCircle
 10
-1149.000000000001
 20
5333.316359364471
 30
0.0
 40
1.0
  0
CIRCLE
  5
487
330
1F
100
AcDbEntity
  8
MAKE2D VISIBLE LINES
100
AcDbCircle
 10
-1154.999999999999
 20
5325.316359364471
 30
0.0
 40
1.0
  0
CIRCLE
  5
488
330
1F
100
AcDbEntity
  8
MAKE2D VISIBLE LINES
100
AcDbCircle
 10
-1158.000000000001
 20
5323.316359364471
 30
0.0
 40
1.0
  0
CIRCLE
  5
489
330
1F
100
AcDbEntity
  8
MAKE2D VISIBLE LINES
100
AcDbCircle
 10
-1146.0
 20
5339.316359364471
 30
0.0
 40
1.0
  0
CIRCLE
  5
48A
330
1F
100
AcDbEntity
  8
MAKE2D VISIBLE LINES
100
AcDbCircle
 10
-1146.000000000001
 20
5323.316359364471
 30
0.0
 40
1.0
  0
CIRCLE
  5
48B
330
1F
100
AcDbEntity
  8
MAKE2D VISIBLE LINES
100
AcDbCircle
 10
-1145.999999999999
 20
5323.316359364471
 30
0.0
 40
0.5
  0
CIRCLE
  5
48C
330
1F
100
AcDbEntity
  8
MAKE2D VISIBLE LINES
100
AcDbCircle
 10
-1154.999999999999
 20
5321.316359364471
 30
0.0
 40
1.0
  0
CIRCLE
  5
48D
330
1F
100
AcDbEntity
  8
MAKE2D VISIBLE LINES
100
AcDbCircle
 10
-1152.0
 20
5331.31635936447
 30
0.0
 40
0.5000000000009095
  0
CIRCLE
  5
48E
330
1F
100
AcDbEntity
  8
MAKE2D VISIBLE LINES
100
AcDbCircle
 10
-1158.0
 20
5319.316359364471
 30
0.0
 40
1.0
  0
CIRCLE
  5
48F
330
1F
100
AcDbEntity
  8
MAKE2D VISIBLE LINES
100
AcDbCircle
 10
-1158.0
 20
5343.316359364471
 30
0.0
 40
0.5
  0
CIRCLE
  5
490
330
1F
100
AcDbEntity
  8
MAKE2D VISIBLE LINES
100
AcDbCircle
 10
-1145.999999999999
 20
5351.316359364471
 30
0.0
 40
0.5
  0
CIRCLE
  5
491
330
1F
100
AcDbEntity
  8
MAKE2D VISIBLE LINES
100
AcDbCircle
 10
-1155.0
 20
5333.316359364471
 30
0.0
 40
0.5
  0
CIRCLE
  5
492
330
1F
100
AcDbEntity
  8
MAKE2D VISIBLE LINES
100
AcDbCircle
 10
-1149.0
 20
5329.31635936447
 30
0.0
 40
1.000000000000909
  0
CIRCLE
  5
493
330
1F
100
AcDbEntity
  8
MAKE2D VISIBLE LINES
100
AcDbCircle
 10
-1149.0
 20
5333.316359364472
 30
0.0
 40
0.4999999999990905
  0
CIRCLE
  5
494
330
1F
100
AcDbEntity
  8
MAKE2D VISIBLE LINES
100
AcDbCircle
 10
-1158.0
 20
5339.316359364471
 30
0.0
 40
1.0
  0
CIRCLE
  5
495
330
1F
100
AcDbEntity
  8
MAKE2D VISIBLE LINES
100
AcDbCircle
 10
-1149.0
 20
5357.316359364472
 30
0.0
 40
0.4999999999990905
  0
CIRCLE
  5
496
330
1F
100
AcDbEntity
  8
MAKE2D VISIBLE LINES
100
AcDbCircle
 10
-1146.000000000001
 20
5331.316359364471
 30
0.0
 40
0.5
  0
CIRCLE
  5
497
330
1F
100
AcDbEntity
  8
MAKE2D VISIBLE LINES
100
AcDbCircle
 10
-1152.0
 20
5359.316359364471
 30
0.0
 40
1.0
  0
CIRCLE
  5
498
330
1F
100
AcDbEntity
  8
MAKE2D VISIBLE LINES
100
AcDbCircle
 10
-1158.000000000001
 20
5347.31635936447
 30
0.0
 40
1.000000000000909
  0
CIRCLE
  5
499
330
1F
100
AcDbEntity
  8
MAKE2D VISIBLE LINES
100
AcDbCircle
 10
-1158.000000000001
 20
5323.316359364471
 30
0.0
 40
0.5
  0
CIRCLE
  5
49A
330
1F
100
AcDbEntity
  8
MAKE2D VISIBLE LINES
100
AcDbCircle
 10
-1151.999999999999
 20
5347.316359364471
 30
0.0
 40
0.5
  0
CIRCLE
  5
49B
330
1F
100
AcDbEntity
  8
MAKE2D VISIBLE LINES
100
AcDbCircle
 10
-1158.0
 20
5331.316359364472
 30
0.0
 40
0.4999999999990905
  0
CIRCLE
  5
49C
330
1F
100
AcDbEntity
  8
MAKE2D VISIBLE LINES
100
AcDbCircle
 10
-1148.999999999999
 20
5337.31635936447
 30
0.0
 40
0.5000000000009095
  0
CIRCLE
  5
49D
330
1F
100
AcDbEntity
  8
MAKE2D VISIBLE LINES
100
AcDbCircle
 10
-1155.0
 20
5349.316359364471
 30
0.0
 40
0.5
  0
CIRCLE
  5
49E
330
1F
100
AcDbEntity
  8
MAKE2D VISIBLE LINES
100
AcDbCircle
 10
-1148.999999999999
 20
5337.31635936447
 30
0.0
 40
1.000000000000909
  0
CIRCLE
  5
49F
330
1F
100
AcDbEntity
  8
MAKE2D VISIBLE LINES
100
AcDbCircle
 10
-1149.0
 20
5341.316359364471
 30
0.0
 40
0.5
  0
CIRCLE
  5
4A0
330
1F
100
AcDbEntity
  8
MAKE2D VISIBLE LINES
100
AcDbCircle
 10
-1152.0
 20
5347.316359364472
 30
0.0
 40
0.9999999999990905
  0
CIRCLE
  5
4A1
330
1F
100
AcDbEntity
  8
MAKE2D VISIBLE LINES
100
AcDbCircle
 10
-1151.999999999999
 20
5343.316359364471
 30
0.0
 40
1.0
  0
CIRCLE
  5
4A2
330
1F
100
AcDbEntity
  8
MAKE2D VISIBLE LINES
100
AcDbCircle
 10
-1152.0
 20
5351.31635936447
 30
0.0
 40
1.000000000000909
  0
CIRCLE
  5
4A3
330
1F
100
AcDbEntity
  8
MAKE2D VISIBLE LINES
100
AcDbCircle
 10
-1149.0
 20
5349.316359364471
 30
0.0
 40
0.5
  0
CIRCLE
  5
4A4
330
1F
100
AcDbEntity
  8
MAKE2D VISIBLE LINES
100
AcDbCircle
 10
-1145.999999999999
 20
5327.316359364471
 30
0.0
 40
0.5
  0
CIRCLE
  5
4A5
330
1F
100
AcDbEntity
  8
MAKE2D VISIBLE LINES
100
AcDbCircle
 10
-1152.0
 20
5323.31635936447
 30
0.0
 40
0.5000000000009095
  0
CIRCLE
  5
4A6
330
1F
100
AcDbEntity
  8
MAKE2D VISIBLE LINES
100
AcDbCircle
 10
-1152.0
 20
5323.316359364471
 30
0.0
 40
1.0
  0
CIRCLE
  5
4A7
330
1F
100
AcDbEntity
  8
MAKE2D VISIBLE LINES
100
AcDbCircle
 10
-1151.999999999999
 20
5351.316359364471
 30
0.0
 40
0.5
  0
CIRCLE
  5
4A8
330
1F
100
AcDbEntity
  8
MAKE2D VISIBLE LINES
100
AcDbCircle
 10
-1146.0
 20
5327.316359364471
 30
0.0
 40
1.0
  0
CIRCLE
  5
4A9
330
1F
100
AcDbEntity
  8
MAKE2D VISIBLE LINES
100
AcDbCircle
 10
-1149.000000000001
 20
5313.316359364471
 30
0.0
 40
0.5
  0
CIRCLE
  5
4AA
330
1F
100
AcDbEntity
  8
MAKE2D VISIBLE LINES
100
AcDbCircle
 10
-1152.000000000001
 20
5335.31635936447
 30
0.0
 40
0.5000000000009095
  0
CIRCLE
  5
4AB
330
1F
100
AcDbEntity
  8
MAKE2D VISIBLE LINES
100
AcDbCircle
 10
-1149.0
 20
5345.31635936447
 30
0.0
 40
1.000000000000909
  0
CIRCLE
  5
4AC
330
1F
100
AcDbEntity
  8
MAKE2D VISIBLE LINES
100
AcDbCircle
 10
-1146.0
 20
5359.316359364471
 30
0.0
 40
1.0
  0
CIRCLE
  5
4AD
330
1F
100
AcDbEntity
  8
MAKE2D VISIBLE LINES
100
AcDbCircle
 10
-1149.0
 20
5329.316359364471
 30
0.0
 40
0.5
  0
CIRCLE
  5
4AE
330
1F
100
AcDbEntity
  8
MAKE2D VISIBLE LINES
100
AcDbCircle
 10
-1158.0
 20
5327.316359364471
 30
0.0
 40
1.0
  0
CIRCLE
  5
4AF
330
1F
100
AcDbEntity
  8
MAKE2D VISIBLE LINES
100
AcDbCircle
 10
-1158.0
 20
5359.316359364471
 30
0.0
 40
1.0
  0
CIRCLE
  5
4B0
330
1F
100
AcDbEntity
  8
MAKE2D VISIBLE LINES
100
AcDbCircle
 10
-1155.0
 20
5353.31635936447
 30
0.0
 40
0.5000000000009095
  0
CIRCLE
  5
4B1
330
1F
100
AcDbEntity
  8
MAKE2D VISIBLE LINES
100
AcDbCircle
 10
-1155.0
 20
5353.31635936447
 30
0.0
 40
1.000000000000909
  0
CIRCLE
  5
4B2
330
1F
100
AcDbEntity
  8
MAKE2D VISIBLE LINES
100
AcDbCircle
 10
-1157.999999999999
 20
5315.316359364471
 30
0.0
 40
0.5
  0
CIRCLE
  5
4B3
330
1F
100
AcDbEntity
  8
MAKE2D VISIBLE LINES
100
AcDbCircle
 10
-1155.000000000001
 20
5357.316359364471
 30
0.0
 40
0.5
  0
CIRCLE
  5
4B4
330
1F
100
AcDbEntity
  8
MAKE2D VISIBLE LINES
100
AcDbCircle
 10
-1154.999999999999
 20
5357.316359364471
 30
0.0
 40
1.0
  0
CIRCLE
  5
4B5
330
1F
100
AcDbEntity
  8
MAKE2D VISIBLE LINES
100
AcDbCircle
 10
-1145.999999999999
 20
5359.316359364471
 30
0.0
 40
0.5
  0
CIRCLE
  5
4B6
330
1F
100
AcDbEntity
  8
MAKE2D VISIBLE LINES
100
AcDbCircle
 10
-1146.0
 20
5343.316359364472
 30
0.0
 40
0.4999999999990905
  0
CIRCLE
  5
4B7
330
1F
100
AcDbEntity
  8
MAKE2D VISIBLE LINES
100
AcDbCircle
 10
-1152.0
 20
5355.316359364471
 30
0.0
 40
1.0
  0
CIRCLE
  5
4B8
330
1F
100
AcDbEntity
  8
MAKE2D VISIBLE LINES
100
AcDbCircle
 10
-1146.0
 20
5343.316359364471
 30
0.0
 40
1.0
  0
CIRCLE
  5
4B9
330
1F
100
AcDbEntity
  8
MAKE2D VISIBLE LINES
100
AcDbCircle
 10
-1158.0
 20
5315.316359364471
 30
0.0
 40
1.0
  0
CIRCLE
  5
4BA
330
1F
100
AcDbEntity
  8
MAKE2D VISIBLE LINES
100
AcDbCircle
 10
-1149.0
 20
5317.316359364471
 30
0.0
 40
0.5
  0
CIRCLE
  5
4BB
330
1F
100
AcDbEntity
  8
MAKE2D VISIBLE LINES
100
AcDbCircle
 10
-1151.999999999999
 20
5327.316359364472
 30
0.0
 40
0.9999999999990905
  0
CIRCLE
  5
4BC
330
1F
100
AcDbEntity
  8
MAKE2D VISIBLE LINES
100
AcDbCircle
 10
-1158.0
 20
5327.316359364471
 30
0.0
 40
0.5
  0
CIRCLE
  5
4BD
330
1F
100
AcDbEntity
  8
MAKE2D VISIBLE LINES
100
AcDbCircle
 10
-1146.0
 20
5311.316359364471
 30
0.0
 40
0.5
  0
CIRCLE
  5
4BE
330
1F
100
AcDbEntity
  8
MAKE2D VISIBLE LINES
100
AcDbCircle
 10
-1158.0
 20
5355.316359364471
 30
0.0
 40
1.0
  0
CIRCLE
  5
4BF
330
1F
100
AcDbEntity
  8
MAKE2D VISIBLE LINES
100
AcDbCircle
 10
-1146.000000000001
 20
5311.316359364471
 30
0.0
 40
1.0
  0
CIRCLE
  5
4C0
330
1F
100
AcDbEntity
  8
MAKE2D VISIBLE LINES
100
AcDbCircle
 10
-1149.0
 20
5353.316359364471
 30
0.0
 40
1.0
  0
CIRCLE
  5
4C1
330
1F
100
AcDbEntity
  8
MAKE2D VISIBLE LINES
100
AcDbCircle
 10
-1149.000000000001
 20
5349.31635936447
 30
0.0
 40
1.000000000000909
  0
CIRCLE
  5
4C2
330
1F
100
AcDbEntity
  8
MAKE2D VISIBLE LINES
100
AcDbCircle
 10
-1149.0
 20
5353.316359364471
 30
0.0
 40
0.5
  0
CIRCLE
  5
4C3
330
1F
100
AcDbEntity
  8
MAKE2D VISIBLE LINES
100
AcDbCircle
 10
-1151.999999999999
 20
5339.31635936447
 30
0.0
 40
0.5000000000009095
  0
CIRCLE
  5
4C4
330
1F
100
AcDbEntity
  8
MAKE2D VISIBLE LINES
100
AcDbCircle
 10
-1158.0
 20
5359.31635936447
 30
0.0
 40
0.5000000000009095
  0
ENDSEC
  0
SECTION
  2
OBJECTS
  0
DICTIONARY
  5
C
330
0
100
AcDbDictionary
281
     1
  3
ACAD_GROUP
350
D
  3
ACAD_LAYOUT
350
1A
  3
ACAD_MLEADERSTYLE
350
4C6
  3
ACAD_MLINESTYLE
350
17
  3
ACAD_PLOTSETTINGS
350
19
  3
ACAD_PLOTSTYLENAME
350
E
  3
ACAD_TABLESTYLE
350
4C5
  3
ACAD_VISUALSTYLE
350
2A
  0
DICTIONARY
  5
D
102
{ACAD_REACTORS
330
C
102
}
330
C
100
AcDbDictionary
281
     1
  0
DICTIONARY
  5
1A
102
{ACAD_REACTORS
330
C
102
}
330
C
100
AcDbDictionary
281
     1
  3
Layout1
350
1E
  3
Layout2
350
26
  3
Model
350
22
  0
DICTIONARY
  5
4C6
102
{ACAD_REACTORS
330
C
102
}
330
C
100
AcDbDictionary
281
     1
  0
DICTIONARY
  5
17
102
{ACAD_REACTORS
330
C
102
}
330
C
100
AcDbDictionary
281
     1
  3
Standard
350
18
  0
DICTIONARY
  5
19
102
{ACAD_REACTORS
330
C
102
}
330
C
100
AcDbDictionary
281
     1
  0
ACDBDICTIONARYWDFLT
  5
E
102
{ACAD_REACTORS
330
C
102
}
330
C
100
AcDbDictionary
281
     1
  3
Normal
350
F
100
AcDbDictionaryWithDefault
340
F
  0
DICTIONARY
  5
4C5
102
{ACAD_REACTORS
330
C
102
}
330
C
100
AcDbDictionary
281
     1
  0
DICTIONARY
  5
2A
102
{ACAD_REACTORS
330
C
102
}
330
C
100
AcDbDictionary
281
     1
  3
2dWireframe
350
2F
  3
3D Hidden
350
31
  3
3dWireframe
350
30
  3
Basic
350
32
  3
Brighten
350
36
  3
ColorChange
350
3A
  3
Conceptual
350
34
  3
Dim
350
35
  3
Facepattern
350
39
  3
Flat
350
2B
  3
FlatWithEdges
350
2C
  3
Gouraud
350
2D
  3
GouraudWithEdges
350
2E
  3
Linepattern
350
38
  3
Realistic
350
33
  3
Thicken
350
37
  0
LAYOUT
  5
1E
102
{ACAD_REACTORS
330
1A
102
}
330
1A
100
AcDbPlotSettings
  1

  2
none_device
  4

  6

 40
0.0
 41
0.0
 42
0.0
 43
0.0
 44
0.0
 45
0.0
 46
0.0
 47
0.0
 48
0.0
 49
0.0
140
0.0
141
0.0
142
1.0
143
1.0
 70
   688
 72
     0
 73
     0
 74
     5
  7

 75
    16
 76
     0
 77
     2
 78
   300
147
1.0
148
0.0
149
0.0
100
AcDbLayout
  1
Layout1
 70
     1
 71
     1
 10
0.0
 20
0.0
 11
12.0
 21
9.0
 12
0.0
 22
0.0
 32
0.0
 14
1.000000000000000E+20
 24
1.000000000000000E+20
 34
1.000000000000000E+20
 15
-1.000000000000000E+20
 25
-1.000000000000000E+20
 35
-1.000000000000000E+20
146
0.0
 13
0.0
 23
0.0
 33
0.0
 16
1.0
 26
0.0
 36
0.0
 17
0.0
 27
1.0
 37
0.0
 76
     0
330
1B
  0
LAYOUT
  5
26
102
{ACAD_REACTORS
330
1A
102
}
330
1A
100
AcDbPlotSettings
  1

  2
none_device
  4

  6

 40
0.0
 41
0.0
 42
0.0
 43
0.0
 44
0.0
 45
0.0
 46
0.0
 47
0.0
 48
0.0
 49
0.0
140
0.0
141
0.0
142
1.0
143
1.0
 70
   688
 72
     0
 73
     0
 74
     5
  7

 75
    16
 76
     0
 77
     2
 78
   300
147
1.0
148
0.0
149
0.0
100
AcDbLayout
  1
Layout2
 70
     1
 71
     2
 10
0.0
 20
0.0
 11
0.0
 21
0.0
 12
0.0
 22
0.0
 32
0.0
 14
0.0
 24
0.0
 34
0.0
 15
0.0
 25
0.0
 35
0.0
146
0.0
 13
0.0
 23
0.0
 33
0.0
 16
1.0
 26
0.0
 36
0.0
 17
0.0
 27
1.0
 37
0.0
 76
     0
330
23
  0
LAYOUT
  5
22
102
{ACAD_REACTORS
330
1A
102
}
330
1A
100
AcDbPlotSettings
  1

  2
none_device
  4

  6

 40
0.0
 41
0.0
 42
0.0
 43
0.0
 44
0.0
 45
0.0
 46
0.0
 47
0.0
 48
0.0
 49
0.0
140
0.0
141
0.0
142
1.0
143
1.0
 70
  1712
 72
     0
 73
     0
 74
     0
  7

 75
     0
 76
     0
 77
     2
 78
   300
147
1.0
148
0.0
149
0.0
100
AcDbLayout
  1
Model
 70
     1
 71
     0
 10
0.0
 20
0.0
 11
12.0
 21
9.0
 12
0.0
 22
0.0
 32
0.0
 14
-1365.000000689659
 24
3821.587934399306
 34
0.0
 15
-1041.974578442766
 25
5759.326088797534
 35
0.0
146
0.0
 13
0.0
 23
0.0
 33
0.0
 16
1.0
 26
0.0
 36
0.0
 17
0.0
 27
1.0
 37
0.0
 76
     0
330
1F
331
29
  0
MLINESTYLE
  5
18
102
{ACAD_REACTORS
330
17
102
}
330
17
100
AcDbMlineStyle
  2
Standard
 70
     0
  3

 62
   256
 51
90.0
 52
90.0
 71
     2
 49
0.5
 62
   256
  6
BYLAYER
 49
-0.5
 62
   256
  6
BYLAYER
  0
ACDBPLACEHOLDER
  5
F
102
{ACAD_REACTORS
330
E
102
}
330
E
  0
VISUALSTYLE
  5
2F
102
{ACAD_REACTORS
330
2A
102
}
330
2A
100
AcDbVisualStyle
  2
2dWireframe
 70
     4
 71
     0
 72
     2
 73
     0
 90
        0
 40
-0.6
 41
-30.0
 62
     5
 63
     7
421
 16777215
 74
     1
 91
        4
 64
     7
 65
   257
 75
     1
175
     1
 42
1.0
 92
        0
 66
   257
 43
1.0
 76
     1
 77
     6
 78
     2
 67
     7
 79
     5
170
     0
171
     0
290
     0
174
     0
 93
        1
 44
0.0
173
     0
291
     0
 45
0.0
1001
ACAD
1000
AcDbSavedByObjectVersion
1070
     0
  0
VISUALSTYLE
  5
31
102
{ACAD_REACTORS
330
2A
102
}
330
2A
100
AcDbVisualStyle
  2
3D Hidden
 70
     6
 71
     1
 72
     2
 73
     2
 90
        0
 40
-0.6
 41
-30.0
 62
     5
 63
     7
421
 16777215
 74
     2
 91
        2
 64
     7
 65
   257
 75
     2
175
     1
 42
40.0
 92
        0
 66
   257
 43
1.0
 76
     1
 77
     6
 78
     2
 67
     7
 79
     3
170
     0
171
     0
290
     0
174
     0
 93
        1
 44
0.0
173
     0
291
     0
 45
0.0
1001
ACAD
1000
AcDbSavedByObjectVersion
1070
     0
  0
VISUALSTYLE
  5
30
102
{ACAD_REACTORS
330
2A
102
}
330
2A
100
AcDbVisualStyle
  2
3dWireframe
 70
     5
 71
     0
 72
     2
 73
     0
 90
        0
 40
-0.6
 41
-30.0
 62
     5
 63
     7
421
 16777215
 74
     1
 91
        4
 64
     7
 65
   257
 75
     1
175
     1
 42
1.0
 92
        0
 66
   257
 43
1.0
 76
     1
 77
     6
 78
     2
 67
     7
 79
     5
170
     0
171
     0
290
     0
174
     0
 93
        1
 44
0.0
173
     0
291
     0
 45
0.0
1001
ACAD
1000
AcDbSavedByObjectVersion
1070
     0
  0
VISUALSTYLE
  5
32
102
{ACAD_REACTORS
330
2A
102
}
330
2A
100
AcDbVisualStyle
  2
Basic
 70
     7
 71
     1
 72
     0
 73
     1
 90
        0
 40
-0.6
 41
-30.0
 62
     5
 63
     7
421
 16777215
 74
     0
 91
        4
 64
     7
 65
   257
 75
     1
175
     1
 42
1.0
 92
        8
 66
     7
 43
1.0
 76
     1
 77
     6
 78
     2
 67
     7
 79
     5
170
     0
171
     0
290
     0
174
     0
 93
        1
 44
0.0
173
     0
291
     1
 45
0.0
1001
ACAD
1000
AcDbSavedByObjectVersion
1070
     0
  0
VISUALSTYLE
  5
36
102
{ACAD_REACTORS
330
2A
102
}
330
2A
100
AcDbVisualStyle
  2
Brighten
 70
    12
 71
     2
 72
     2
 73
     0
 90
        0
 40
-0.6
 41
-30.0
 62
     5
 63
     7
421
 16777215
 74
     1
 91
        4
 64
     7
 65
   257
 75
     1
175
     1
 42
1.0
 92
        8
 66
     7
 43
1.0
 76
     1
 77
     6
 78
     2
 67
     7
 79
     5
170
     0
171
     0
290
     0
174
     0
 93
        1
 44
50.0
173
     0
291
     1
 45
0.0
1001
ACAD
1000
AcDbSavedByObjectVersion
1070
     0
  0
VISUALSTYLE
  5
3A
102
{ACAD_REACTORS
330
2A
102
}
330
2A
100
AcDbVisualStyle
  2
ColorChange
 70
    16
 71
     2
 72
     2
 73
     3
 90
        0
 40
-0.6
 41
-30.0
 62
     5
 63
     8
421
  8421504
 74
     1
 91
        4
 64
     7
 65
   257
 75
     1
175
     1
 42
1.0
 92
        8
 66
     8
424
  8421504
 43
1.0
 76
     1
 77
     6
 78
     2
 67
     7
 79
     5
170
     0
171
     0
290
     0
174
     0
 93
        1
 44
0.0
173
     0
291
     1
 45
0.0
1001
ACAD
1000
AcDbSavedByObjectVersion
1070
     0
  0
VISUALSTYLE
  5
34
102
{ACAD_REACTORS
330
2A
102
}
330
2A
100
AcDbVisualStyle
  2
Conceptual
 70
     9
 71
     3
 72
     2
 73
     0
 90
        0
 40
-0.6
 41
-30.0
 62
     5
 63
     7
421
 16777215
 74
     2
 91
        2
 64
     7
 65
   257
 75
     1
175
     1
 42
40.0
 92
        8
 66
     7
 43
1.0
 76
     1
 77
     6
 78
     2
 67
     7
 79
     3
170
     0
171
     0
290
     0
174
     0
 93
        1
 44
0.0
173
     0
291
     0
 45
0.0
1001
ACAD
1000
AcDbSavedByObjectVersion
1070
     0
  0
VISUALSTYLE
  5
35
102
{ACAD_REACTORS
330
2A
102
}
330
2A
100
AcDbVisualStyle
  2
Dim
 70
    11
 71
     2
 72
     2
 73
     0
 90
        0
 40
-0.6
 41
-30.0
 62
     5
 63
     7
421
 16777215
 74
     1
 91
        4
 64
     7
 65
   257
 75
     1
175
     1
 42
1.0
 92
        8
 66
     7
 43
1.0
 76
     1
 77
     6
 78
     2
 67
     7
 79
     5
170
     0
171
     0
290
     0
174
     0
 93
        1
 44
-50.0
173
     0
291
     1
 45
0.0
1001
ACAD
1000
AcDbSavedByObjectVersion
1070
     0
  0
VISUALSTYLE
  5
39
102
{ACAD_REACTORS
330
2A
102
}
330
2A
100
AcDbVisualStyle
  2
Facepattern
 70
    15
 71
     2
 72
     2
 73
     0
 90
        0
 40
-0.6
 41
-30.0
 62
     5
 63
     7
421
 16777215
 74
     1
 91
        4
 64
     7
 65
   257
 75
     1
175
     1
 42
1.0
 92
        8
 66
     7
 43
1.0
 76
     1
 77
     6
 78
     2
 67
     7
 79
     5
170
     0
171
     0
290
     0
174
     0
 93
        1
 44
0.0
173
     0
291
     1
 45
0.0
1001
ACAD
1000
AcDbSavedByObjectVersion
1070
     0
  0
VISUALSTYLE
  5
2B
102
{ACAD_REACTORS
330
2A
102
}
330
2A
100
AcDbVisualStyle
  2
Flat
 70
     0
 71
     2
 72
     1
 73
     1
 90
        2
 40
-0.6
 41
30.0
 62
     5
 63
     7
421
 16777215
 74
     0
 91
        4
 64
     7
 65
   257
 75
     1
175
     1
 42
1.0
 92
        8
 66
     7
 43
1.0
 76
     1
 77
     6
 78
     2
 67
     7
 79
     5
170
     0
171
     0
290
     0
174
     0
 93
       13
 44
0.0
173
     0
291
     1
 45
0.0
1001
ACAD
1000
AcDbSavedByObjectVersion
1070
     0
  0
VISUALSTYLE
  5
2C
102
{ACAD_REACTORS
330
2A
102
}
330
2A
100
AcDbVisualStyle
  2
FlatWithEdges
 70
     1
 71
     2
 72
     1
 73
     1
 90
        2
 40
-0.6
 41
30.0
 62
     5
 63
     7
421
 16777215
 74
     1
 91
        4
 64
     7
 65
   257
 75
     1
175
     1
 42
1.0
 92
        0
 66
   257
 43
1.0
 76
     1
 77
     6
 78
     2
 67
     7
 79
     5
170
     0
171
     0
290
     0
174
     0
 93
       13
 44
0.0
173
     0
291
     1
 45
0.0
1001
ACAD
1000
AcDbSavedByObjectVersion
1070
     0
  0
VISUALSTYLE
  5
2D
102
{ACAD_REACTORS
330
2A
102
}
330
2A
100
AcDbVisualStyle
  2
Gouraud
 70
     2
 71
     2
 72
     2
 73
     1
 90
        2
 40
-0.6
 41
30.0
 62
     5
 63
     7
421
 16777215
 74
     0
 91
        4
 64
     7
 65
   257
 75
     1
175
     1
 42
1.0
 92
        0
 66
     7
 43
1.0
 76
     1
 77
     6
 78
     2
 67
     7
 79
     5
170
     0
171
     0
290
     0
174
     0
 93
       13
 44
0.0
173
     0
291
     1
 45
0.0
1001
ACAD
1000
AcDbSavedByObjectVersion
1070
     0
  0
VISUALSTYLE
  5
2E
102
{ACAD_REACTORS
330
2A
102
}
330
2A
100
AcDbVisualStyle
  2
GouraudWithEdges
 70
     3
 71
     2
 72
     2
 73
     1
 90
        2
 40
-0.6
 41
30.0
 62
     5
 63
     7
421
 16777215
 74
     1
 91
        4
 64
     7
 65
   257
 75
     1
175
     1
 42
1.0
 92
        0
 66
   257
 43
1.0
 76
     1
 77
     6
 78
     2
 67
     7
 79
     5
170
     0
171
     0
290
     0
174
     0
 93
       13
 44
0.0
173
     0
291
     1
 45
0.0
1001
ACAD
1000
AcDbSavedByObjectVersion
1070
     0
  0
VISUALSTYLE
  5
38
102
{ACAD_REACTORS
330
2A
102
}
330
2A
100
AcDbVisualStyle
  2
Linepattern
 70
    14
 71
     2
 72
     2
 73
     0
 90
        0
 40
-0.6
 41
-30.0
 62
     5
 63
     7
421
 16777215
 74
     1
 91
        4
 64
     7
 65
   257
 75
     7
175
     7
 42
1.0
 92
        8
 66
     7
 43
1.0
 76
     1
 77
     6
 78
     2
 67
     7
 79
     5
170
     0
171
     0
290
     0
174
     0
 93
        1
 44
0.0
173
     0
291
     1
 45
0.0
1001
ACAD
1000
AcDbSavedByObjectVersion
1070
     0
  0
VISUALSTYLE
  5
33
102
{ACAD_REACTORS
330
2A
102
}
330
2A
100
AcDbVisualStyle
  2
Realistic
 70
     8
 71
     2
 72
     2
 73
     0
 90
        0
 40
-0.6
 41
-30.0
 62
     5
 63
     7
421
 16777215
 74
     1
 91
        0
 64
     7
 65
   257
 75
     1
175
     1
 42
1.0
 92
        8
 66
     8
424
  7895160
 43
1.0
 76
     1
 77
     6
 78
     2
 67
     7
 79
     5
170
     0
171
     0
290
     0
174
     0
 93
       13
 44
0.0
173
     0
291
     0
 45
0.0
1001
ACAD
1000
AcDbSavedByObjectVersion
1070
     0
  0
VISUALSTYLE
  5
37
102
{ACAD_REACTORS
330
2A
102
}
330
2A
100
AcDbVisualStyle
  2
Thicken
 70
    13
 71
     2
 72
     2
 73
     0
 90
        0
 40
-0.6
 41
-30.0
 62
     5
 63
     7
421
 16777215
 74
     1
 91
        4
 64
     7
 65
   257
 75
     1
175
     1
 42
1.0
 92
       12
 66
     7
 43
1.0
 76
     1
 77
     6
 78
     2
 67
     7
 79
     5
170
     0
171
     0
290
     0
174
     0
 93
        1
 44
0.0
173
     0
291
     1
 45
0.0
1001
ACAD
1000
AcDbSavedByObjectVersion
1070
     0
  0
ENDSEC
  0
EOF
