  0
SECTION
  2
HEADER
  9
$ACADVER
  1
AC1018
  9
$ACADMAINTVER
 70
     0
  9
$DWGCODEPAGE
  3
ANSI_936
  9
$INSBASE
 10
0.0
 20
0.0
 30
0.0
  9
$EXTMIN
 10
16175.05195209413
 20
23582.13314555258
 30
0.0
  9
$EXTMAX
 10
16975.05195209414
 20
24072.13314555258
 30
0.0
  9
$LIMMIN
 10
0.0
 20
0.0
  9
$LIMMAX
 10
12.0
 20
9.0
  9
$ORTHOMODE
 70
     0
  9
$REGENMODE
 70
     1
  9
$FILLMODE
 70
     1
  9
$QTEXTMODE
 70
     0
  9
$MIRRTEXT
 70
     1
  9
$LTSCALE
 40
1.0
  9
$ATTMODE
 70
     1
  9
$TEXTSIZE
 40
0.2
  9
$TRACEWID
 40
0.05
  9
$TEXTSTYLE
  7
Standard
  9
$CLAYER
  8
0
  9
$CELTYPE
  6
ByLayer
  9
$CECOLOR
 62
   256
  9
$CELTSCALE
 40
1.0
  9
$DISPSILH
 70
     0
  9
$DIMSCALE
 40
1.0
  9
$DIMASZ
 40
0.18
  9
$DIMEXO
 40
0.0625
  9
$DIMDLI
 40
0.38
  9
$DIMRND
 40
0.0
  9
$DIMDLE
 40
0.0
  9
$DIMEXE
 40
0.18
  9
$DIMTP
 40
0.0
  9
$DIMTM
 40
0.0
  9
$DIMTXT
 40
0.18
  9
$DIMCEN
 40
0.09
  9
$DIMTSZ
 40
0.0
  9
$DIMTOL
 70
     0
  9
$DIMLIM
 70
     0
  9
$DIMTIH
 70
     1
  9
$DIMTOH
 70
     1
  9
$DIMSE1
 70
     0
  9
$DIMSE2
 70
     0
  9
$DIMTAD
 70
     0
  9
$DIMZIN
 70
     0
  9
$DIMBLK
  1

  9
$DIMASO
 70
     1
  9
$DIMSHO
 70
     1
  9
$DIMPOST
  1

  9
$DIMAPOST
  1

  9
$DIMALT
 70
     0
  9
$DIMALTD
 70
     2
  9
$DIMALTF
 40
25.4
  9
$DIMLFAC
 40
1.0
  9
$DIMTOFL
 70
     0
  9
$DIMTVP
 40
0.0
  9
$DIMTIX
 70
     0
  9
$DIMSOXD
 70
     0
  9
$DIMSAH
 70
     0
  9
$DIMBLK1
  1

  9
$DIMBLK2
  1

  9
$DIMSTYLE
  2
Standard
  9
$DIMCLRD
 70
     0
  9
$DIMCLRE
 70
     0
  9
$DIMCLRT
 70
     0
  9
$DIMTFAC
 40
1.0
  9
$DIMGAP
 40
0.09
  9
$DIMJUST
 70
     0
  9
$DIMSD1
 70
     0
  9
$DIMSD2
 70
     0
  9
$DIMTOLJ
 70
     1
  9
$DIMTZIN
 70
     0
  9
$DIMALTZ
 70
     0
  9
$DIMALTTZ
 70
     0
  9
$DIMUPT
 70
     0
  9
$DIMDEC
 70
     4
  9
$DIMTDEC
 70
     4
  9
$DIMALTU
 70
     2
  9
$DIMALTTD
 70
     2
  9
$DIMTXSTY
  7
Standard
  9
$DIMAUNIT
 70
     0
  9
$DIMADEC
 70
     0
  9
$DIMALTRND
 40
0.0
  9
$DIMAZIN
 70
     0
  9
$DIMDSEP
 70
    46
  9
$DIMATFIT
 70
     3
  9
$DIMFRAC
 70
     0
  9
$DIMLDRBLK
  1

  9
$DIMLUNIT
 70
     2
  9
$DIMLWD
 70
    -2
  9
$DIMLWE
 70
    -2
  9
$DIMTMOVE
 70
     2
  9
$LUNITS
 70
     2
  9
$LUPREC
 70
     2
  9
$SKETCHINC
 40
0.1
  9
$FILLETRAD
 40
0.5
  9
$AUNITS
 70
     0
  9
$AUPREC
 70
     0
  9
$MENU
  1
.
  9
$ELEVATION
 40
0.0
  9
$PELEVATION
 40
0.0
  9
$THICKNESS
 40
0.0
  9
$LIMCHECK
 70
     0
  9
$CHAMFERA
 40
0.5
  9
$CHAMFERB
 40
0.5
  9
$CHAMFERC
 40
1.0
  9
$CHAMFERD
 40
0.0
  9
$SKPOLY
 70
     0
  9
$TDCREATE
 40
2456436.050489537
  9
$TDUCREATE
 40
2456435.967156204
  9
$TDUPDATE
 40
2456436.050489549
  9
$TDUUPDATE
 40
2456435.967156215
  9
$TDINDWG
 40
0.0000000116
  9
$TDUSRTIMER
 40
0.0000000116
  9
$USRTIMER
 70
     1
  9
$ANGBASE
 50
0.0
  9
$ANGDIR
 70
     0
  9
$PDMODE
 70
     0
  9
$PDSIZE
 40
0.0
  9
$PLINEWID
 40
0.0
  9
$SPLFRAME
 70
     0
  9
$SPLINETYPE
 70
     6
  9
$SPLINESEGS
 70
     8
  9
$HANDSEED
  5
7D
  9
$SURFTAB1
 70
     6
  9
$SURFTAB2
 70
     6
  9
$SURFTYPE
 70
     6
  9
$SURFU
 70
     6
  9
$SURFV
 70
     6
  9
$UCSBASE
  2

  9
$UCSNAME
  2

  9
$UCSORG
 10
0.0
 20
0.0
 30
0.0
  9
$UCSXDIR
 10
1.0
 20
0.0
 30
0.0
  9
$UCSYDIR
 10
0.0
 20
1.0
 30
0.0
  9
$UCSORTHOREF
  2

  9
$UCSORTHOVIEW
 70
     0
  9
$UCSORGTOP
 10
0.0
 20
0.0
 30
0.0
  9
$UCSORGBOTTOM
 10
0.0
 20
0.0
 30
0.0
  9
$UCSORGLEFT
 10
0.0
 20
0.0
 30
0.0
  9
$UCSORGRIGHT
 10
0.0
 20
0.0
 30
0.0
  9
$UCSORGFRONT
 10
0.0
 20
0.0
 30
0.0
  9
$UCSORGBACK
 10
0.0
 20
0.0
 30
0.0
  9
$PUCSBASE
  2

  9
$PUCSNAME
  2

  9
$PUCSORG
 10
0.0
 20
0.0
 30
0.0
  9
$PUCSXDIR
 10
1.0
 20
0.0
 30
0.0
  9
$PUCSYDIR
 10
0.0
 20
1.0
 30
0.0
  9
$PUCSORTHOREF
  2

  9
$PUCSORTHOVIEW
 70
     0
  9
$PUCSORGTOP
 10
0.0
 20
0.0
 30
0.0
  9
$PUCSORGBOTTOM
 10
0.0
 20
0.0
 30
0.0
  9
$PUCSORGLEFT
 10
0.0
 20
0.0
 30
0.0
  9
$PUCSORGRIGHT
 10
0.0
 20
0.0
 30
0.0
  9
$PUCSORGFRONT
 10
0.0
 20
0.0
 30
0.0
  9
$PUCSORGBACK
 10
0.0
 20
0.0
 30
0.0
  9
$USERI1
 70
     0
  9
$USERI2
 70
     0
  9
$USERI3
 70
     0
  9
$USERI4
 70
     0
  9
$USERI5
 70
     0
  9
$USERR1
 40
0.0
  9
$USERR2
 40
0.0
  9
$USERR3
 40
0.0
  9
$USERR4
 40
0.0
  9
$USERR5
 40
0.0
  9
$WORLDVIEW
 70
     1
  9
$SHADEDGE
 70
     3
  9
$SHADEDIF
 70
    70
  9
$TILEMODE
 70
     1
  9
$MAXACTVP
 70
    64
  9
$PINSBASE
 10
0.0
 20
0.0
 30
0.0
  9
$PLIMCHECK
 70
     0
  9
$PEXTMIN
 10
1.000000000000000E+20
 20
1.000000000000000E+20
 30
1.000000000000000E+20
  9
$PEXTMAX
 10
-1.000000000000000E+20
 20
-1.000000000000000E+20
 30
-1.000000000000000E+20
  9
$PLIMMIN
 10
0.0
 20
0.0
  9
$PLIMMAX
 10
12.0
 20
9.0
  9
$UNITMODE
 70
     0
  9
$VISRETAIN
 70
     1
  9
$PLINEGEN
 70
     0
  9
$PSLTSCALE
 70
     1
  9
$TREEDEPTH
 70
  3020
  9
$CMLSTYLE
  2
Standard
  9
$CMLJUST
 70
     0
  9
$CMLSCALE
 40
1.0
  9
$PROXYGRAPHICS
 70
     1
  9
$MEASUREMENT
 70
     0
  9
$CELWEIGHT
370
    -1
  9
$ENDCAPS
280
     0
  9
$JOINSTYLE
280
     0
  9
$LWDISPLAY
290
     0
  9
$INSUNITS
 70
     4
  9
$HYPERLINKBASE
  1

  9
$STYLESHEET
  1

  9
$XEDIT
290
     1
  9
$CEPSNTYPE
380
     0
  9
$PSTYLEMODE
290
     1
  9
$FINGERPRINTGUID
  2
{2D48BA51-E537-4D79-8312-C7F0CD0FBC29}
  9
$VERSIONGUID
  2
{FAEB1C32-E019-11D5-929B-00C0DF256EC4}
  9
$EXTNAMES
290
     1
  9
$PSVPSCALE
 40
0.0
  9
$OLESTARTUP
290
     0
  9
$SORTENTS
280
   127
  9
$INDEXCTL
280
     0
  9
$HIDETEXT
280
     1
  9
$XCLIPFRAME
290
     0
  9
$HALOGAP
280
     0
  9
$OBSCOLOR
 70
   257
  9
$OBSLTYPE
280
     0
  9
$INTERSECTIONDISPLAY
280
     0
  9
$INTERSECTIONCOLOR
 70
   257
  9
$DIMASSOC
280
     2
  9
$PROJECTNAME
  1

  0
ENDSEC
  0
SECTION
  2
CLASSES
  0
CLASS
  1
ACDBDICTIONARYWDFLT
  2
AcDbDictionaryWithDefault
  3
ObjectDBX Classes
 90
        0
 91
        4
280
     0
281
     0
  0
CLASS
  1
VISUALSTYLE
  2
AcDbVisualStyle
  3
ObjectDBX Classes
 90
     4095
 91
        4
280
     0
281
     0
  0
ENDSEC
  0
SECTION
  2
TABLES
  0
TABLE
  2
VPORT
  5
8
330
0
100
AcDbSymbolTable
 70
     1
  0
VPORT
  5
29
330
8
100
AcDbSymbolTableRecord
100
AcDbViewportTableRecord
  2
*Active
 70
     0
 10
0.0
 20
0.0
 11
1.0
 21
1.0
 12
16575.05195209413
 22
23827.13314555258
 13
0.0
 23
0.0
 14
0.5
 24
0.5
 15
0.5
 25
0.5
 16
0.0
 26
0.0
 36
1.0
 17
0.0
 27
0.0
 37
0.0
 40
499.8
 41
1.632653061224504
 42
50.0
 43
0.0
 44
0.0
 50
0.0
 51
0.0
 71
     0
 72
   100
 73
     1
 74
     3
 75
     0
 76
     0
 77
     0
 78
     0
281
     0
 65
     1
110
0.0
120
0.0
130
0.0
111
1.0
121
0.0
131
0.0
112
0.0
122
1.0
132
0.0
 79
     0
146
0.0
  0
ENDTAB
  0
TABLE
  2
LTYPE
  5
5
330
0
100
AcDbSymbolTable
 70
     1
  0
LTYPE
  5
14
330
5
100
AcDbSymbolTableRecord
100
AcDbLinetypeTableRecord
  2
ByBlock
 70
     0
  3

 72
    65
 73
     0
 40
0.0
  0
LTYPE
  5
15
330
5
100
AcDbSymbolTableRecord
100
AcDbLinetypeTableRecord
  2
ByLayer
 70
     0
  3

 72
    65
 73
     0
 40
0.0
  0
LTYPE
  5
16
330
5
100
AcDbSymbolTableRecord
100
AcDbLinetypeTableRecord
  2
Continuous
 70
     0
  3
Solid line
 72
    65
 73
     0
 40
0.0
  0
ENDTAB
  0
TABLE
  2
LAYER
  5
2
330
0
100
AcDbSymbolTable
 70
     2
  0
LAYER
  5
10
330
2
100
AcDbSymbolTableRecord
100
AcDbLayerTableRecord
  2
0
 70
     0
 62
     7
  6
Continuous
370
    -3
390
F
  0
LAYER
  5
3B
330
2
100
AcDbSymbolTableRecord
100
AcDbLayerTableRecord
  2
MAKE2D VISIBLE LINES
 70
     0
 62
     7
  6
Continuous
370
    -3
390
F
  0
ENDTAB
  0
TABLE
  2
STYLE
  5
3
330
0
100
AcDbSymbolTable
 70
     1
  0
STYLE
  5
11
330
3
100
AcDbSymbolTableRecord
100
AcDbTextStyleTableRecord
  2
Standard
 70
     0
 40
0.0
 41
1.0
 50
0.0
 71
     0
 42
0.2
  3
txt
  4

  0
ENDTAB
  0
TABLE
  2
VIEW
  5
6
330
0
100
AcDbSymbolTable
 70
     0
  0
ENDTAB
  0
TABLE
  2
UCS
  5
7
330
0
100
AcDbSymbolTable
 70
     0
  0
ENDTAB
  0
TABLE
  2
APPID
  5
9
330
0
100
AcDbSymbolTable
 70
     1
  0
APPID
  5
12
330
9
100
AcDbSymbolTableRecord
100
AcDbRegAppTableRecord
  2
ACAD
 70
     0
  0
ENDTAB
  0
TABLE
  2
DIMSTYLE
  5
A
330
0
100
AcDbSymbolTable
 70
     1
100
AcDbDimStyleTable
  0
DIMSTYLE
105
27
330
A
100
AcDbSymbolTableRecord
100
AcDbDimStyleTableRecord
  2
Standard
 70
     0
340
11
  0
ENDTAB
  0
TABLE
  2
BLOCK_RECORD
  5
1
330
0
100
AcDbSymbolTable
 70
     1
  0
BLOCK_RECORD
  5
1F
330
1
100
AcDbSymbolTableRecord
100
AcDbBlockTableRecord
  2
*Model_Space
340
22
  0
BLOCK_RECORD
  5
1B
330
1
100
AcDbSymbolTableRecord
100
AcDbBlockTableRecord
  2
*Paper_Space
340
1E
  0
BLOCK_RECORD
  5
23
330
1
100
AcDbSymbolTableRecord
100
AcDbBlockTableRecord
  2
*Paper_Space0
340
26
  0
ENDTAB
  0
ENDSEC
  0
SECTION
  2
BLOCKS
  0
BLOCK
  5
20
330
1F
100
AcDbEntity
  8
0
100
AcDbBlockBegin
  2
*Model_Space
 70
     0
 10
0.0
 20
0.0
 30
0.0
  3
*Model_Space
  1

  0
ENDBLK
  5
21
330
1F
100
AcDbEntity
  8
0
100
AcDbBlockEnd
  0
BLOCK
  5
1C
330
1B
100
AcDbEntity
 67
     1
  8
0
100
AcDbBlockBegin
  2
*Paper_Space
 70
     0
 10
0.0
 20
0.0
 30
0.0
  3
*Paper_Space
  1

  0
ENDBLK
  5
1D
330
1B
100
AcDbEntity
 67
     1
  8
0
100
AcDbBlockEnd
  0
BLOCK
  5
24
330
23
100
AcDbEntity
  8
0
100
AcDbBlockBegin
  2
*Paper_Space0
 70
     0
 10
0.0
 20
0.0
 30
0.0
  3
*Paper_Space0
  1

  0
ENDBLK
  5
25
330
23
100
AcDbEntity
  8
0
100
AcDbBlockEnd
  0
ENDSEC
  0
SECTION
  2
ENTITIES
  0
SPLINE
  5
3C
330
1F
100
AcDbEntity
  8
MAKE2D VISIBLE LINES
100
AcDbSpline
210
0.0
220
0.0
230
1.0
 70
    12
 71
     2
 72
     6
 73
     3
 74
     0
 42
0.0000000001
 43
0.0000000001
 40
0.0
 40
0.0
 40
0.0
 40
0.3790371929464497
 40
0.3790371929464497
 40
0.3790371929464497
 10
16230.62401367547
 20
23921.53173739344
 30
0.0
 41
1.0
 10
16230.62573495236
 20
23921.3422084538
 30
0.0
 41
0.9998562935477714
 10
16230.63388035099
 20
23921.15284680446
 30
0.0
 41
1.0
  0
SPLINE
  5
3D
330
1F
100
AcDbEntity
  8
MAKE2D VISIBLE LINES
100
AcDbSpline
210
0.0
220
0.0
230
1.0
 70
    12
 71
     2
 72
     6
 73
     3
 74
     0
 42
0.0000000001
 43
0.0000000001
 40
0.0
 40
0.0
 40
0.0
 40
0.4159146587895034
 40
0.4159146587895034
 40
0.4159146587895034
 10
16828.9755297751
 20
23921.65222136952
 30
0.0
 41
1.0
 10
16828.76778460266
 20
23921.64246661745
 30
0.0
 41
0.9998792972958215
 10
16828.55983664793
 20
23921.6391711684
 30
0.0
 41
1.0
  0
SPLINE
  5
3E
330
1F
100
AcDbEntity
  8
MAKE2D VISIBLE LINES
100
AcDbSpline
210
0.0
220
0.0
230
1.0
 70
    12
 71
     2
 72
    40
 73
    37
 74
     0
 42
0.0000000001
 43
0.0000000001
 40
0.0
 40
0.0
 40
0.0
 40
0.1920293255581564
 40
0.1920293255581564
 40
0.9595895416679203
 40
0.9595895416679203
 40
1.727685442048932
 40
1.727685442048932
 40
2.495855623029485
 40
2.495855623029485
 40
4.032813921357493
 40
4.032813921357493
 40
4.799632975168326
 40
4.799632975168326
 40
5.183878199414255
 40
5.183878199414255
 40
5.375712175047348
 40
5.375712175047348
 40
5.471668170130543
 40
5.471668170130543
 40
5.519736718967006
 40
5.519736718967006
 40
5.568029287122381
 40
5.568029287122381
 40
6.336290027952027
 40
6.336290027952027
 40
6.528046244895786
 40
6.528046244895786
 40
6.576865680876263
 40
6.576865680876263
 40
6.624005053980336
 40
6.624005053980336
 40
7.969549268446253
 40
7.969549268446253
 40
8.54511005203528
 40
8.54511005203528
 40
10.16997571811077
 40
10.16997571811077
 40
10.16997571811077
 10
16231.27189897949
 20
23921.55508669688
 30
0.0
 41
1.0
 10
16231.36785817404
 20
23921.55835019159
 30
0.0
 41
0.9999998416162039
 10
16231.46382098132
 20
23921.56150566853
 30
0.0
 41
1.0
 10
16231.84739825126
 20
23921.57400695059
 30
0.0
 41
0.9999967780811038
 10
16232.23103404584
 20
23921.58456067942
 30
0.0
 41
1.0
 10
16232.61493773606
 20
23921.59511833176
 30
0.0
 41
0.9999965455692962
 10
16232.99889162234
 20
23921.60365768726
 30
0.0
 41
1.0
 10
16233.38288282369
 20
23921.61218952691
 30
0.0
 41
0.9999965516870559
 10
16233.76691354004
 20
23921.61870442613
 30
0.0
 41
1.0
 10
16234.53528972968
 20
23921.63172915056
 30
0.0
 41
0.9999855103648826
 10
16235.30376161357
 20
23921.63648056343
 30
0.0
 41
1.0
 10
16235.68716472865
 20
23921.63886016542
 30
0.0
 41
0.9999961947924644
 10
16236.07057513717
 20
23921.63912435438
 30
0.0
 41
1.0
 10
16236.26269773907
 20
23921.63920172351
 30
0.0
 41
0.999999958222892
 10
16236.45482035359
 20
23921.63916802368
 30
0.0
 41
1.0
 10
16236.55073734131
 20
23921.6391731966
 30
0.0
 41
0.9999999992486162
 10
16236.64665432915
 20
23921.63917093298
 30
0.0
 41
1.0
 10
16236.69463232669
 20
23921.63917130324
 30
0.0
 41
0.9999999999845665
 10
16236.74261032423
 20
23921.6391711404
 30
0.0
 41
1.0
 10
16236.76664459865
 20
23921.63917116965
 30
0.0
 41
0.9999999999996126
 10
16236.79067887307
 20
23921.6391711566
 30
0.0
 41
1.0
 10
16236.81482515715
 20
23921.63917115939
 30
0.0
 41
0.9999999999999966
 10
16236.83897144122
 20
23921.63917115813
 30
0.0
 41
1.0
 10
16237.22310181164
 20
23921.63917110558
 30
0.0
 41
1.0
 10
16237.60723218205
 20
23921.63917110583
 30
0.0
 41
1.0
 10
16237.70311029052
 20
23921.63917110534
 30
0.0
 41
1.0
 10
16237.798988399
 20
23921.63917110535
 30
0.0
 41
1.0
 10
16237.82339811699
 20
23921.63917116493
 30
0.0
 41
1.0
 10
16237.84780783498
 20
23921.63917116492
 30
0.0
 41
1.0
 10
16237.87137752153
 20
23921.63917116494
 30
0.0
 41
1.0
 10
16237.89494720808
 20
23921.63917116495
 30
0.0
 41
1.0
 10
16238.56771931531
 20
23921.63917086687
 30
0.0
 41
1.0
 10
16239.24049142255
 20
23921.63917086684
 30
0.0
 41
1.0
 10
16239.52827181434
 20
23921.63917134377
 30
0.0
 41
1.0
 10
16239.81605220614
 20
23921.63917134379
 30
0.0
 41
1.0
 10
16240.62848503917
 20
23921.63917086697
 30
0.0
 41
1.0
 10
16241.44091787221
 20
23921.63917086703
 30
0.0
 41
1.0
  0
SPLINE
  5
3F
330
1F
100
AcDbEntity
  8
MAKE2D VISIBLE LINES
100
AcDbSpline
210
0.0
220
0.0
230
1.0
 70
    12
 71
     2
 72
     6
 73
     3
 74
     0
 42
0.0000000001
 43
0.0000000001
 40
0.0
 40
0.0
 40
0.0
 40
0.3790469023659009
 40
0.3790469023659009
 40
0.3790469023659009
 10
16919.47002352452
 20
23921.15283715381
 30
0.0
 41
1.0
 10
16919.47816914009
 20
23921.34220365301
 30
0.0
 41
0.9998562972327738
 10
16919.47989055179
 20
23921.53173744634
 30
0.0
 41
1.0
  0
SPLINE
  5
40
330
1F
100
AcDbEntity
  8
MAKE2D VISIBLE LINES
100
AcDbSpline
210
0.0
220
0.0
230
1.0
 70
    12
 71
     3
 72
    59
 73
    55
 74
     0
 42
0.0000000001
 43
0.0000000001
 40
0.0
 40
0.0
 40
0.0
 40
0.0
 40
0.1920293255546409
 40
0.1920293255546409
 40
0.1920293255546409
 40
0.9595895416660838
 40
0.9595895416660838
 40
0.9595895416660838
 40
1.727685442045377
 40
1.727685442045377
 40
1.727685442045377
 40
2.495855623027914
 40
2.495855623027914
 40
2.495855623027914
 40
4.032813921357856
 40
4.032813921357856
 40
4.032813921357856
 40
4.799632975172345
 40
4.799632975172345
 40
4.799632975172345
 40
5.183878199416455
 40
5.183878199416455
 40
5.183878199416455
 40
5.375712175040453
 40
5.375712175040453
 40
5.375712175040453
 40
5.471668170130924
 40
5.471668170130924
 40
5.471668170130924
 40
5.519736718960111
 40
5.519736718960111
 40
5.519736718960111
 40
5.568029287122762
 40
5.568029287122762
 40
5.568029287122762
 40
6.336290027954227
 40
6.336290027954227
 40
6.336290027954227
 40
6.528046244052177
 40
6.528046244052177
 40
6.528046244052177
 40
6.576865680027197
 40
6.576865680027197
 40
6.576865680027197
 40
6.624005053144003
 40
6.624005053144003
 40
6.624005053144003
 40
7.969549267606283
 40
7.969549267606283
 40
7.969549267606283
 40
8.545110051204404
 40
8.545110051204404
 40
8.545110051204404
 40
10.16997571727808
 40
10.16997571727808
 40
10.16997571727808
 40
10.16997571727808
 10
16918.83200520873
 20
23921.55508669694
 30
0.0
 41
1.0
 10
16918.76803241575
 20
23921.55726235997
 30
0.0
 41
0.9999998944108112
 10
16918.70405840838
 20
23921.55940201741
 30
0.0
 41
0.9999998944108115
 10
16918.64008320691
 20
23921.5615056686
 30
0.0
 41
1.0
 10
16918.38436530158
 20
23921.56983984768
 30
0.0
 41
0.9999978520541448
 10
16918.1286270641
 20
23921.57752486782
 30
0.0
 41
0.9999978520541447
 10
16917.87287014239
 20
23921.58456067948
 30
0.0
 41
1.0
 10
16917.61693464362
 20
23921.59159910631
 30
0.0
 41
0.999997697045937
 10
16917.36098152867
 20
23921.59796479026
 30
0.0
 41
0.9999976970459373
 10
16917.10501256589
 20
23921.60365768733
 30
0.0
 41
1.0
 10
16916.8490187259
 20
23921.6093455739
 30
0.0
 41
0.9999977011246435
 10
16916.59301083146
 20
23921.61436116505
 30
0.0
 41
0.9999977011246434
 10
16916.33699064819
 20
23921.6187044262
 30
0.0
 41
1.0
 10
16915.82474232923
 20
23921.62738753391
 30
0.0
 41
0.9999903402430512
 10
16915.31245468948
 20
23921.63331297025
 30
0.0
 41
0.9999903402430518
 10
16914.80014257466
 20
23921.6364805635
 30
0.0
 41
1.0
 10
16914.54454082214
 20
23921.63806696282
 30
0.0
 41
0.999997463194924
 10
16914.28893566585
 20
23921.63894822871
 30
0.0
 41
0.9999974631949241
 10
16914.03332905105
 20
23921.63912435445
 30
0.0
 41
1.0
 10
16913.90524731823
 20
23921.63917593386
 30
0.0
 41
0.9999999721485975
 10
16913.77716557586
 20
23921.6391904903
 30
0.0
 41
0.9999999721485976
 10
16913.64908383464
 20
23921.63916802375
 30
0.0
 41
1.0
 10
16913.58513917618
 20
23921.63917147237
 30
0.0
 41
0.9999999994990769
 10
16913.52119451762
 20
23921.63917244214
 30
0.0
 41
0.9999999994990768
 10
16913.45724985908
 20
23921.63917093305
 30
0.0
 41
1.0
 10
16913.42526452738
 20
23921.63917117989
 30
0.0
 41
0.9999999999897107
 10
16913.39327919569
 20
23921.63917124903
 30
0.0
 41
0.9999999999897108
 10
16913.36129386399
 20
23921.63917114046
 30
0.0
 41
1.0
 10
16913.34527101438
 20
23921.63917115999
 30
0.0
 41
0.9999999999997409
 10
16913.32924816478
 20
23921.63917116539
 30
0.0
 41
0.9999999999997412
 10
16913.31322531516
 20
23921.63917115667
 30
0.0
 41
1.0
 10
16913.29712779244
 20
23921.63917115852
 30
0.0
 41
0.9999999999999978
 10
16913.28103026972
 20
23921.63917115903
 30
0.0
 41
0.9999999999999979
 10
16913.264932747
 20
23921.63917115819
 30
0.0
 41
1.0
 10
16913.00884583339
 20
23921.63917112312
 30
0.0
 41
1.0
 10
16912.75275891978
 20
23921.63917110566
 30
0.0
 41
1.0
 10
16912.49667200617
 20
23921.63917110582
 30
0.0
 41
1.0
 10
16912.43275326668
 20
23921.63917115834
 30
0.0
 41
1.0
 10
16912.36883452766
 20
23921.63917115834
 30
0.0
 41
1.0
 10
16912.30491578924
 20
23921.63917115835
 30
0.0
 41
1.0
 10
16912.28864264391
 20
23921.63917115747
 30
0.0
 41
0.9999999999999999
 10
16912.27236949859
 20
23921.63917115746
 30
0.0
 41
1.0
 10
16912.25609635326
 20
23921.63917115745
 30
0.0
 41
1.0
 10
16912.24038322889
 20
23921.63917116493
 30
0.0
 41
1.0
 10
16912.22467010452
 20
23921.63917116492
 30
0.0
 41
1.0
 10
16912.20895698015
 20
23921.63917116492
 30
0.0
 41
1.0
 10
16911.76044224199
 20
23921.63917277426
 30
0.0
 41
1.0
 10
16911.31192750384
 20
23921.63917277427
 30
0.0
 41
0.9999999999999998
 10
16910.86341276568
 20
23921.63917277428
 30
0.0
 41
1.0
 10
16910.67155917115
 20
23921.63917134376
 30
0.0
 41
0.9999999999999998
 10
16910.47970557662
 20
23921.63917134378
 30
0.0
 41
1.0
 10
16910.28785198209
 20
23921.6391713438
 30
0.0
 41
1.0
 10
16909.74623009339
 20
23921.63917277427
 30
0.0
 41
1.0
 10
16909.20460820471
 20
23921.63917277428
 30
0.0
 41
1.0
 10
16908.66298631601
 20
23921.63917277429
 30
0.0
 41
1.0
  0
SPLINE
  5
41
330
1F
100
AcDbEntity
  8
MAKE2D VISIBLE LINES
100
AcDbSpline
210
0.0
220
0.0
230
1.0
 70
    12
 71
     2
 72
     6
 73
     3
 74
     0
 42
0.0000000001
 43
0.0000000001
 40
0.0
 40
0.0
 40
0.0
 40
0.4527638289284678
 40
0.4527638289284678
 40
0.4527638289284678
 10
16731.52375962159
 20
23921.63917116956
 30
0.0
 41
1.0
 10
16731.2973483785
 20
23921.64163686095
 30
0.0
 41
0.999716788709737
 10
16731.07131091153
 20
23921.65487295393
 30
0.0
 41
1.0
  0
SPLINE
  5
42
330
1F
100
AcDbEntity
  8
MAKE2D VISIBLE LINES
100
AcDbSpline
210
0.0
220
0.0
230
1.0
 70
    12
 71
     2
 72
     6
 73
     3
 74
     0
 42
0.0000000001
 43
0.0000000001
 40
0.0
 40
0.0
 40
0.0
 40
199.991217851431
 40
199.991217851431
 40
199.991217851431
 10
16875.05187286935
 20
23922.10238383383
 30
0.0
 41
1.0
 10
16775.05626394364
 20
23922.10238400683
 30
0.0
 41
1.0
 10
16675.05630355547
 20
23922.10238621415
 30
0.0
 41
1.0
  0
SPLINE
  5
43
330
1F
100
AcDbEntity
  8
MAKE2D VISIBLE LINES
100
AcDbSpline
210
0.0
220
0.0
230
1.0
 70
    24
 71
     2
 72
     6
 73
     3
 74
     0
 42
0.0000000001
 43
0.0000000001
 40
0.0
 40
0.0
 40
0.0
 40
0.4627607100886867
 40
0.4627607100886867
 40
0.4627607100886867
 10
16675.05630355547
 20
23922.10238621415
 30
0.0
 10
16675.04977217374
 20
23921.87105482923
 30
0.0
 10
16675.04324079201
 20
23921.63972344431
 30
0.0
  0
SPLINE
  5
44
330
1F
100
AcDbEntity
  8
MAKE2D VISIBLE LINES
100
AcDbSpline
210
0.0
220
0.0
230
1.0
 70
    12
 71
     2
 72
     6
 73
     3
 74
     0
 42
0.0000000001
 43
0.0000000001
 40
0.0
 40
0.0
 40
0.0
 40
199.994734247527
 40
199.994734247527
 40
199.994734247527
 10
16675.04324079201
 20
23921.63972344431
 30
0.0
 41
1.0
 10
16575.04587366859
 20
23921.63946815346
 30
0.0
 41
1.0
 10
16475.0485065452
 20
23921.63919895746
 30
0.0
 41
1.0
  0
SPLINE
  5
45
330
1F
100
AcDbEntity
  8
MAKE2D VISIBLE LINES
100
AcDbSpline
210
0.0
220
0.0
230
1.0
 70
    12
 71
     2
 72
     6
 73
     3
 74
     0
 42
0.0000000001
 43
0.0000000001
 40
0.0
 40
0.0
 40
0.0
 40
0.4902421333338725
 40
0.4902421333338725
 40
0.4902421333338725
 10
16816.04194599692
 20
23916.76527731174
 30
0.0
 41
1.0
 10
16815.81957080349
 20
23916.65067134676
 30
0.0
 41
0.9699948990210719
 10
16815.56942877562
 20
23916.65444268579
 30
0.0
 41
0.9999998923451133
  0
SPLINE
  5
46
330
1F
100
AcDbEntity
  8
MAKE2D VISIBLE LINES
100
AcDbSpline
210
0.0
220
0.0
230
1.0
 70
    12
 71
     2
 72
     8
 73
     5
 74
     0
 42
0.0000000001
 43
0.0000000001
 40
0.0
 40
0.0
 40
0.0
 40
35.51747668157611
 40
35.51747668157611
 40
71.03875482837964
 40
71.03875482837964
 40
71.03875482837964
 10
16815.56942877562
 20
23916.65444268579
 30
0.0
 41
1.0
 10
16797.8106904348
 20
23916.65439720097
 30
0.0
 41
1.0
 10
16780.05195209401
 20
23916.654408615
 30
0.0
 41
1.0
 10
16762.29131303926
 20
23916.65521986975
 30
0.0
 41
1.0
 10
16744.53067398017
 20
23916.65593915947
 30
0.0
 41
1.0
  0
SPLINE
  5
47
330
1F
100
AcDbEntity
  8
MAKE2D VISIBLE LINES
100
AcDbSpline
210
0.0
220
0.0
230
1.0
 70
     8
 71
     3
 72
    11
 73
     7
 74
     0
 42
0.0000000001
 43
0.0000000001
 40
0.0
 40
0.0
 40
0.0
 40
0.0
 40
0.1272113779438084
 40
0.2573522243045559
 40
0.4637689719487904
 40
0.5090733852530166
 40
0.5090733852530166
 40
0.5090733852530166
 40
0.5090733852530166
 10
16744.53067398017
 20
23916.65593915947
 30
0.0
 10
16744.48819785485
 20
23916.65493586304
 30
0.0
 10
16744.40247195078
 20
23916.65500702449
 30
0.0
 10
16744.24903875932
 20
23916.67962164119
 30
0.0
 10
16744.12885638696
 20
23916.72253517689
 30
0.0
 10
16744.05082281335
 20
23916.75295712189
 30
0.0
 10
16744.04194599692
 20
23916.76680604634
 30
0.0
  0
SPLINE
  5
48
330
1F
100
AcDbEntity
  8
MAKE2D VISIBLE LINES
100
AcDbSpline
210
0.0
220
0.0
230
1.0
 70
    12
 71
     2
 72
     6
 73
     3
 74
     0
 42
0.0000000001
 43
0.0000000001
 40
-200.0052572761324
 40
-200.0052572761324
 40
-200.0052572761324
 40
0.0
 40
0.0
 40
0.0
 10
16475.05539774268
 20
23922.10239493645
 30
0.0
 41
1.0
 10
16575.05802638034
 20
23922.10266404334
 30
0.0
 41
1.0
 10
16675.06065501801
 20
23922.10292977621
 30
0.0
 41
1.0
  0
SPLINE
  5
49
330
1F
100
AcDbEntity
  8
MAKE2D VISIBLE LINES
100
AcDbSpline
210
0.0
220
0.0
230
1.0
 70
    12
 71
     2
 72
     6
 73
     3
 74
     0
 42
0.0000000001
 43
0.0000000001
 40
0.0
 40
0.0
 40
0.0
 40
4.999910844866676
 40
4.999910844866676
 40
4.999910844866676
 10
16675.06065501801
 20
23922.10292977621
 30
0.0
 41
0.9999999999998892
 10
16675.06218217272
 20
23924.60288318205
 30
0.0
 41
0.9999999178730248
 10
16675.06168295084
 20
23927.10285455979
 30
0.0
 41
1.0
  0
SPLINE
  5
4A
330
1F
100
AcDbEntity
  8
MAKE2D VISIBLE LINES
100
AcDbSpline
210
0.0
220
0.0
230
1.0
 70
    12
 71
     2
 72
     6
 73
     3
 74
     0
 42
0.0000000001
 43
0.0000000001
 40
0.0
 40
0.0
 40
0.0
 40
200.0051920484425
 40
200.0051920484425
 40
200.0051920484425
 10
16675.06168295084
 20
23927.10285455979
 30
0.0
 41
1.0
 10
16575.05908692695
 20
23927.10260303113
 30
0.0
 41
1.0
 10
16475.05649090311
 20
23927.10233394719
 30
0.0
 41
1.0
  0
SPLINE
  5
4B
330
1F
100
AcDbEntity
  8
MAKE2D VISIBLE LINES
100
AcDbSpline
210
0.0
220
0.0
230
1.0
 70
    24
 71
     2
 72
     6
 73
     3
 74
     0
 42
0.0000000001
 43
0.0000000001
 40
0.0
 40
0.0
 40
0.0
 40
56.17680562812643
 40
56.17680562812643
 40
56.17680562812643
 10
16731.22875760407
 20
23921.63917116955
 30
0.0
 10
16703.14035479001
 20
23921.63917116708
 30
0.0
 10
16675.05195197595
 20
23921.63917116462
 30
0.0
  0
SPLINE
  5
4C
330
1F
100
AcDbEntity
  8
MAKE2D VISIBLE LINES
100
AcDbSpline
210
0.0
220
0.0
230
1.0
 70
    24
 71
     2
 72
     6
 73
     3
 74
     0
 42
0.0000000001
 43
0.0000000001
 40
0.0
 40
0.0
 40
0.0
 40
0.0320613994335881
 40
0.0320613994335881
 40
0.0320613994335881
 10
16675.05195197595
 20
23921.63917116462
 30
0.0
 10
16675.0518084329
 20
23921.62314046488
 30
0.0
 10
16675.05166488985
 20
23921.60710976514
 30
0.0
  0
SPLINE
  5
4D
330
1F
100
AcDbEntity
  8
MAKE2D VISIBLE LINES
100
AcDbSpline
210
0.0
220
0.0
230
1.0
 70
    12
 71
     2
 72
     6
 73
     3
 74
     0
 42
0.0000000001
 43
0.0000000001
 40
0.0
 40
0.0
 40
0.0
 40
5.280554277146186
 40
5.280554277146186
 40
5.280554277146186
 10
16675.05166488985
 20
23921.60710976514
 30
0.0
 41
1.0
 10
16675.04160402987
 20
23918.9668626419
 30
0.0
 41
0.9999983790754297
 10
16675.04133787641
 20
23916.32659744172
 30
0.0
 41
0.9999999999818548
  0
SPLINE
  5
4E
330
1F
100
AcDbEntity
  8
MAKE2D VISIBLE LINES
100
AcDbSpline
210
0.0
220
0.0
230
1.0
 70
    12
 71
     2
 72
     6
 73
     3
 74
     0
 42
0.0000000001
 43
0.0000000001
 40
0.0
 40
0.0
 40
0.0
 40
199.9939237030112
 40
199.9939237030112
 40
199.9939237030112
 10
16675.04133787641
 20
23916.32659744172
 30
0.0
 41
1.0
 10
16575.04437602526
 20
23916.32635780902
 30
0.0
 41
1.0
 10
16475.04741417418
 20
23916.32608862014
 30
0.0
 41
1.0
  0
SPLINE
  5
4F
330
1F
100
AcDbEntity
  8
MAKE2D VISIBLE LINES
100
AcDbSpline
210
0.0
220
0.0
230
1.0
 70
    24
 71
     2
 72
     6
 73
     3
 74
     0
 42
0.0000000001
 43
0.0000000001
 40
0.0
 40
0.0
 40
0.0
 40
0.6945235860007415
 40
0.6945235860007415
 40
0.6945235860007415
 10
16675.05195208728
 20
23917.0205531023
 30
0.0
 10
16675.0519520907
 20
23916.6732913093
 30
0.0
 10
16675.05195209412
 20
23916.32602951629
 30
0.0
  0
SPLINE
  5
50
330
1F
100
AcDbEntity
  8
MAKE2D VISIBLE LINES
100
AcDbSpline
210
0.0
220
0.0
230
1.0
 70
    24
 71
     2
 72
     6
 73
     3
 74
     0
 42
0.0000000001
 43
0.0000000001
 40
-0.0106142184927194
 40
-0.0106142184927194
 40
-0.0106142184927194
 40
0.0
 40
0.0
 40
0.0
 10
16675.05195209412
 20
23916.32602951629
 30
0.0
 10
16675.04664498487
 20
23916.32602951629
 30
0.0
 10
16675.04133787562
 20
23916.32602951629
 30
0.0
  0
SPLINE
  5
51
330
1F
100
AcDbEntity
  8
MAKE2D VISIBLE LINES
100
AcDbSpline
210
0.0
220
0.0
230
1.0
 70
    12
 71
     2
 72
     6
 73
     3
 74
     0
 42
0.0000000001
 43
0.0000000001
 40
0.0
 40
0.0
 40
0.0
 40
0.4185614711445879
 40
0.4185614711445879
 40
0.4185614711445879
 10
16216.22174597613
 20
23922.10179029124
 30
0.0
 41
1.0
 10
16216.43102502329
 20
23922.10283727007
 30
0.0
 41
0.9999933309500783
 10
16216.64030613505
 20
23922.1023556025
 30
0.0
 41
1.0
  0
SPLINE
  5
52
330
1F
100
AcDbEntity
  8
MAKE2D VISIBLE LINES
100
AcDbSpline
210
0.0
220
0.0
230
1.0
 70
    12
 71
     3
 72
    38
 73
    34
 74
     0
 42
0.0000000001
 43
0.0000000001
 40
0.0
 40
0.0
 40
0.0
 40
0.0
 40
0.2083666081688157
 40
0.2083666081688157
 40
0.2083666081688157
 40
0.3130089805945349
 40
0.3130089805945349
 40
0.3130089805945349
 40
0.3643332742158691
 40
0.3643332742158691
 40
0.3643332742158691
 40
0.4169095293801099
 40
0.4169095293801099
 40
0.4169095293801099
 40
1.248576239948353
 40
1.248576239948353
 40
1.248576239948353
 40
1.456713409750638
 40
1.456713409750638
 40
1.456713409750638
 40
1.508877235639421
 40
1.508877235639421
 40
1.508877235639421
 40
1.561390244931374
 40
1.561390244931374
 40
1.561390244931374
 40
3.017071910664583
 40
3.017071910664583
 40
3.017071910664583
 40
3.641269955791415
 40
3.641269955791415
 40
3.641269955791415
 40
24.79771811428151
 40
24.79771811428151
 40
24.79771811428151
 40
24.79771811428151
 10
16216.64030613505
 20
23922.1023556025
 30
0.0
 41
1.0
 10
16216.70976166306
 20
23922.10239236111
 30
0.0
 41
0.9999999517083433
 10
16216.77921720002
 20
23922.10240268323
 30
0.0
 41
0.9999999517083434
 10
16216.84867273589
 20
23922.10238656888
 30
0.0
 41
1.0
 10
16216.88355352666
 20
23922.10238826259
 30
0.0
 41
0.9999999995994053
 10
16216.91843431748
 20
23922.1023887471
 30
0.0
 41
0.9999999995994058
 10
16216.95331510828
 20
23922.10238802241
 30
0.0
 41
1.0
 10
16216.97042320616
 20
23922.10238806624
 30
0.0
 41
0.9999999999986664
 10
16216.98753130403
 20
23922.10238807587
 30
0.0
 41
0.9999999999986662
 10
16217.0046394019
 20
23922.10238805127
 30
0.0
 41
1.0
 10
16217.02216482029
 20
23922.10238805635
 30
0.0
 41
0.9999999999999756
 10
16217.03969023868
 20
23922.10238805665
 30
0.0
 41
0.9999999999999749
 10
16217.05721565707
 20
23922.10238805219
 30
0.0
 41
1.0
 10
16217.33443789392
 20
23922.10238805379
 30
0.0
 41
0.9999999999999999
 10
16217.61166013078
 20
23922.10238805337
 30
0.0
 41
1.0
 10
16217.88888236764
 20
23922.1023880509
 30
0.0
 41
1.0
 10
16217.95826142424
 20
23922.10238805095
 30
0.0
 41
1.0
 10
16218.02764048084
 20
23922.10238805101
 30
0.0
 41
0.9999999999999998
 10
16218.09701953744
 20
23922.10238805109
 30
0.0
 41
1.0
 10
16218.1144074794
 20
23922.10238805093
 30
0.0
 41
0.9999999999999998
 10
16218.13179542137
 20
23922.10238805084
 30
0.0
 41
1.0
 10
16218.14918336333
 20
23922.10238805084
 30
0.0
 41
1.0
 10
16218.16668770317
 20
23922.10238805448
 30
0.0
 41
1.0
 10
16218.18419202981
 20
23922.10238805444
 30
0.0
 41
1.0
 10
16218.20169636861
 20
23922.10238805445
 30
0.0
 41
1.0
 10
16218.68692359052
 20
23922.10238764855
 30
0.0
 41
1.0
 10
16219.17215081244
 20
23922.10238764856
 30
0.0
 41
0.9999999999999998
 10
16219.65737803435
 20
23922.10238764859
 30
0.0
 41
1.0
 10
16219.86544404939
 20
23922.10239146322
 30
0.0
 41
1.0
 10
16220.07351006443
 20
23922.10239146322
 30
0.0
 41
1.0
 10
16220.28157607947
 20
23922.10239146322
 30
0.0
 41
1.0
 10
16227.33372546564
 20
23922.10238383466
 30
0.0
 41
1.0
 10
16234.3858748518
 20
23922.1023838355
 30
0.0
 41
1.0
 10
16241.43802423796
 20
23922.10238383633
 30
0.0
 41
1.0
  0
SPLINE
  5
53
330
1F
100
AcDbEntity
  8
MAKE2D VISIBLE LINES
100
AcDbSpline
210
0.0
220
0.0
230
1.0
 70
    12
 71
     2
 72
     6
 73
     3
 74
     0
 42
0.0000000001
 43
0.0000000001
 40
0.0
 40
0.0
 40
0.0
 40
0.4185614711536395
 40
0.4185614711536395
 40
0.4185614711536395
 10
16933.88215821209
 20
23922.10179029131
 30
0.0
 41
1.0
 10
16933.67287916494
 20
23922.10283727013
 30
0.0
 41
0.9999933309502836
 10
16933.46359805317
 20
23922.10235560256
 30
0.0
 41
1.0
  0
SPLINE
  5
54
330
1F
100
AcDbEntity
  8
MAKE2D VISIBLE LINES
100
AcDbSpline
210
0.0
220
0.0
230
1.0
 70
    12
 71
     2
 72
    26
 73
    23
 74
     0
 42
0.0000000001
 43
0.0000000001
 40
0.0
 40
0.0
 40
0.0
 40
0.2083666081469877
 40
0.2083666081469877
 40
0.3130089805781637
 40
0.3130089805781637
 40
0.3643332742049549
 40
0.3643332742049549
 40
0.4169095293691957
 40
0.4169095293691957
 40
1.248576239937438
 40
1.248576239937438
 40
1.456713409743361
 40
1.456713409743361
 40
1.508877235643058
 40
1.508877235643058
 40
1.561390240905939
 40
1.561390240905939
 40
3.017071906659158
 40
3.017071906659158
 40
3.641269951769619
 40
3.641269951769619
 40
24.79771811026881
 40
24.79771811026881
 40
24.79771811026881
 10
16933.46359805317
 20
23922.10235560256
 30
0.0
 41
1.0
 10
16933.35941475866
 20
23922.10241074047
 30
0.0
 41
0.9999999275625246
 10
16933.25523145235
 20
23922.10238656895
 30
0.0
 41
1.0
 10
16933.20291026618
 20
23922.10238910951
 30
0.0
 41
0.9999999993991139
 10
16933.15058907995
 20
23922.10238802247
 30
0.0
 41
1.0
 10
16933.12492693314
 20
23922.10238808825
 30
0.0
 41
0.9999999999979982
 10
16933.09926478633
 20
23922.10238805133
 30
0.0
 41
1.0
 10
16933.07297665875
 20
23922.10238805896
 30
0.0
 41
0.9999999999999629
 10
16933.04668853116
 20
23922.10238805226
 30
0.0
 41
1.0
 10
16932.63085517588
 20
23922.10238805461
 30
0.0
 41
1.0
 10
16932.21502182059
 20
23922.10238805091
 30
0.0
 41
1.0
 10
16932.11095323569
 20
23922.10238806587
 30
0.0
 41
1.0
 10
16932.00688465079
 20
23922.10238806598
 30
0.0
 41
1.0
 10
16931.98080273784
 20
23922.10238805087
 30
0.0
 41
1.0
 10
16931.95472082489
 20
23922.10238805088
 30
0.0
 41
1.0
 10
16931.92846432226
 20
23922.10238805461
 30
0.0
 41
1.0
 10
16931.90220781962
 20
23922.10238805463
 30
0.0
 41
1.0
 10
16931.17436698675
 20
23922.10238764855
 30
0.0
 41
1.0
 10
16930.44652615387
 20
23922.10238764857
 30
0.0
 41
1.0
 10
16930.13442713132
 20
23922.10238764853
 30
0.0
 41
1.0
 10
16929.82232810876
 20
23922.10238764854
 30
0.0
 41
1.0
 10
16919.24410402951
 20
23922.10238383509
 30
0.0
 41
1.0
 10
16908.66587995026
 20
23922.10238383636
 30
0.0
 41
1.0
  0
SPLINE
  5
55
330
1F
100
AcDbEntity
  8
MAKE2D VISIBLE LINES
100
AcDbSpline
210
0.0
220
0.0
230
1.0
 70
    24
 71
     2
 72
     6
 73
     3
 74
     0
 42
0.0000000001
 43
0.0000000001
 40
-33.61111344666278
 40
-33.61111344666278
 40
-33.61111344666278
 40
0.0
 40
0.0
 40
0.0
 10
16875.05187286935
 20
23921.63917116063
 30
0.0
 10
16891.85742959268
 20
23921.6391711595
 30
0.0
 10
16908.66298631601
 20
23921.63917115836
 30
0.0
  0
SPLINE
  5
56
330
1F
100
AcDbEntity
  8
MAKE2D VISIBLE LINES
100
AcDbSpline
210
0.0
220
0.0
230
1.0
 70
    24
 71
     2
 72
     6
 73
     3
 74
     0
 42
0.0000000001
 43
0.0000000001
 40
0.0
 40
0.0
 40
0.0
 40
0.4632259343976952
 40
0.4632259343976952
 40
0.4632259343976952
 10
16908.66298631601
 20
23921.63917115836
 30
0.0
 10
16908.66443313314
 20
23921.87077960659
 30
0.0
 10
16908.66587995026
 20
23922.10238805483
 30
0.0
  0
SPLINE
  5
57
330
1F
100
AcDbEntity
  8
MAKE2D VISIBLE LINES
100
AcDbSpline
210
0.0
220
0.0
230
1.0
 70
    24
 71
     2
 72
     6
 73
     3
 74
     0
 42
0.0000000001
 43
0.0000000001
 40
0.0
 40
0.0
 40
0.0
 40
33.61400708091242
 40
33.61400708091242
 40
33.61400708091242
 10
16908.66587995026
 20
23922.10238805483
 30
0.0
 10
16891.85887640981
 20
23922.10238807443
 30
0.0
 10
16875.05187286935
 20
23922.10238809403
 30
0.0
  0
SPLINE
  5
58
330
1F
100
AcDbEntity
  8
MAKE2D VISIBLE LINES
100
AcDbSpline
210
0.0
220
0.0
230
1.0
 70
    24
 71
     2
 72
     6
 73
     3
 74
     0
 42
0.0000000001
 43
0.0000000001
 40
0.0
 40
0.0
 40
0.0
 40
0.4632169333890488
 40
0.4632169333890488
 40
0.4632169333890488
 10
16875.05187286935
 20
23922.10238809403
 30
0.0
 10
16875.05187286935
 20
23921.87077962733
 30
0.0
 10
16875.05187286935
 20
23921.63917116063
 30
0.0
  0
SPLINE
  5
59
330
1F
100
AcDbEntity
  8
MAKE2D VISIBLE LINES
100
AcDbSpline
210
0.0
220
0.0
230
1.0
 70
    24
 71
     2
 72
     6
 73
     3
 74
     0
 42
0.0000000001
 43
0.0000000001
 40
0.0
 40
0.0
 40
0.0
 40
46.1969012002271
 40
46.1969012002271
 40
46.1969012002271
 10
16875.05187286935
 20
23921.63917116063
 30
0.0
 10
16851.95342226924
 20
23921.6391711645
 30
0.0
 10
16828.85497166912
 20
23921.63917116836
 30
0.0
  0
SPLINE
  5
5A
330
1F
100
AcDbEntity
  8
MAKE2D VISIBLE LINES
100
AcDbSpline
210
0.0
220
0.0
230
1.0
 70
    24
 71
     2
 72
     6
 73
     3
 74
     0
 42
0.0000000001
 43
0.0000000001
 40
0.0
 40
0.0
 40
0.0
 40
4.9058451321539
 40
4.9058451321539
 40
4.9058451321539
 10
16737.46121463283
 20
23938.40424577823
 30
0.0
 10
16739.9141371989
 20
23938.40424577823
 30
0.0
 10
16742.36705976498
 20
23938.40424577823
 30
0.0
  0
SPLINE
  5
5B
330
1F
100
AcDbEntity
  8
MAKE2D VISIBLE LINES
100
AcDbSpline
210
0.0
220
0.0
230
1.0
 70
    12
 71
     2
 72
     6
 73
     3
 74
     0
 42
0.0000000001
 43
0.0000000001
 40
0.0
 40
0.0
 40
0.0
 40
2.096651817134408
 40
2.096651817134408
 40
2.096651817134408
 10
16742.36705976498
 20
23938.40424577823
 30
0.0
 41
1.0
 10
16743.12129671354
 20
23937.66732345164
 30
0.0
 41
0.99126885926199
 10
16744.04194599692
 20
23937.15319040757
 30
0.0
 41
1.0
  0
SPLINE
  5
5C
330
1F
100
AcDbEntity
  8
MAKE2D VISIBLE LINES
100
AcDbSpline
210
0.0
220
0.0
230
1.0
 70
    12
 71
     2
 72
     6
 73
     3
 74
     0
 42
0.0000000001
 43
0.0000000001
 40
-4.084096927805984
 40
-4.084096927805984
 40
-4.084096927805984
 40
0.0
 40
0.0
 40
0.0
 10
16744.04194599692
 20
23937.15319040757
 30
0.0
 41
1.0
 10
16745.86335306031
 20
23936.13314555015
 30
0.0
 41
0.9675986774959742
 10
16747.950939035
 20
23936.13314552573
 30
0.0
 41
1.0
  0
SPLINE
  5
5D
330
1F
100
AcDbEntity
  8
MAKE2D VISIBLE LINES
100
AcDbSpline
210
0.0
220
0.0
230
1.0
 70
    24
 71
     2
 72
     6
 73
     3
 74
     0
 42
0.0000000001
 43
0.0000000001
 40
-33.61095499713883
 40
-33.61095499713883
 40
-33.61095499713883
 40
0.0
 40
0.0
 40
0.0
 10
16275.05187286935
 20
23921.63917115921
 30
0.0
 10
16258.24639537078
 20
23921.63917115875
 30
0.0
 10
16241.44091787221
 20
23921.63917115828
 30
0.0
  0
SPLINE
  5
5E
330
1F
100
AcDbEntity
  8
MAKE2D VISIBLE LINES
100
AcDbSpline
210
0.0
220
0.0
230
1.0
 70
    24
 71
     2
 72
     6
 73
     3
 74
     0
 42
0.0000000001
 43
0.0000000001
 40
0.0
 40
0.0
 40
0.0
 40
0.463225934404971
 40
0.463225934404971
 40
0.463225934404971
 10
16241.44091787221
 20
23921.63917115828
 30
0.0
 10
16241.43947105509
 20
23921.87077960652
 30
0.0
 10
16241.43802423796
 20
23922.10238805477
 30
0.0
  0
SPLINE
  5
5F
330
1F
100
AcDbEntity
  8
MAKE2D VISIBLE LINES
100
AcDbSpline
210
0.0
220
0.0
230
1.0
 70
    24
 71
     2
 72
     6
 73
     3
 74
     0
 42
0.0000000001
 43
0.0000000001
 40
0.0
 40
0.0
 40
0.0
 40
33.61384863138846
 40
33.61384863138846
 40
33.61384863138846
 10
16241.43802423796
 20
23922.10238805477
 30
0.0
 10
16258.24494855366
 20
23922.10238807315
 30
0.0
 10
16275.05187286935
 20
23922.10238809154
 30
0.0
  0
SPLINE
  5
60
330
1F
100
AcDbEntity
  8
MAKE2D VISIBLE LINES
100
AcDbSpline
210
0.0
220
0.0
230
1.0
 70
    24
 71
     2
 72
     6
 73
     3
 74
     0
 42
0.0000000001
 43
0.0000000001
 40
0.0
 40
0.0
 40
0.0
 40
0.463216932330397
 40
0.463216932330397
 40
0.463216932330397
 10
16275.05187286935
 20
23922.10238809154
 30
0.0
 10
16275.05187286935
 20
23921.87077962537
 30
0.0
 10
16275.05187286935
 20
23921.63917115921
 30
0.0
  0
SPLINE
  5
61
330
1F
100
AcDbEntity
  8
MAKE2D VISIBLE LINES
100
AcDbSpline
210
0.0
220
0.0
230
1.0
 70
    24
 71
     2
 72
     6
 73
     3
 74
     0
 42
0.0000000001
 43
0.0000000001
 40
0.0
 40
0.0
 40
0.0
 40
199.9966336759771
 40
199.9966336759771
 40
199.9966336759771
 10
16275.05187286935
 20
23921.63917115921
 30
0.0
 10
16375.05018970734
 20
23921.63917116588
 30
0.0
 10
16475.04850654533
 20
23921.63917117255
 30
0.0
  0
SPLINE
  5
62
330
1F
100
AcDbEntity
  8
MAKE2D VISIBLE LINES
100
AcDbSpline
210
0.0
220
0.0
230
1.0
 70
    24
 71
     2
 72
     6
 73
     3
 74
     0
 42
0.0000000001
 43
0.0000000001
 40
-0.4632683247268043
 40
-0.4632683247268043
 40
-0.4632683247268043
 40
0.0
 40
0.0
 40
0.0
 10
16475.04850654533
 20
23921.63917117255
 30
0.0
 10
16475.05195214399
 20
23921.87077869002
 30
0.0
 10
16475.05539774265
 20
23922.10238620749
 30
0.0
  0
SPLINE
  5
63
330
1F
100
AcDbEntity
  8
MAKE2D VISIBLE LINES
100
AcDbSpline
210
0.0
220
0.0
230
1.0
 70
    12
 71
     2
 72
     6
 73
     3
 74
     0
 42
0.0000000001
 43
0.0000000001
 40
-200.0035248732966
 40
-200.0035248732966
 40
-200.0035248732966
 40
0.0
 40
0.0
 40
0.0
 10
16475.05539774265
 20
23922.10238620749
 30
0.0
 41
1.0
 10
16375.053635306
 20
23922.10238400413
 30
0.0
 41
1.0
 10
16275.05187286935
 20
23922.10238383383
 30
0.0
 41
1.0
  0
SPLINE
  5
64
330
1F
100
AcDbEntity
  8
MAKE2D VISIBLE LINES
100
AcDbSpline
210
0.0
220
0.0
230
1.0
 70
    12
 71
     2
 72
     6
 73
     3
 74
     0
 42
0.0000000001
 43
0.0000000001
 40
0.0
 40
0.0
 40
0.0
 40
0.5103659492854503
 40
0.5103659492854503
 40
0.5103659492854503
 10
16731.55092837555
 20
23921.69269118077
 30
0.0
 41
1.0
 10
16731.29747572484
 20
23921.66017672545
 30
0.0
 41
0.9979658132839916
 10
16731.04194600846
 20
23921.66017672719
 30
0.0
 41
1.0
  0
SPLINE
  5
65
330
1F
100
AcDbEntity
  8
MAKE2D VISIBLE LINES
100
AcDbSpline
210
0.0
220
0.0
230
1.0
 70
    24
 71
     2
 72
     6
 73
     3
 74
     0
 42
0.0000000001
 43
0.0000000001
 40
0.0
 40
0.0
 40
0.0
 40
0.0119772954349173
 40
0.0119772954349173
 40
0.0119772954349173
 10
16731.04194600846
 20
23921.66017672719
 30
0.0
 10
16731.04194600869
 20
23921.6661653749
 30
0.0
 10
16731.04194600891
 20
23921.67215402262
 30
0.0
  0
SPLINE
  5
66
330
1F
100
AcDbEntity
  8
MAKE2D VISIBLE LINES
100
AcDbSpline
210
0.0
220
0.0
230
1.0
 70
    12
 71
     3
 72
    11
 73
     7
 74
     0
 42
0.0000000001
 43
0.0000000001
 40
-0.2239041031456286
 40
-0.2239041031456286
 40
-0.2239041031456286
 40
-0.2239041031456286
 40
4.400875484911952
 40
9.138612355858118
 40
14.62485810021011
 40
20.2122557203767
 40
20.2122557203767
 40
20.2122557203767
 40
20.2122557203767
 10
16731.04194600891
 20
23921.67215402262
 30
0.0
 41
1.0
 10
16731.04113754595
 20
23921.68137304698
 30
0.0
 41
1.0
 10
16731.60138492604
 20
23921.70002683051
 30
0.0
 41
1.0
 10
16734.17170293616
 20
23921.72589922829
 30
0.0
 41
1.0
 10
16738.48902954672
 20
23921.74518163269
 30
0.0
 41
1.0
 10
16742.17964199096
 20
23921.75001529064
 30
0.0
 41
1.0
 10
16744.04194599321
 20
23921.75000641748
 30
0.0
 41
1.0
  0
SPLINE
  5
67
330
1F
100
AcDbEntity
  8
MAKE2D VISIBLE LINES
100
AcDbSpline
210
0.0
220
0.0
230
1.0
 70
    24
 71
     2
 72
     6
 73
     3
 74
     0
 42
0.0000000001
 43
0.0000000001
 40
0.0
 40
0.0
 40
0.0
 40
36.01000610092342
 40
36.01000610092342
 40
36.01000610092342
 10
16744.04194599321
 20
23921.75000641748
 30
0.0
 10
16762.04694904367
 20
23921.75000639246
 30
0.0
 10
16780.05195209413
 20
23921.75000636743
 30
0.0
  0
SPLINE
  5
68
330
1F
100
AcDbEntity
  8
MAKE2D VISIBLE LINES
100
AcDbSpline
210
0.0
220
0.0
230
1.0
 70
    24
 71
     2
 72
     6
 73
     3
 74
     0
 42
0.0000000001
 43
0.0000000001
 40
0.0
 40
0.0
 40
0.0
 40
35.98999390651261
 40
35.98999390651261
 40
35.98999390651261
 10
16780.05195209413
 20
23921.75000636743
 30
0.0
 10
16798.04694904738
 20
23921.75000639245
 30
0.0
 10
16816.04194600064
 20
23921.75000641747
 30
0.0
  0
SPLINE
  5
69
330
1F
100
AcDbEntity
  8
MAKE2D VISIBLE LINES
100
AcDbSpline
210
0.0
220
0.0
230
1.0
 70
    12
 71
     3
 72
    11
 73
     7
 74
     0
 42
0.0000000001
 43
0.0000000001
 40
0.0000000029987993
 40
0.0000000029987993
 40
0.0000000029987993
 40
0.0000000029987993
 40
5.251109316270208
 40
10.92696509123995
 40
15.52103469008869
 40
20.43615905989359
 40
20.43615905989359
 40
20.43615905989359
 40
20.43615905989359
 10
16816.04194600064
 20
23921.75000641747
 30
0.0
 41
1.0
 10
16817.79179201514
 20
23921.75001042288
 30
0.0
 41
1.0
 10
16821.43491195363
 20
23921.7455463385
 30
0.0
 41
1.0
 10
16825.73711616209
 20
23921.72706321544
 30
0.0
 41
1.0
 10
16828.43664208542
 20
23921.70089409226
 30
0.0
 41
1.0
 10
16829.04327187658
 20
23921.68195336459
 30
0.0
 41
1.0
 10
16829.04194598496
 20
23921.67215402262
 30
0.0
 41
1.0
  0
SPLINE
  5
6A
330
1F
100
AcDbEntity
  8
MAKE2D VISIBLE LINES
100
AcDbSpline
210
0.0
220
0.0
230
1.0
 70
    24
 71
     2
 72
     6
 73
     3
 74
     0
 42
0.0000000001
 43
0.0000000001
 40
0.0
 40
0.0
 40
0.0
 40
0.0119773018559499
 40
0.0119773018559499
 40
0.0119773018559499
 10
16829.04194598496
 20
23921.67215402262
 30
0.0
 10
16829.04194598512
 20
23921.66616537169
 30
0.0
 10
16829.04194598527
 20
23921.66017672077
 30
0.0
  0
SPLINE
  5
6B
330
1F
100
AcDbEntity
  8
MAKE2D VISIBLE LINES
100
AcDbSpline
210
0.0
220
0.0
230
1.0
 70
    12
 71
     2
 72
     6
 73
     3
 74
     0
 42
0.0000000001
 43
0.0000000001
 40
0.0
 40
0.0
 40
0.0
 40
0.5199241961705475
 40
0.5199241961705475
 40
0.5199241961705475
 10
16829.04194598527
 20
23921.66017672077
 30
0.0
 41
1.0
 10
16828.78161727414
 20
23921.66017671911
 30
0.0
 41
0.9978889334266929
 10
16828.52348452739
 20
23921.69391872401
 30
0.0
 41
1.0
  0
SPLINE
  5
6C
330
1F
100
AcDbEntity
  8
MAKE2D VISIBLE LINES
100
AcDbSpline
210
0.0
220
0.0
230
1.0
 70
    12
 71
     2
 72
     6
 73
     3
 74
     0
 42
0.0000000001
 43
0.0000000001
 40
0.0
 40
0.0
 40
0.0
 40
15.70796326794111
 40
15.70796326794111
 40
15.70796326794111
 10
16975.05195209413
 20
23592.13314555258
 30
0.0
 41
1.0
 10
16975.05195209413
 20
23582.13314555258
 30
0.0
 41
0.7071067811869265
 10
16965.05195209414
 20
23582.13314555258
 30
0.0
 41
1.0
  0
SPLINE
  5
6D
330
1F
100
AcDbEntity
  8
MAKE2D VISIBLE LINES
100
AcDbSpline
210
0.0
220
0.0
230
1.0
 70
    24
 71
     2
 72
     6
 73
     3
 74
     0
 42
0.0000000001
 43
0.0000000001
 40
0.0
 40
0.0
 40
0.0
 40
90.00007922478653
 40
90.00007922478653
 40
90.00007922478653
 10
16965.05195209414
 20
23582.13314555258
 30
0.0
 10
16920.05191248174
 20
23582.13314555258
 30
0.0
 10
16875.05187286935
 20
23582.13314555258
 30
0.0
  0
SPLINE
  5
6E
330
1F
100
AcDbEntity
  8
MAKE2D VISIBLE LINES
100
AcDbSpline
210
0.0
220
0.0
230
1.0
 70
    24
 71
     2
 72
     6
 73
     3
 74
     0
 42
0.0000000001
 43
0.0000000001
 40
0.0
 40
0.0
 40
0.0
 40
600.0
 40
600.0
 40
600.0
 10
16875.05187286935
 20
23582.13314555258
 30
0.0
 10
16575.05187286935
 20
23582.13314555258
 30
0.0
 10
16275.05187286935
 20
23582.13314555258
 30
0.0
  0
SPLINE
  5
6F
330
1F
100
AcDbEntity
  8
MAKE2D VISIBLE LINES
100
AcDbSpline
210
0.0
220
0.0
230
1.0
 70
    24
 71
     2
 72
     6
 73
     3
 74
     0
 42
0.0000000001
 43
0.0000000001
 40
0.0
 40
0.0
 40
0.0
 40
89.9999207752171
 40
89.9999207752171
 40
89.9999207752171
 10
16275.05187286935
 20
23582.13314555258
 30
0.0
 10
16230.05191248174
 20
23582.13314555258
 30
0.0
 10
16185.05195209413
 20
23582.13314555258
 30
0.0
  0
SPLINE
  5
70
330
1F
100
AcDbEntity
  8
MAKE2D VISIBLE LINES
100
AcDbSpline
210
0.0
220
0.0
230
1.0
 70
    12
 71
     2
 72
     6
 73
     3
 74
     0
 42
0.0000000001
 43
0.0000000001
 40
0.0
 40
0.0
 40
0.0
 40
15.70796326794877
 40
15.70796326794877
 40
15.70796326794877
 10
16185.05195209413
 20
23582.13314555258
 30
0.0
 41
1.0
 10
16175.05195209413
 20
23582.13314555257
 30
0.0
 41
0.7071067811863585
 10
16175.05195209413
 20
23592.13314555257
 30
0.0
 41
1.0
  0
SPLINE
  5
71
330
1F
100
AcDbEntity
  8
MAKE2D VISIBLE LINES
100
AcDbSpline
210
0.0
220
0.0
230
1.0
 70
    24
 71
     2
 72
     6
 73
     3
 74
     0
 42
0.0000000001
 43
0.0000000001
 40
0.0
 40
0.0
 40
0.0
 40
470.0000000000109
 40
470.0000000000109
 40
470.0000000000109
 10
16175.05195209413
 20
23592.13314555257
 30
0.0
 10
16175.05195209413
 20
23827.13314555258
 30
0.0
 10
16175.05195209413
 20
24062.13314555259
 30
0.0
  0
SPLINE
  5
72
330
1F
100
AcDbEntity
  8
MAKE2D VISIBLE LINES
100
AcDbSpline
210
0.0
220
0.0
230
1.0
 70
    12
 71
     2
 72
     6
 73
     3
 74
     0
 42
0.0000000001
 43
0.0000000001
 40
0.0
 40
0.0
 40
0.0
 40
15.70796326794456
 40
15.70796326794456
 40
15.70796326794456
 10
16175.05195209413
 20
24062.13314555259
 30
0.0
 41
1.0
 10
16175.05195209413
 20
24072.13314555258
 30
0.0
 41
0.7071067811863244
 10
16185.05195209413
 20
24072.13314555258
 30
0.0
 41
1.0
  0
SPLINE
  5
73
330
1F
100
AcDbEntity
  8
MAKE2D VISIBLE LINES
100
AcDbSpline
210
0.0
220
0.0
230
1.0
 70
    24
 71
     2
 72
     6
 73
     3
 74
     0
 42
0.0000000001
 43
0.0000000001
 40
-89.99992077521892
 40
-89.99992077521892
 40
-89.99992077521892
 40
0.0
 40
0.0
 40
0.0
 10
16185.05195209413
 20
24072.13314555258
 30
0.0
 10
16230.05191248174
 20
24072.13314555258
 30
0.0
 10
16275.05187286935
 20
24072.13314555258
 30
0.0
  0
SPLINE
  5
74
330
1F
100
AcDbEntity
  8
MAKE2D VISIBLE LINES
100
AcDbSpline
210
0.0
220
0.0
230
1.0
 70
    24
 71
     2
 72
     6
 73
     3
 74
     0
 42
0.0000000001
 43
0.0000000001
 40
-600.0
 40
-600.0
 40
-600.0
 40
0.0
 40
0.0
 40
0.0
 10
16275.05187286935
 20
24072.13314555258
 30
0.0
 10
16575.05187286935
 20
24072.13314555258
 30
0.0
 10
16875.05187286935
 20
24072.13314555258
 30
0.0
  0
SPLINE
  5
75
330
1F
100
AcDbEntity
  8
MAKE2D VISIBLE LINES
100
AcDbSpline
210
0.0
220
0.0
230
1.0
 70
    24
 71
     2
 72
     6
 73
     3
 74
     0
 42
0.0000000001
 43
0.0000000001
 40
-90.0000792247829
 40
-90.0000792247829
 40
-90.0000792247829
 40
0.0
 40
0.0
 40
0.0
 10
16875.05187286935
 20
24072.13314555258
 30
0.0
 10
16920.05191248174
 20
24072.13314555258
 30
0.0
 10
16965.05195209413
 20
24072.13314555258
 30
0.0
  0
SPLINE
  5
76
330
1F
100
AcDbEntity
  8
MAKE2D VISIBLE LINES
100
AcDbSpline
210
0.0
220
0.0
230
1.0
 70
    12
 71
     2
 72
     6
 73
     3
 74
     0
 42
0.0000000001
 43
0.0000000001
 40
0.0
 40
0.0
 40
0.0
 40
15.70796326794792
 40
15.70796326794792
 40
15.70796326794792
 10
16965.05195209413
 20
24072.13314555258
 30
0.0
 41
1.0
 10
16975.05195209413
 20
24072.13314555258
 30
0.0
 41
0.7071067811867485
 10
16975.05195209413
 20
24062.13314555258
 30
0.0
 41
1.0
  0
SPLINE
  5
77
330
1F
100
AcDbEntity
  8
MAKE2D VISIBLE LINES
100
AcDbSpline
210
0.0
220
0.0
230
1.0
 70
    24
 71
     2
 72
     6
 73
     3
 74
     0
 42
0.0000000001
 43
0.0000000001
 40
0.0
 40
0.0
 40
0.0
 40
470.0000000000036
 40
470.0000000000036
 40
470.0000000000036
 10
16975.05195209413
 20
24062.13314555258
 30
0.0
 10
16975.05195209413
 20
23827.13314555258
 30
0.0
 10
16975.05195209413
 20
23592.13314555258
 30
0.0
  0
SPLINE
  5
78
330
1F
100
AcDbEntity
  8
MAKE2D VISIBLE LINES
100
AcDbSpline
210
0.0
220
0.0
230
1.0
 70
    15
 71
     2
 72
    12
 73
     9
 74
     0
 42
0.0000000001
 43
0.0000000001
 40
0.0
 40
0.0
 40
0.0
 40
27.48952206311741
 40
27.48952206311741
 40
54.97904412623482
 40
54.97904412623482
 40
82.46856618935223
 40
82.46856618935223
 40
109.9580882524696
 40
109.9580882524696
 40
109.9580882524696
 10
16557.55205316696
 20
23979.13314555257
 30
0.0
 41
1.0
 10
16557.55176513418
 20
23996.63351882851
 30
0.0
 41
0.7071067811865476
 10
16575.05213841013
 20
23996.63380686129
 30
0.0
 41
1.0
 10
16592.55251168607
 20
23996.63409489407
 30
0.0
 41
0.7071067811865476
 10
16592.55279971885
 20
23979.13372161813
 30
0.0
 41
1.0
 10
16592.55308775164
 20
23961.63334834218
 30
0.0
 41
0.7071067811865476
 10
16575.05271447569
 20
23961.6330603094
 30
0.0
 41
1.0
 10
16557.55234119975
 20
23961.63277227662
 30
0.0
 41
0.7071067811865476
 10
16557.55205316696
 20
23979.13314555257
 30
0.0
 41
1.0
  0
SPLINE
  5
79
330
1F
100
AcDbEntity
  8
MAKE2D VISIBLE LINES
100
AcDbSpline
210
0.0
220
0.0
230
1.0
 70
    15
 71
     3
 72
    41
 73
    37
 74
     0
 42
0.0000000001
 43
0.0000000001
 40
0.0
 40
0.0
 40
0.0
 40
0.0
 40
6.283301967730831
 40
6.283301967730831
 40
6.283301967730831
 40
12.56660393546166
 40
12.56660393546166
 40
12.56660393546166
 40
86.56660393546531
 40
86.56660393546531
 40
86.56660393546531
 40
92.84990590320444
 40
92.84990590320444
 40
92.84990590320444
 40
99.13320787094356
 40
99.13320787094356
 40
99.13320787094356
 40
173.1332078709436
 40
173.1332078709436
 40
173.1332078709436
 40
179.416509838692
 40
179.416509838692
 40
179.416509838692
 40
185.6998118064404
 40
185.6998118064404
 40
185.6998118064404
 40
259.6998118064404
 40
259.6998118064404
 40
259.6998118064404
 40
265.9831137741775
 40
265.9831137741775
 40
265.9831137741775
 40
272.2664157419147
 40
272.2664157419147
 40
272.2664157419147
 40
346.2664157419219
 40
346.2664157419219
 40
346.2664157419219
 40
346.2664157419219
 10
16735.04537474088
 20
23944.13314555258
 30
0.0
 41
1.0
 10
16735.04522864344
 20
23941.98300684883
 30
0.0
 41
0.9492443538052852
 10
16735.86798361586
 20
23939.99650975041
 30
0.0
 41
0.9492443538052857
 10
16737.38836127728
 20
23938.47613208899
 30
0.0
 41
1.0
 10
16738.9087389387
 20
23936.95575442756
 30
0.0
 41
0.9492443538052857
 10
16740.89523603713
 20
23936.13299945514
 30
0.0
 41
0.9492443538052854
 10
16743.04537474087
 20
23936.13314555258
 30
0.0
 41
1.0
 10
16767.71204140754
 20
23936.13314555259
 30
0.0
 41
1.0
 10
16792.37870807421
 20
23936.13314555259
 30
0.0
 41
1.0
 10
16817.04537474088
 20
23936.13314555258
 30
0.0
 41
1.0
 10
16819.19551344463
 20
23936.13299945514
 30
0.0
 41
0.9492443538047748
 10
16821.18201054306
 20
23936.95575442756
 30
0.0
 41
0.9492443538047752
 10
16822.70238820448
 20
23938.47613208898
 30
0.0
 41
1.0
 10
16824.2227658659
 20
23939.9965097504
 30
0.0
 41
0.949244353804775
 10
16825.04552083832
 20
23941.98300684883
 30
0.0
 41
0.9492443538047753
 10
16825.04537474088
 20
23944.13314555258
 30
0.0
 41
1.0
 10
16825.04537474088
 20
23968.79981221924
 30
0.0
 41
1.0
 10
16825.04537474088
 20
23993.46647888591
 30
0.0
 41
1.0
 10
16825.04537474088
 20
24018.13314555258
 30
0.0
 41
1.0
 10
16825.04552083833
 20
24020.28328425633
 30
0.0
 41
0.9492443538040822
 10
16824.22276586592
 20
24022.26978135477
 30
0.0
 41
0.9492443538040819
 10
16822.7023882045
 20
24023.7901590162
 30
0.0
 41
1.0
 10
16821.18201054307
 20
24025.31053667762
 30
0.0
 41
0.949244353804082
 10
16819.19551344463
 20
24026.13329165004
 30
0.0
 41
0.9492443538040821
 10
16817.04537474088
 20
24026.13314555258
 30
0.0
 41
1.0
 10
16792.37870807422
 20
24026.13314555258
 30
0.0
 41
1.0
 10
16767.71204140755
 20
24026.1331455526
 30
0.0
 41
1.0
 10
16743.04537474088
 20
24026.13314555258
 30
0.0
 41
1.0
 10
16740.89523603713
 20
24026.13329165003
 30
0.0
 41
0.9492443538047596
 10
16738.9087389387
 20
24025.31053667761
 30
0.0
 41
0.9492443538047595
 10
16737.38836127727
 20
24023.79015901619
 30
0.0
 41
1.0
 10
16735.86798361585
 20
24022.26978135477
 30
0.0
 41
0.9492443538047597
 10
16735.04522864343
 20
24020.28328425634
 30
0.0
 41
0.9492443538047596
 10
16735.04537474088
 20
24018.13314555259
 30
0.0
 41
1.0
 10
16735.04537474088
 20
23993.46647888593
 30
0.0
 41
1.0
 10
16735.04537474089
 20
23968.79981221927
 30
0.0
 41
1.0
 10
16735.04537474088
 20
23944.13314555258
 30
0.0
 41
1.0
  0
SPLINE
  5
7A
330
1F
100
AcDbEntity
  8
MAKE2D VISIBLE LINES
100
AcDbSpline
210
0.0
220
0.0
230
1.0
 70
    15
 71
     3
 72
    41
 73
    37
 74
     0
 42
0.0000000001
 43
0.0000000001
 40
0.0
 40
0.0
 40
0.0
 40
0.0
 40
2.35660174380746
 40
2.35660174380746
 40
2.35660174380746
 40
4.71320348761492
 40
4.71320348761492
 40
4.71320348761492
 40
78.71320348759609
 40
78.71320348759609
 40
78.71320348759609
 40
81.06980523141547
 40
81.06980523141547
 40
81.06980523141547
 40
83.42640697523484
 40
83.42640697523484
 40
83.42640697523484
 40
157.426406975236
 40
157.426406975236
 40
157.426406975236
 40
159.7830087189901
 40
159.7830087189901
 40
159.7830087189901
 40
162.1396104627442
 40
162.1396104627442
 40
162.1396104627442
 40
236.1396104627708
 40
236.1396104627708
 40
236.1396104627708
 40
238.4962122065219
 40
238.4962122065219
 40
238.4962122065219
 40
240.852813950273
 40
240.852813950273
 40
240.852813950273
 40
314.8528139502997
 40
314.8528139502997
 40
314.8528139502997
 40
314.8528139502997
 10
16740.04537474088
 20
23944.13314555258
 30
0.0
 41
1.0
 10
16740.04486486573
 20
23943.3266882342
 30
0.0
 41
0.9491723415629731
 10
16740.35324723503
 20
23942.58152115182
 30
0.0
 41
0.949172341562973
 10
16740.92349878757
 20
23942.01126959928
 30
0.0
 41
1.0
 10
16741.49375034012
 20
23941.44101804673
 30
0.0
 41
0.9491723415629731
 10
16742.23891742249
 20
23941.13263567743
 30
0.0
 41
0.949172341562973
 10
16743.04537474088
 20
23941.13314555258
 30
0.0
 41
1.0
 10
16767.71204140754
 20
23941.13314555259
 30
0.0
 41
1.0
 10
16792.37870807421
 20
23941.13314555257
 30
0.0
 41
1.0
 10
16817.04537474084
 20
23941.13314555258
 30
0.0
 41
1.0
 10
16817.85183205924
 20
23941.13263567743
 30
0.0
 41
0.9491723415631392
 10
16818.59699914162
 20
23941.44101804673
 30
0.0
 41
0.9491723415631397
 10
16819.16725069416
 20
23942.01126959927
 30
0.0
 41
1.0
 10
16819.73750224671
 20
23942.58152115182
 30
0.0
 41
0.9491723415631393
 10
16820.04588461602
 20
23943.32668823419
 30
0.0
 41
0.9491723415631395
 10
16820.04537474088
 20
23944.13314555258
 30
0.0
 41
1.0
 10
16820.04537474087
 20
23968.79981221924
 30
0.0
 41
1.0
 10
16820.04537474087
 20
23993.4664788859
 30
0.0
 41
1.0
 10
16820.04537474088
 20
24018.13314555258
 30
0.0
 41
1.0
 10
16820.04588461603
 20
24018.93960287096
 30
0.0
 41
0.949172341564174
 10
16819.73750224675
 20
24019.68476995331
 30
0.0
 41
0.9491723415641741
 10
16819.16725069423
 20
24020.25502150585
 30
0.0
 41
1.0
 10
16818.59699914172
 20
24020.8252730584
 30
0.0
 41
0.949172341564174
 10
16817.85183205936
 20
24021.1336554277
 30
0.0
 41
0.9491723415641741
 10
16817.045374741
 20
24021.13314555258
 30
0.0
 41
1.0
 10
16792.37870807411
 20
24021.13314555257
 30
0.0
 41
1.0
 10
16767.71204140761
 20
24021.1331455526
 30
0.0
 41
1.0
 10
16743.04537474088
 20
24021.13314555258
 30
0.0
 41
1.0
 10
16742.23891742251
 20
24021.13365542774
 30
0.0
 41
0.9491723415644923
 10
16741.49375034015
 20
24020.82527305846
 30
0.0
 41
0.9491723415644926
 10
16740.92349878761
 20
24020.25502150594
 30
0.0
 41
1.0
 10
16740.35324723507
 20
24019.68476995343
 30
0.0
 41
0.9491723415644922
 10
16740.04486486575
 20
24018.93960287107
 30
0.0
 41
0.9491723415644924
 10
16740.04537474088
 20
24018.1331455527
 30
0.0
 41
1.0
 10
16740.04537474086
 20
23993.46647888577
 30
0.0
 41
1.0
 10
16740.04537474089
 20
23968.79981221932
 30
0.0
 41
1.0
 10
16740.04537474088
 20
23944.13314555258
 30
0.0
 41
1.0
  0
ENDSEC
  0
SECTION
  2
OBJECTS
  0
DICTIONARY
  5
C
330
0
100
AcDbDictionary
281
     1
  3
ACAD_GROUP
350
D
  3
ACAD_LAYOUT
350
1A
  3
ACAD_MLEADERSTYLE
350
7C
  3
ACAD_MLINESTYLE
350
17
  3
ACAD_PLOTSETTINGS
350
19
  3
ACAD_PLOTSTYLENAME
350
E
  3
ACAD_TABLESTYLE
350
7B
  3
ACAD_VISUALSTYLE
350
2A
  0
DICTIONARY
  5
D
102
{ACAD_REACTORS
330
C
102
}
330
C
100
AcDbDictionary
281
     1
  0
DICTIONARY
  5
1A
102
{ACAD_REACTORS
330
C
102
}
330
C
100
AcDbDictionary
281
     1
  3
Layout1
350
1E
  3
Layout2
350
26
  3
Model
350
22
  0
DICTIONARY
  5
7C
102
{ACAD_REACTORS
330
C
102
}
330
C
100
AcDbDictionary
281
     1
  0
DICTIONARY
  5
17
102
{ACAD_REACTORS
330
C
102
}
330
C
100
AcDbDictionary
281
     1
  3
Standard
350
18
  0
DICTIONARY
  5
19
102
{ACAD_REACTORS
330
C
102
}
330
C
100
AcDbDictionary
281
     1
  0
ACDBDICTIONARYWDFLT
  5
E
102
{ACAD_REACTORS
330
C
102
}
330
C
100
AcDbDictionary
281
     1
  3
Normal
350
F
100
AcDbDictionaryWithDefault
340
F
  0
DICTIONARY
  5
7B
102
{ACAD_REACTORS
330
C
102
}
330
C
100
AcDbDictionary
281
     1
  0
DICTIONARY
  5
2A
102
{ACAD_REACTORS
330
C
102
}
330
C
100
AcDbDictionary
281
     1
  3
2dWireframe
350
2F
  3
3D Hidden
350
31
  3
3dWireframe
350
30
  3
Basic
350
32
  3
Brighten
350
36
  3
ColorChange
350
3A
  3
Conceptual
350
34
  3
Dim
350
35
  3
Facepattern
350
39
  3
Flat
350
2B
  3
FlatWithEdges
350
2C
  3
Gouraud
350
2D
  3
GouraudWithEdges
350
2E
  3
Linepattern
350
38
  3
Realistic
350
33
  3
Thicken
350
37
  0
LAYOUT
  5
1E
102
{ACAD_REACTORS
330
1A
102
}
330
1A
100
AcDbPlotSettings
  1

  2
none_device
  4

  6

 40
0.0
 41
0.0
 42
0.0
 43
0.0
 44
0.0
 45
0.0
 46
0.0
 47
0.0
 48
0.0
 49
0.0
140
0.0
141
0.0
142
1.0
143
1.0
 70
   688
 72
     0
 73
     0
 74
     5
  7

 75
    16
 76
     0
 77
     2
 78
   300
147
1.0
148
0.0
149
0.0
100
AcDbLayout
  1
Layout1
 70
     1
 71
     1
 10
0.0
 20
0.0
 11
12.0
 21
9.0
 12
0.0
 22
0.0
 32
0.0
 14
1.000000000000000E+20
 24
1.000000000000000E+20
 34
1.000000000000000E+20
 15
-1.000000000000000E+20
 25
-1.000000000000000E+20
 35
-1.000000000000000E+20
146
0.0
 13
0.0
 23
0.0
 33
0.0
 16
1.0
 26
0.0
 36
0.0
 17
0.0
 27
1.0
 37
0.0
 76
     0
330
1B
  0
LAYOUT
  5
26
102
{ACAD_REACTORS
330
1A
102
}
330
1A
100
AcDbPlotSettings
  1

  2
none_device
  4

  6

 40
0.0
 41
0.0
 42
0.0
 43
0.0
 44
0.0
 45
0.0
 46
0.0
 47
0.0
 48
0.0
 49
0.0
140
0.0
141
0.0
142
1.0
143
1.0
 70
   688
 72
     0
 73
     0
 74
     5
  7

 75
    16
 76
     0
 77
     2
 78
   300
147
1.0
148
0.0
149
0.0
100
AcDbLayout
  1
Layout2
 70
     1
 71
     2
 10
0.0
 20
0.0
 11
0.0
 21
0.0
 12
0.0
 22
0.0
 32
0.0
 14
0.0
 24
0.0
 34
0.0
 15
0.0
 25
0.0
 35
0.0
146
0.0
 13
0.0
 23
0.0
 33
0.0
 16
1.0
 26
0.0
 36
0.0
 17
0.0
 27
1.0
 37
0.0
 76
     0
330
23
  0
LAYOUT
  5
22
102
{ACAD_REACTORS
330
1A
102
}
330
1A
100
AcDbPlotSettings
  1

  2
none_device
  4

  6

 40
0.0
 41
0.0
 42
0.0
 43
0.0
 44
0.0
 45
0.0
 46
0.0
 47
0.0
 48
0.0
 49
0.0
140
0.0
141
0.0
142
1.0
143
1.0
 70
  1712
 72
     0
 73
     0
 74
     0
  7

 75
     0
 76
     0
 77
     2
 78
   300
147
1.0
148
0.0
149
0.0
100
AcDbLayout
  1
Model
 70
     1
 71
     0
 10
0.0
 20
0.0
 11
12.0
 21
9.0
 12
0.0
 22
0.0
 32
0.0
 14
16175.05195209413
 24
23582.13314555258
 34
0.0
 15
16975.05195209414
 25
24072.13314555258
 35
0.0
146
0.0
 13
0.0
 23
0.0
 33
0.0
 16
1.0
 26
0.0
 36
0.0
 17
0.0
 27
1.0
 37
0.0
 76
     0
330
1F
331
29
  0
MLINESTYLE
  5
18
102
{ACAD_REACTORS
330
17
102
}
330
17
100
AcDbMlineStyle
  2
Standard
 70
     0
  3

 62
   256
 51
90.0
 52
90.0
 71
     2
 49
0.5
 62
   256
  6
BYLAYER
 49
-0.5
 62
   256
  6
BYLAYER
  0
ACDBPLACEHOLDER
  5
F
102
{ACAD_REACTORS
330
E
102
}
330
E
  0
VISUALSTYLE
  5
2F
102
{ACAD_REACTORS
330
2A
102
}
330
2A
100
AcDbVisualStyle
  2
2dWireframe
 70
     4
 71
     0
 72
     2
 73
     0
 90
        0
 40
-0.6
 41
-30.0
 62
     5
 63
     7
421
 16777215
 74
     1
 91
        4
 64
     7
 65
   257
 75
     1
175
     1
 42
1.0
 92
        0
 66
   257
 43
1.0
 76
     1
 77
     6
 78
     2
 67
     7
 79
     5
170
     0
171
     0
290
     0
174
     0
 93
        1
 44
0.0
173
     0
291
     0
 45
0.0
1001
ACAD
1000
AcDbSavedByObjectVersion
1070
     0
  0
VISUALSTYLE
  5
31
102
{ACAD_REACTORS
330
2A
102
}
330
2A
100
AcDbVisualStyle
  2
3D Hidden
 70
     6
 71
     1
 72
     2
 73
     2
 90
        0
 40
-0.6
 41
-30.0
 62
     5
 63
     7
421
 16777215
 74
     2
 91
        2
 64
     7
 65
   257
 75
     2
175
     1
 42
40.0
 92
        0
 66
   257
 43
1.0
 76
     1
 77
     6
 78
     2
 67
     7
 79
     3
170
     0
171
     0
290
     0
174
     0
 93
        1
 44
0.0
173
     0
291
     0
 45
0.0
1001
ACAD
1000
AcDbSavedByObjectVersion
1070
     0
  0
VISUALSTYLE
  5
30
102
{ACAD_REACTORS
330
2A
102
}
330
2A
100
AcDbVisualStyle
  2
3dWireframe
 70
     5
 71
     0
 72
     2
 73
     0
 90
        0
 40
-0.6
 41
-30.0
 62
     5
 63
     7
421
 16777215
 74
     1
 91
        4
 64
     7
 65
   257
 75
     1
175
     1
 42
1.0
 92
        0
 66
   257
 43
1.0
 76
     1
 77
     6
 78
     2
 67
     7
 79
     5
170
     0
171
     0
290
     0
174
     0
 93
        1
 44
0.0
173
     0
291
     0
 45
0.0
1001
ACAD
1000
AcDbSavedByObjectVersion
1070
     0
  0
VISUALSTYLE
  5
32
102
{ACAD_REACTORS
330
2A
102
}
330
2A
100
AcDbVisualStyle
  2
Basic
 70
     7
 71
     1
 72
     0
 73
     1
 90
        0
 40
-0.6
 41
-30.0
 62
     5
 63
     7
421
 16777215
 74
     0
 91
        4
 64
     7
 65
   257
 75
     1
175
     1
 42
1.0
 92
        8
 66
     7
 43
1.0
 76
     1
 77
     6
 78
     2
 67
     7
 79
     5
170
     0
171
     0
290
     0
174
     0
 93
        1
 44
0.0
173
     0
291
     1
 45
0.0
1001
ACAD
1000
AcDbSavedByObjectVersion
1070
     0
  0
VISUALSTYLE
  5
36
102
{ACAD_REACTORS
330
2A
102
}
330
2A
100
AcDbVisualStyle
  2
Brighten
 70
    12
 71
     2
 72
     2
 73
     0
 90
        0
 40
-0.6
 41
-30.0
 62
     5
 63
     7
421
 16777215
 74
     1
 91
        4
 64
     7
 65
   257
 75
     1
175
     1
 42
1.0
 92
        8
 66
     7
 43
1.0
 76
     1
 77
     6
 78
     2
 67
     7
 79
     5
170
     0
171
     0
290
     0
174
     0
 93
        1
 44
50.0
173
     0
291
     1
 45
0.0
1001
ACAD
1000
AcDbSavedByObjectVersion
1070
     0
  0
VISUALSTYLE
  5
3A
102
{ACAD_REACTORS
330
2A
102
}
330
2A
100
AcDbVisualStyle
  2
ColorChange
 70
    16
 71
     2
 72
     2
 73
     3
 90
        0
 40
-0.6
 41
-30.0
 62
     5
 63
     8
421
  8421504
 74
     1
 91
        4
 64
     7
 65
   257
 75
     1
175
     1
 42
1.0
 92
        8
 66
     8
424
  8421504
 43
1.0
 76
     1
 77
     6
 78
     2
 67
     7
 79
     5
170
     0
171
     0
290
     0
174
     0
 93
        1
 44
0.0
173
     0
291
     1
 45
0.0
1001
ACAD
1000
AcDbSavedByObjectVersion
1070
     0
  0
VISUALSTYLE
  5
34
102
{ACAD_REACTORS
330
2A
102
}
330
2A
100
AcDbVisualStyle
  2
Conceptual
 70
     9
 71
     3
 72
     2
 73
     0
 90
        0
 40
-0.6
 41
-30.0
 62
     5
 63
     7
421
 16777215
 74
     2
 91
        2
 64
     7
 65
   257
 75
     1
175
     1
 42
40.0
 92
        8
 66
     7
 43
1.0
 76
     1
 77
     6
 78
     2
 67
     7
 79
     3
170
     0
171
     0
290
     0
174
     0
 93
        1
 44
0.0
173
     0
291
     0
 45
0.0
1001
ACAD
1000
AcDbSavedByObjectVersion
1070
     0
  0
VISUALSTYLE
  5
35
102
{ACAD_REACTORS
330
2A
102
}
330
2A
100
AcDbVisualStyle
  2
Dim
 70
    11
 71
     2
 72
     2
 73
     0
 90
        0
 40
-0.6
 41
-30.0
 62
     5
 63
     7
421
 16777215
 74
     1
 91
        4
 64
     7
 65
   257
 75
     1
175
     1
 42
1.0
 92
        8
 66
     7
 43
1.0
 76
     1
 77
     6
 78
     2
 67
     7
 79
     5
170
     0
171
     0
290
     0
174
     0
 93
        1
 44
-50.0
173
     0
291
     1
 45
0.0
1001
ACAD
1000
AcDbSavedByObjectVersion
1070
     0
  0
VISUALSTYLE
  5
39
102
{ACAD_REACTORS
330
2A
102
}
330
2A
100
AcDbVisualStyle
  2
Facepattern
 70
    15
 71
     2
 72
     2
 73
     0
 90
        0
 40
-0.6
 41
-30.0
 62
     5
 63
     7
421
 16777215
 74
     1
 91
        4
 64
     7
 65
   257
 75
     1
175
     1
 42
1.0
 92
        8
 66
     7
 43
1.0
 76
     1
 77
     6
 78
     2
 67
     7
 79
     5
170
     0
171
     0
290
     0
174
     0
 93
        1
 44
0.0
173
     0
291
     1
 45
0.0
1001
ACAD
1000
AcDbSavedByObjectVersion
1070
     0
  0
VISUALSTYLE
  5
2B
102
{ACAD_REACTORS
330
2A
102
}
330
2A
100
AcDbVisualStyle
  2
Flat
 70
     0
 71
     2
 72
     1
 73
     1
 90
        2
 40
-0.6
 41
30.0
 62
     5
 63
     7
421
 16777215
 74
     0
 91
        4
 64
     7
 65
   257
 75
     1
175
     1
 42
1.0
 92
        8
 66
     7
 43
1.0
 76
     1
 77
     6
 78
     2
 67
     7
 79
     5
170
     0
171
     0
290
     0
174
     0
 93
       13
 44
0.0
173
     0
291
     1
 45
0.0
1001
ACAD
1000
AcDbSavedByObjectVersion
1070
     0
  0
VISUALSTYLE
  5
2C
102
{ACAD_REACTORS
330
2A
102
}
330
2A
100
AcDbVisualStyle
  2
FlatWithEdges
 70
     1
 71
     2
 72
     1
 73
     1
 90
        2
 40
-0.6
 41
30.0
 62
     5
 63
     7
421
 16777215
 74
     1
 91
        4
 64
     7
 65
   257
 75
     1
175
     1
 42
1.0
 92
        0
 66
   257
 43
1.0
 76
     1
 77
     6
 78
     2
 67
     7
 79
     5
170
     0
171
     0
290
     0
174
     0
 93
       13
 44
0.0
173
     0
291
     1
 45
0.0
1001
ACAD
1000
AcDbSavedByObjectVersion
1070
     0
  0
VISUALSTYLE
  5
2D
102
{ACAD_REACTORS
330
2A
102
}
330
2A
100
AcDbVisualStyle
  2
Gouraud
 70
     2
 71
     2
 72
     2
 73
     1
 90
        2
 40
-0.6
 41
30.0
 62
     5
 63
     7
421
 16777215
 74
     0
 91
        4
 64
     7
 65
   257
 75
     1
175
     1
 42
1.0
 92
        0
 66
     7
 43
1.0
 76
     1
 77
     6
 78
     2
 67
     7
 79
     5
170
     0
171
     0
290
     0
174
     0
 93
       13
 44
0.0
173
     0
291
     1
 45
0.0
1001
ACAD
1000
AcDbSavedByObjectVersion
1070
     0
  0
VISUALSTYLE
  5
2E
102
{ACAD_REACTORS
330
2A
102
}
330
2A
100
AcDbVisualStyle
  2
GouraudWithEdges
 70
     3
 71
     2
 72
     2
 73
     1
 90
        2
 40
-0.6
 41
30.0
 62
     5
 63
     7
421
 16777215
 74
     1
 91
        4
 64
     7
 65
   257
 75
     1
175
     1
 42
1.0
 92
        0
 66
   257
 43
1.0
 76
     1
 77
     6
 78
     2
 67
     7
 79
     5
170
     0
171
     0
290
     0
174
     0
 93
       13
 44
0.0
173
     0
291
     1
 45
0.0
1001
ACAD
1000
AcDbSavedByObjectVersion
1070
     0
  0
VISUALSTYLE
  5
38
102
{ACAD_REACTORS
330
2A
102
}
330
2A
100
AcDbVisualStyle
  2
Linepattern
 70
    14
 71
     2
 72
     2
 73
     0
 90
        0
 40
-0.6
 41
-30.0
 62
     5
 63
     7
421
 16777215
 74
     1
 91
        4
 64
     7
 65
   257
 75
     7
175
     7
 42
1.0
 92
        8
 66
     7
 43
1.0
 76
     1
 77
     6
 78
     2
 67
     7
 79
     5
170
     0
171
     0
290
     0
174
     0
 93
        1
 44
0.0
173
     0
291
     1
 45
0.0
1001
ACAD
1000
AcDbSavedByObjectVersion
1070
     0
  0
VISUALSTYLE
  5
33
102
{ACAD_REACTORS
330
2A
102
}
330
2A
100
AcDbVisualStyle
  2
Realistic
 70
     8
 71
     2
 72
     2
 73
     0
 90
        0
 40
-0.6
 41
-30.0
 62
     5
 63
     7
421
 16777215
 74
     1
 91
        0
 64
     7
 65
   257
 75
     1
175
     1
 42
1.0
 92
        8
 66
     8
424
  7895160
 43
1.0
 76
     1
 77
     6
 78
     2
 67
     7
 79
     5
170
     0
171
     0
290
     0
174
     0
 93
       13
 44
0.0
173
     0
291
     0
 45
0.0
1001
ACAD
1000
AcDbSavedByObjectVersion
1070
     0
  0
VISUALSTYLE
  5
37
102
{ACAD_REACTORS
330
2A
102
}
330
2A
100
AcDbVisualStyle
  2
Thicken
 70
    13
 71
     2
 72
     2
 73
     0
 90
        0
 40
-0.6
 41
-30.0
 62
     5
 63
     7
421
 16777215
 74
     1
 91
        4
 64
     7
 65
   257
 75
     1
175
     1
 42
1.0
 92
       12
 66
     7
 43
1.0
 76
     1
 77
     6
 78
     2
 67
     7
 79
     5
170
     0
171
     0
290
     0
174
     0
 93
        1
 44
0.0
173
     0
291
     1
 45
0.0
1001
ACAD
1000
AcDbSavedByObjectVersion
1070
     0
  0
ENDSEC
  0
EOF
