  0
SECTION
  2
HEADER
  9
$ACADVER
  1
AC1018
  9
$ACADMAINTVER
 70
     0
  9
$DWGCODEPAGE
  3
ANSI_936
  9
$INSBASE
 10
0.0
 20
0.0
 30
0.0
  9
$EXTMIN
 10
1113.606215216918
 20
0.0000000802302793
 30
0.0
  9
$EXTMAX
 10
1930.556115494014
 20
480.0000000802376
 30
0.0
  9
$LIMMIN
 10
0.0
 20
0.0
  9
$LIMMAX
 10
12.0
 20
9.0
  9
$ORTHOMODE
 70
     0
  9
$REGENMODE
 70
     1
  9
$FILLMODE
 70
     1
  9
$QTEXTMODE
 70
     0
  9
$MIRRTEXT
 70
     1
  9
$LTSCALE
 40
1.0
  9
$ATTMODE
 70
     1
  9
$TEXTSIZE
 40
0.2
  9
$TRACEWID
 40
0.05
  9
$TEXTSTYLE
  7
Standard
  9
$CLAYER
  8
0
  9
$CELTYPE
  6
ByLayer
  9
$CECOLOR
 62
   256
  9
$CELTSCALE
 40
1.0
  9
$DISPSILH
 70
     0
  9
$DIMSCALE
 40
1.0
  9
$DIMASZ
 40
0.18
  9
$DIMEXO
 40
0.0625
  9
$DIMDLI
 40
0.38
  9
$DIMRND
 40
0.0
  9
$DIMDLE
 40
0.0
  9
$DIMEXE
 40
0.18
  9
$DIMTP
 40
0.0
  9
$DIMTM
 40
0.0
  9
$DIMTXT
 40
0.18
  9
$DIMCEN
 40
0.09
  9
$DIMTSZ
 40
0.0
  9
$DIMTOL
 70
     0
  9
$DIMLIM
 70
     0
  9
$DIMTIH
 70
     1
  9
$DIMTOH
 70
     1
  9
$DIMSE1
 70
     0
  9
$DIMSE2
 70
     0
  9
$DIMTAD
 70
     0
  9
$DIMZIN
 70
     0
  9
$DIMBLK
  1

  9
$DIMASO
 70
     1
  9
$DIMSHO
 70
     1
  9
$DIMPOST
  1

  9
$DIMAPOST
  1

  9
$DIMALT
 70
     0
  9
$DIMALTD
 70
     2
  9
$DIMALTF
 40
25.4
  9
$DIMLFAC
 40
1.0
  9
$DIMTOFL
 70
     0
  9
$DIMTVP
 40
0.0
  9
$DIMTIX
 70
     0
  9
$DIMSOXD
 70
     0
  9
$DIMSAH
 70
     0
  9
$DIMBLK1
  1

  9
$DIMBLK2
  1

  9
$DIMSTYLE
  2
Standard
  9
$DIMCLRD
 70
     0
  9
$DIMCLRE
 70
     0
  9
$DIMCLRT
 70
     0
  9
$DIMTFAC
 40
1.0
  9
$DIMGAP
 40
0.09
  9
$DIMJUST
 70
     0
  9
$DIMSD1
 70
     0
  9
$DIMSD2
 70
     0
  9
$DIMTOLJ
 70
     1
  9
$DIMTZIN
 70
     0
  9
$DIMALTZ
 70
     0
  9
$DIMALTTZ
 70
     0
  9
$DIMUPT
 70
     0
  9
$DIMDEC
 70
     4
  9
$DIMTDEC
 70
     4
  9
$DIMALTU
 70
     2
  9
$DIMALTTD
 70
     2
  9
$DIMTXSTY
  7
Standard
  9
$DIMAUNIT
 70
     0
  9
$DIMADEC
 70
     0
  9
$DIMALTRND
 40
0.0
  9
$DIMAZIN
 70
     0
  9
$DIMDSEP
 70
    46
  9
$DIMATFIT
 70
     3
  9
$DIMFRAC
 70
     0
  9
$DIMLDRBLK
  1

  9
$DIMLUNIT
 70
     2
  9
$DIMLWD
 70
    -2
  9
$DIMLWE
 70
    -2
  9
$DIMTMOVE
 70
     2
  9
$LUNITS
 70
     2
  9
$LUPREC
 70
     4
  9
$SKETCHINC
 40
0.1
  9
$FILLETRAD
 40
0.5
  9
$AUNITS
 70
     0
  9
$AUPREC
 70
     0
  9
$MENU
  1
.
  9
$ELEVATION
 40
0.0
  9
$PELEVATION
 40
0.0
  9
$THICKNESS
 40
0.0
  9
$LIMCHECK
 70
     0
  9
$CHAMFERA
 40
0.5
  9
$CHAMFERB
 40
0.5
  9
$CHAMFERC
 40
1.0
  9
$CHAMFERD
 40
0.0
  9
$SKPOLY
 70
     0
  9
$TDCREATE
 40
2456461.003145255
  9
$TDUCREATE
 40
2456460.919811921
  9
$TDUPDATE
 40
2456461.003145266
  9
$TDUUPDATE
 40
2456460.919811933
  9
$TDINDWG
 40
0.0000000116
  9
$TDUSRTIMER
 40
0.0000000116
  9
$USRTIMER
 70
     1
  9
$ANGBASE
 50
0.0
  9
$ANGDIR
 70
     0
  9
$PDMODE
 70
     0
  9
$PDSIZE
 40
0.0
  9
$PLINEWID
 40
0.0
  9
$SPLFRAME
 70
     0
  9
$SPLINETYPE
 70
     6
  9
$SPLINESEGS
 70
     8
  9
$HANDSEED
  5
172
  9
$SURFTAB1
 70
     6
  9
$SURFTAB2
 70
     6
  9
$SURFTYPE
 70
     6
  9
$SURFU
 70
     6
  9
$SURFV
 70
     6
  9
$UCSBASE
  2

  9
$UCSNAME
  2

  9
$UCSORG
 10
0.0
 20
0.0
 30
0.0
  9
$UCSXDIR
 10
1.0
 20
0.0
 30
0.0
  9
$UCSYDIR
 10
0.0
 20
1.0
 30
0.0
  9
$UCSORTHOREF
  2

  9
$UCSORTHOVIEW
 70
     0
  9
$UCSORGTOP
 10
0.0
 20
0.0
 30
0.0
  9
$UCSORGBOTTOM
 10
0.0
 20
0.0
 30
0.0
  9
$UCSORGLEFT
 10
0.0
 20
0.0
 30
0.0
  9
$UCSORGRIGHT
 10
0.0
 20
0.0
 30
0.0
  9
$UCSORGFRONT
 10
0.0
 20
0.0
 30
0.0
  9
$UCSORGBACK
 10
0.0
 20
0.0
 30
0.0
  9
$PUCSBASE
  2

  9
$PUCSNAME
  2

  9
$PUCSORG
 10
0.0
 20
0.0
 30
0.0
  9
$PUCSXDIR
 10
1.0
 20
0.0
 30
0.0
  9
$PUCSYDIR
 10
0.0
 20
1.0
 30
0.0
  9
$PUCSORTHOREF
  2

  9
$PUCSORTHOVIEW
 70
     0
  9
$PUCSORGTOP
 10
0.0
 20
0.0
 30
0.0
  9
$PUCSORGBOTTOM
 10
0.0
 20
0.0
 30
0.0
  9
$PUCSORGLEFT
 10
0.0
 20
0.0
 30
0.0
  9
$PUCSORGRIGHT
 10
0.0
 20
0.0
 30
0.0
  9
$PUCSORGFRONT
 10
0.0
 20
0.0
 30
0.0
  9
$PUCSORGBACK
 10
0.0
 20
0.0
 30
0.0
  9
$USERI1
 70
     0
  9
$USERI2
 70
     0
  9
$USERI3
 70
     0
  9
$USERI4
 70
     0
  9
$USERI5
 70
     0
  9
$USERR1
 40
0.0
  9
$USERR2
 40
0.0
  9
$USERR3
 40
0.0
  9
$USERR4
 40
0.0
  9
$USERR5
 40
0.0
  9
$WORLDVIEW
 70
     1
  9
$SHADEDGE
 70
     3
  9
$SHADEDIF
 70
    70
  9
$TILEMODE
 70
     1
  9
$MAXACTVP
 70
    64
  9
$PINSBASE
 10
0.0
 20
0.0
 30
0.0
  9
$PLIMCHECK
 70
     0
  9
$PEXTMIN
 10
1.000000000000000E+20
 20
1.000000000000000E+20
 30
1.000000000000000E+20
  9
$PEXTMAX
 10
-1.000000000000000E+20
 20
-1.000000000000000E+20
 30
-1.000000000000000E+20
  9
$PLIMMIN
 10
0.0
 20
0.0
  9
$PLIMMAX
 10
12.0
 20
9.0
  9
$UNITMODE
 70
     0
  9
$VISRETAIN
 70
     1
  9
$PLINEGEN
 70
     0
  9
$PSLTSCALE
 70
     1
  9
$TREEDEPTH
 70
  3020
  9
$CMLSTYLE
  2
Standard
  9
$CMLJUST
 70
     0
  9
$CMLSCALE
 40
1.0
  9
$PROXYGRAPHICS
 70
     1
  9
$MEASUREMENT
 70
     0
  9
$CELWEIGHT
370
    -1
  9
$ENDCAPS
280
     0
  9
$JOINSTYLE
280
     0
  9
$LWDISPLAY
290
     0
  9
$INSUNITS
 70
     4
  9
$HYPERLINKBASE
  1

  9
$STYLESHEET
  1

  9
$XEDIT
290
     1
  9
$CEPSNTYPE
380
     0
  9
$PSTYLEMODE
290
     1
  9
$FINGERPRINTGUID
  2
{3AAADFE2-8E55-46A2-B4C2-CA65A65D0447}
  9
$VERSIONGUID
  2
{FAEB1C32-E019-11D5-929B-00C0DF256EC4}
  9
$EXTNAMES
290
     1
  9
$PSVPSCALE
 40
0.0
  9
$OLESTARTUP
290
     0
  9
$SORTENTS
280
   127
  9
$INDEXCTL
280
     0
  9
$HIDETEXT
280
     1
  9
$XCLIPFRAME
290
     0
  9
$HALOGAP
280
     0
  9
$OBSCOLOR
 70
   257
  9
$OBSLTYPE
280
     0
  9
$INTERSECTIONDISPLAY
280
     0
  9
$INTERSECTIONCOLOR
 70
   257
  9
$DIMASSOC
280
     2
  9
$PROJECTNAME
  1

  0
ENDSEC
  0
SECTION
  2
CLASSES
  0
CLASS
  1
ACDBDICTIONARYWDFLT
  2
AcDbDictionaryWithDefault
  3
ObjectDBX Classes
 90
        0
 91
        4
280
     0
281
     0
  0
CLASS
  1
VISUALSTYLE
  2
AcDbVisualStyle
  3
ObjectDBX Classes
 90
     4095
 91
        4
280
     0
281
     0
  0
ENDSEC
  0
SECTION
  2
TABLES
  0
TABLE
  2
VPORT
  5
8
330
0
100
AcDbSymbolTable
 70
     1
  0
VPORT
  5
29
330
8
100
AcDbSymbolTableRecord
100
AcDbViewportTableRecord
  2
*Active
 70
     0
 10
0.0
 20
0.0
 11
1.0
 21
1.0
 12
1522.081165355466
 22
240.0000000802339
 13
0.0
 23
0.0
 14
0.5
 24
0.5
 15
0.5
 25
0.5
 16
0.0
 26
0.0
 36
1.0
 17
0.0
 27
0.0
 37
0.0
 40
489.6000000000074
 41
1.70197895891059
 42
50.0
 43
0.0
 44
0.0
 50
0.0
 51
0.0
 71
     0
 72
   100
 73
     1
 74
     3
 75
     0
 76
     0
 77
     0
 78
     0
281
     0
 65
     1
110
0.0
120
0.0
130
0.0
111
1.0
121
0.0
131
0.0
112
0.0
122
1.0
132
0.0
 79
     0
146
0.0
  0
ENDTAB
  0
TABLE
  2
LTYPE
  5
5
330
0
100
AcDbSymbolTable
 70
     1
  0
LTYPE
  5
14
330
5
100
AcDbSymbolTableRecord
100
AcDbLinetypeTableRecord
  2
ByBlock
 70
     0
  3

 72
    65
 73
     0
 40
0.0
  0
LTYPE
  5
15
330
5
100
AcDbSymbolTableRecord
100
AcDbLinetypeTableRecord
  2
ByLayer
 70
     0
  3

 72
    65
 73
     0
 40
0.0
  0
LTYPE
  5
16
330
5
100
AcDbSymbolTableRecord
100
AcDbLinetypeTableRecord
  2
Continuous
 70
     0
  3
Solid line
 72
    65
 73
     0
 40
0.0
  0
ENDTAB
  0
TABLE
  2
LAYER
  5
2
330
0
100
AcDbSymbolTable
 70
     2
  0
LAYER
  5
10
330
2
100
AcDbSymbolTableRecord
100
AcDbLayerTableRecord
  2
0
 70
     0
 62
     7
  6
Continuous
370
    -3
390
F
  0
LAYER
  5
3B
330
2
100
AcDbSymbolTableRecord
100
AcDbLayerTableRecord
  2
MAKE2D VISIBLE LINES
 70
     0
 62
     7
  6
Continuous
370
    -3
390
F
  0
ENDTAB
  0
TABLE
  2
STYLE
  5
3
330
0
100
AcDbSymbolTable
 70
     1
  0
STYLE
  5
11
330
3
100
AcDbSymbolTableRecord
100
AcDbTextStyleTableRecord
  2
Standard
 70
     0
 40
0.0
 41
1.0
 50
0.0
 71
     0
 42
0.2
  3
txt
  4

  0
ENDTAB
  0
TABLE
  2
VIEW
  5
6
330
0
100
AcDbSymbolTable
 70
     0
  0
ENDTAB
  0
TABLE
  2
UCS
  5
7
330
0
100
AcDbSymbolTable
 70
     0
  0
ENDTAB
  0
TABLE
  2
APPID
  5
9
330
0
100
AcDbSymbolTable
 70
     1
  0
APPID
  5
12
330
9
100
AcDbSymbolTableRecord
100
AcDbRegAppTableRecord
  2
ACAD
 70
     0
  0
ENDTAB
  0
TABLE
  2
DIMSTYLE
  5
A
330
0
100
AcDbSymbolTable
 70
     1
100
AcDbDimStyleTable
  0
DIMSTYLE
105
27
330
A
100
AcDbSymbolTableRecord
100
AcDbDimStyleTableRecord
  2
Standard
 70
     0
340
11
  0
ENDTAB
  0
TABLE
  2
BLOCK_RECORD
  5
1
330
0
100
AcDbSymbolTable
 70
     1
  0
BLOCK_RECORD
  5
1F
330
1
100
AcDbSymbolTableRecord
100
AcDbBlockTableRecord
  2
*Model_Space
340
22
  0
BLOCK_RECORD
  5
1B
330
1
100
AcDbSymbolTableRecord
100
AcDbBlockTableRecord
  2
*Paper_Space
340
1E
  0
BLOCK_RECORD
  5
23
330
1
100
AcDbSymbolTableRecord
100
AcDbBlockTableRecord
  2
*Paper_Space0
340
26
  0
ENDTAB
  0
ENDSEC
  0
SECTION
  2
BLOCKS
  0
BLOCK
  5
20
330
1F
100
AcDbEntity
  8
0
100
AcDbBlockBegin
  2
*Model_Space
 70
     0
 10
0.0
 20
0.0
 30
0.0
  3
*Model_Space
  1

  0
ENDBLK
  5
21
330
1F
100
AcDbEntity
  8
0
100
AcDbBlockEnd
  0
BLOCK
  5
1C
330
1B
100
AcDbEntity
 67
     1
  8
0
100
AcDbBlockBegin
  2
*Paper_Space
 70
     0
 10
0.0
 20
0.0
 30
0.0
  3
*Paper_Space
  1

  0
ENDBLK
  5
1D
330
1B
100
AcDbEntity
 67
     1
  8
0
100
AcDbBlockEnd
  0
BLOCK
  5
24
330
23
100
AcDbEntity
  8
0
100
AcDbBlockBegin
  2
*Paper_Space0
 70
     0
 10
0.0
 20
0.0
 30
0.0
  3
*Paper_Space0
  1

  0
ENDBLK
  5
25
330
23
100
AcDbEntity
  8
0
100
AcDbBlockEnd
  0
ENDSEC
  0
SECTION
  2
ENTITIES
  0
LINE
  5
3C
330
1F
100
AcDbEntity
  8
MAKE2D VISIBLE LINES
100
AcDbLine
 10
1133.606215216937
 20
0.0000000802302793
 30
0.0
 11
1910.556115494012
 21
0.0000000802302793
 31
0.0
  0
LINE
  5
3D
330
1F
100
AcDbEntity
  8
MAKE2D VISIBLE LINES
100
AcDbLine
 10
1910.556115494012
 20
480.0000000802376
 30
0.0
 11
1133.60621521685
 21
480.0000000802303
 31
0.0
  0
LINE
  5
3E
330
1F
100
AcDbEntity
  8
MAKE2D VISIBLE LINES
100
AcDbLine
 10
1113.606426515736
 20
451.9709286111385
 30
0.0
 11
1113.607159274651
 21
451.9385562898149
 31
0.0
  0
LINE
  5
3F
330
1F
100
AcDbEntity
  8
MAKE2D VISIBLE LINES
100
AcDbLine
 10
1113.606565902789
 20
336.9625485073165
 30
0.0
 11
1113.607159281775
 21
336.9385560571068
 31
0.0
  0
LINE
  5
40
330
1F
100
AcDbEntity
  8
MAKE2D VISIBLE LINES
100
AcDbLine
 10
1930.555171381897
 20
451.9385545190253
 30
0.0
 11
1930.555764808341
 21
451.9625485170566
 31
0.0
  0
LINE
  5
41
330
1F
100
AcDbEntity
  8
MAKE2D VISIBLE LINES
100
AcDbLine
 10
1930.555171388964
 20
336.9385547488447
 30
0.0
 11
1930.555904195244
 21
336.9709286111452
 31
0.0
  0
POLYLINE
  5
42
330
1F
100
AcDbEntity
  8
MAKE2D VISIBLE LINES
100
AcDb2dPolyline
 66
     1
 10
0.0
 20
0.0
 30
0.0
  0
VERTEX
  5
43
330
42
100
AcDbEntity
  8
MAKE2D VISIBLE LINES
100
AcDbVertex
100
AcDb2dVertex
 10
1285.73365920688
 20
335.0000000802303
 30
0.0
 42
-0.1990920596219671
  0
VERTEX
  5
44
330
42
100
AcDbEntity
  8
MAKE2D VISIBLE LINES
100
AcDbVertex
100
AcDb2dVertex
 10
1286.507430465043
 20
334.6205930794341
 30
0.0
  0
VERTEX
  5
45
330
42
100
AcDbEntity
  8
MAKE2D VISIBLE LINES
100
AcDbVertex
100
AcDb2dVertex
 10
1296.128017760641
 20
325.0000034784012
 30
0.0
  0
SEQEND
  5
46
330
42
100
AcDbEntity
  8
MAKE2D VISIBLE LINES
  0
POLYLINE
  5
47
330
1F
100
AcDbEntity
  8
MAKE2D VISIBLE LINES
100
AcDb2dPolyline
 66
     1
 10
0.0
 20
0.0
 30
0.0
  0
VERTEX
  5
48
330
47
100
AcDbEntity
  8
MAKE2D VISIBLE LINES
100
AcDbVertex
100
AcDb2dVertex
 10
1748.034301757812
 20
325.0
 30
0.0
  0
VERTEX
  5
49
330
47
100
AcDbEntity
  8
MAKE2D VISIBLE LINES
100
AcDbVertex
100
AcDb2dVertex
 10
1757.654900898479
 20
334.6205975879611
 30
0.0
 42
-0.1990889275079782
  0
VERTEX
  5
4A
330
47
100
AcDbEntity
  8
MAKE2D VISIBLE LINES
100
AcDbVertex
100
AcDb2dVertex
 10
1758.42867150407
 20
335.0000000802303
 30
0.0
  0
SEQEND
  5
4B
330
47
100
AcDbEntity
  8
MAKE2D VISIBLE LINES
  0
POLYLINE
  5
4C
330
1F
100
AcDbEntity
  8
MAKE2D VISIBLE LINES
100
AcDb2dPolyline
 66
     1
 10
0.0
 20
0.0
 30
0.0
  0
VERTEX
  5
4D
330
4C
100
AcDbEntity
  8
MAKE2D VISIBLE LINES
100
AcDbVertex
100
AcDb2dVertex
 10
1544.081165355475
 20
335.0000000802303
 30
0.0
  0
VERTEX
  5
4E
330
4C
100
AcDbEntity
  8
MAKE2D VISIBLE LINES
100
AcDbVertex
100
AcDb2dVertex
 10
1544.081165401051
 20
330.0324123755946
 30
0.0
 42
-0.4142113468805189
  0
VERTEX
  5
4F
330
4C
100
AcDbEntity
  8
MAKE2D VISIBLE LINES
100
AcDbVertex
100
AcDb2dVertex
 10
1539.081182120591
 20
325.0324123756565
 30
0.0
  0
VERTEX
  5
50
330
4C
100
AcDbEntity
  8
MAKE2D VISIBLE LINES
100
AcDbVertex
100
AcDb2dVertex
 10
1505.081087269646
 20
325.0324123757628
 30
0.0
 42
-0.4142128456257032
  0
VERTEX
  5
51
330
4C
100
AcDbEntity
  8
MAKE2D VISIBLE LINES
100
AcDbVertex
100
AcDb2dVertex
 10
1500.08113206791
 20
330.0324123756092
 30
0.0
  0
VERTEX
  5
52
330
4C
100
AcDbEntity
  8
MAKE2D VISIBLE LINES
100
AcDbVertex
100
AcDb2dVertex
 10
1500.081165355475
 20
335.0000000802303
 30
0.0
  0
SEQEND
  5
53
330
4C
100
AcDbEntity
  8
MAKE2D VISIBLE LINES
  0
LINE
  5
54
330
1F
100
AcDbEntity
  8
MAKE2D VISIBLE LINES
100
AcDbLine
 10
1930.556115494014
 20
336.9545679997096
 30
0.0
 11
1930.556115493983
 21
20.00000008023028
 31
0.0
  0
POLYLINE
  5
55
330
1F
100
AcDbEntity
  8
MAKE2D VISIBLE LINES
100
AcDb2dPolyline
 66
     1
 10
0.0
 20
0.0
 30
0.0
  0
VERTEX
  5
56
330
55
100
AcDbEntity
  8
MAKE2D VISIBLE LINES
100
AcDbVertex
100
AcDb2dVertex
 10
1258.558409190232
 20
335.0000000802157
 30
0.0
  0
VERTEX
  5
57
330
55
100
AcDbEntity
  8
MAKE2D VISIBLE LINES
100
AcDbVertex
100
AcDb2dVertex
 10
1258.567166513572
 20
334.9999071122019
 30
0.0
  0
VERTEX
  5
58
330
55
100
AcDbEntity
  8
MAKE2D VISIBLE LINES
100
AcDbVertex
100
AcDb2dVertex
 10
1258.57592075925
 20
334.9996181779868
 30
0.0
  0
VERTEX
  5
59
330
55
100
AcDbEntity
  8
MAKE2D VISIBLE LINES
100
AcDbVertex
100
AcDb2dVertex
 10
1258.58466819224
 20
334.9991358243414
 30
0.0
  0
VERTEX
  5
5A
330
55
100
AcDbEntity
  8
MAKE2D VISIBLE LINES
100
AcDbVertex
100
AcDb2dVertex
 10
1258.593405077518
 20
334.9984625980365
 30
0.0
  0
VERTEX
  5
5B
330
55
100
AcDbEntity
  8
MAKE2D VISIBLE LINES
100
AcDbVertex
100
AcDb2dVertex
 10
1258.602127680057
 20
334.9976010458431
 30
0.0
  0
VERTEX
  5
5C
330
55
100
AcDbEntity
  8
MAKE2D VISIBLE LINES
100
AcDbVertex
100
AcDb2dVertex
 10
1258.610832264833
 20
334.9965537145321
 30
0.0
  0
VERTEX
  5
5D
330
55
100
AcDbEntity
  8
MAKE2D VISIBLE LINES
100
AcDbVertex
100
AcDb2dVertex
 10
1258.61951509682
 20
334.9953231508744
 30
0.0
  0
VERTEX
  5
5E
330
55
100
AcDbEntity
  8
MAKE2D VISIBLE LINES
100
AcDbVertex
100
AcDb2dVertex
 10
1258.628172440994
 20
334.9939119016407
 30
0.0
  0
VERTEX
  5
5F
330
55
100
AcDbEntity
  8
MAKE2D VISIBLE LINES
100
AcDbVertex
100
AcDb2dVertex
 10
1258.636800562328
 20
334.9923225136022
 30
0.0
  0
VERTEX
  5
60
330
55
100
AcDbEntity
  8
MAKE2D VISIBLE LINES
100
AcDbVertex
100
AcDb2dVertex
 10
1258.645395725798
 20
334.9905575335296
 30
0.0
  0
VERTEX
  5
61
330
55
100
AcDbEntity
  8
MAKE2D VISIBLE LINES
100
AcDbVertex
100
AcDb2dVertex
 10
1258.653954196378
 20
334.9886195081938
 30
0.0
  0
VERTEX
  5
62
330
55
100
AcDbEntity
  8
MAKE2D VISIBLE LINES
100
AcDbVertex
100
AcDb2dVertex
 10
1258.662472239044
 20
334.9865109843659
 30
0.0
  0
VERTEX
  5
63
330
55
100
AcDbEntity
  8
MAKE2D VISIBLE LINES
100
AcDbVertex
100
AcDb2dVertex
 10
1258.67094611877
 20
334.9842345088164
 30
0.0
  0
VERTEX
  5
64
330
55
100
AcDbEntity
  8
MAKE2D VISIBLE LINES
100
AcDbVertex
100
AcDb2dVertex
 10
1258.679372100529
 20
334.9817926283166
 30
0.0
  0
VERTEX
  5
65
330
55
100
AcDbEntity
  8
MAKE2D VISIBLE LINES
100
AcDbVertex
100
AcDb2dVertex
 10
1258.687746449299
 20
334.9791878896371
 30
0.0
  0
VERTEX
  5
66
330
55
100
AcDbEntity
  8
MAKE2D VISIBLE LINES
100
AcDbVertex
100
AcDb2dVertex
 10
1258.696065430052
 20
334.976422839549
 30
0.0
  0
VERTEX
  5
67
330
55
100
AcDbEntity
  8
MAKE2D VISIBLE LINES
100
AcDbVertex
100
AcDb2dVertex
 10
1258.705312629929
 20
334.9731393385882
 30
0.0
  0
VERTEX
  5
68
330
55
100
AcDbEntity
  8
MAKE2D VISIBLE LINES
100
AcDbVertex
100
AcDb2dVertex
 10
1258.714485288542
 20
334.9696635857679
 30
0.0
  0
VERTEX
  5
69
330
55
100
AcDbEntity
  8
MAKE2D VISIBLE LINES
100
AcDbVertex
100
AcDb2dVertex
 10
1258.723582995107
 20
334.9660012068379
 30
0.0
  0
VERTEX
  5
6A
330
55
100
AcDbEntity
  8
MAKE2D VISIBLE LINES
100
AcDbVertex
100
AcDb2dVertex
 10
1258.732605338842
 20
334.962157827548
 30
0.0
  0
VERTEX
  5
6B
330
55
100
AcDbEntity
  8
MAKE2D VISIBLE LINES
100
AcDbVertex
100
AcDb2dVertex
 10
1258.741551908965
 20
334.958139073648
 30
0.0
  0
VERTEX
  5
6C
330
55
100
AcDbEntity
  8
MAKE2D VISIBLE LINES
100
AcDbVertex
100
AcDb2dVertex
 10
1258.75042229469
 20
334.9539505708879
 30
0.0
  0
VERTEX
  5
6D
330
55
100
AcDbEntity
  8
MAKE2D VISIBLE LINES
100
AcDbVertex
100
AcDb2dVertex
 10
1258.759216085237
 20
334.9495979450173
 30
0.0
  0
VERTEX
  5
6E
330
55
100
AcDbEntity
  8
MAKE2D VISIBLE LINES
100
AcDbVertex
100
AcDb2dVertex
 10
1258.767932869821
 20
334.9450868217862
 30
0.0
  0
VERTEX
  5
6F
330
55
100
AcDbEntity
  8
MAKE2D VISIBLE LINES
100
AcDbVertex
100
AcDb2dVertex
 10
1258.785133777971
 20
334.9356115862416
 30
0.0
  0
VERTEX
  5
70
330
55
100
AcDbEntity
  8
MAKE2D VISIBLE LINES
100
AcDbVertex
100
AcDb2dVertex
 10
1258.802021732874
 20
334.9255698702528
 30
0.0
  0
VERTEX
  5
71
330
55
100
AcDbEntity
  8
MAKE2D VISIBLE LINES
100
AcDbVertex
100
AcDb2dVertex
 10
1258.818593448267
 20
334.9150066798184
 30
0.0
  0
VERTEX
  5
72
330
55
100
AcDbEntity
  8
MAKE2D VISIBLE LINES
100
AcDbVertex
100
AcDb2dVertex
 10
1258.834845637884
 20
334.903967020937
 30
0.0
  0
VERTEX
  5
73
330
55
100
AcDbEntity
  8
MAKE2D VISIBLE LINES
100
AcDbVertex
100
AcDb2dVertex
 10
1258.853990419329
 20
334.8900976978519
 30
0.0
  0
VERTEX
  5
74
330
55
100
AcDbEntity
  8
MAKE2D VISIBLE LINES
100
AcDbVertex
100
AcDb2dVertex
 10
1258.872678964564
 20
334.8756389768443
 30
0.0
  0
VERTEX
  5
75
330
55
100
AcDbEntity
  8
MAKE2D VISIBLE LINES
100
AcDbVertex
100
AcDb2dVertex
 10
1258.890923130443
 20
334.8606271014029
 30
0.0
  0
VERTEX
  5
76
330
55
100
AcDbEntity
  8
MAKE2D VISIBLE LINES
100
AcDbVertex
100
AcDb2dVertex
 10
1258.908734773821
 20
334.8450983150163
 30
0.0
  0
VERTEX
  5
77
330
55
100
AcDbEntity
  8
MAKE2D VISIBLE LINES
100
AcDbVertex
100
AcDb2dVertex
 10
1258.926125751553
 20
334.8290888611732
 30
0.0
  0
VERTEX
  5
78
330
55
100
AcDbEntity
  8
MAKE2D VISIBLE LINES
100
AcDbVertex
100
AcDb2dVertex
 10
1258.943107920493
 20
334.8126349833621
 30
0.0
  0
VERTEX
  5
79
330
55
100
AcDbEntity
  8
MAKE2D VISIBLE LINES
100
AcDbVertex
100
AcDb2dVertex
 10
1258.959693137496
 20
334.7957729250718
 30
0.0
  0
VERTEX
  5
7A
330
55
100
AcDbEntity
  8
MAKE2D VISIBLE LINES
100
AcDbVertex
100
AcDb2dVertex
 10
1258.975893259416
 20
334.778538929791
 30
0.0
  0
VERTEX
  5
7B
330
55
100
AcDbEntity
  8
MAKE2D VISIBLE LINES
100
AcDbVertex
100
AcDb2dVertex
 10
1258.993316240695
 20
334.7591543590217
 30
0.0
  0
VERTEX
  5
7C
330
55
100
AcDbEntity
  8
MAKE2D VISIBLE LINES
100
AcDbVertex
100
AcDb2dVertex
 10
1259.010305451696
 20
334.7393898004937
 30
0.0
  0
VERTEX
  5
7D
330
55
100
AcDbEntity
  8
MAKE2D VISIBLE LINES
100
AcDbVertex
100
AcDb2dVertex
 10
1259.026880470981
 20
334.7192730120863
 30
0.0
  0
VERTEX
  5
7E
330
55
100
AcDbEntity
  8
MAKE2D VISIBLE LINES
100
AcDbVertex
100
AcDb2dVertex
 10
1259.04306087711
 20
334.6988317516787
 30
0.0
  0
VERTEX
  5
7F
330
55
100
AcDbEntity
  8
MAKE2D VISIBLE LINES
100
AcDbVertex
100
AcDb2dVertex
 10
1259.07431616415
 20
334.6570868463796
 30
0.0
  0
VERTEX
  5
80
330
55
100
AcDbEntity
  8
MAKE2D VISIBLE LINES
100
AcDbVertex
100
AcDb2dVertex
 10
1259.104227941303
 20
334.6143771476298
 30
0.0
  0
VERTEX
  5
81
330
55
100
AcDbEntity
  8
MAKE2D VISIBLE LINES
100
AcDbVertex
100
AcDb2dVertex
 10
1259.140511440067
 20
334.5590038145975
 30
0.0
  0
VERTEX
  5
82
330
55
100
AcDbEntity
  8
MAKE2D VISIBLE LINES
100
AcDbVertex
100
AcDb2dVertex
 10
1259.174996215063
 20
334.5025340968899
 30
0.0
  0
VERTEX
  5
83
330
55
100
AcDbEntity
  8
MAKE2D VISIBLE LINES
100
AcDbVertex
100
AcDb2dVertex
 10
1259.207800023206
 20
334.445070911212
 30
0.0
  0
VERTEX
  5
84
330
55
100
AcDbEntity
  8
MAKE2D VISIBLE LINES
100
AcDbVertex
100
AcDb2dVertex
 10
1259.239040621409
 20
334.3867171742694
 30
0.0
  0
VERTEX
  5
85
330
55
100
AcDbEntity
  8
MAKE2D VISIBLE LINES
100
AcDbVertex
100
AcDb2dVertex
 10
1259.268835766587
 20
334.3275758027671
 30
0.0
  0
VERTEX
  5
86
330
55
100
AcDbEntity
  8
MAKE2D VISIBLE LINES
100
AcDbVertex
100
AcDb2dVertex
 10
1259.297303215652
 20
334.2677497134106
 30
0.0
  0
VERTEX
  5
87
330
55
100
AcDbEntity
  8
MAKE2D VISIBLE LINES
100
AcDbVertex
100
AcDb2dVertex
 10
1259.324560725521
 20
334.2073418229051
 30
0.0
  0
VERTEX
  5
88
330
55
100
AcDbEntity
  8
MAKE2D VISIBLE LINES
100
AcDbVertex
100
AcDb2dVertex
 10
1259.350726053106
 20
334.1464550479557
 30
0.0
  0
VERTEX
  5
89
330
55
100
AcDbEntity
  8
MAKE2D VISIBLE LINES
100
AcDbVertex
100
AcDb2dVertex
 10
1259.381298061385
 20
334.0716959275524
 30
0.0
  0
VERTEX
  5
8A
330
55
100
AcDbEntity
  8
MAKE2D VISIBLE LINES
100
AcDbVertex
100
AcDb2dVertex
 10
1259.410494510444
 20
333.996417864495
 30
0.0
  0
VERTEX
  5
8B
330
55
100
AcDbEntity
  8
MAKE2D VISIBLE LINES
100
AcDbVertex
100
AcDb2dVertex
 10
1259.465052704765
 20
333.8444647510401
 30
0.0
  0
VERTEX
  5
8C
330
55
100
AcDbEntity
  8
MAKE2D VISIBLE LINES
100
AcDbVertex
100
AcDb2dVertex
 10
1259.514984583789
 20
333.6909153888348
 30
0.0
  0
VERTEX
  5
8D
330
55
100
AcDbEntity
  8
MAKE2D VISIBLE LINES
100
AcDbVertex
100
AcDb2dVertex
 10
1259.560874095236
 20
333.536089459123
 30
0.0
  0
VERTEX
  5
8E
330
55
100
AcDbEntity
  8
MAKE2D VISIBLE LINES
100
AcDbVertex
100
AcDb2dVertex
 10
1259.610453289044
 20
333.3524050945807
 30
0.0
  0
VERTEX
  5
8F
330
55
100
AcDbEntity
  8
MAKE2D VISIBLE LINES
100
AcDbVertex
100
AcDb2dVertex
 10
1259.655606429059
 20
333.1675740606711
 30
0.0
  0
VERTEX
  5
90
330
55
100
AcDbEntity
  8
MAKE2D VISIBLE LINES
100
AcDbVertex
100
AcDb2dVertex
 10
1259.696708707852
 20
332.9817781116636
 30
0.0
  0
VERTEX
  5
91
330
55
100
AcDbEntity
  8
MAKE2D VISIBLE LINES
100
AcDbVertex
100
AcDb2dVertex
 10
1259.734135317989
 20
332.795199001828
 30
0.0
  0
VERTEX
  5
92
330
55
100
AcDbEntity
  8
MAKE2D VISIBLE LINES
100
AcDbVertex
100
AcDb2dVertex
 10
1259.773247629223
 20
332.578827930798
 30
0.0
  0
VERTEX
  5
93
330
55
100
AcDbEntity
  8
MAKE2D VISIBLE LINES
100
AcDbVertex
100
AcDb2dVertex
 10
1259.808229767355
 20
332.3617601347606
 30
0.0
  0
VERTEX
  5
94
330
55
100
AcDbEntity
  8
MAKE2D VISIBLE LINES
100
AcDbVertex
100
AcDb2dVertex
 10
1259.866911815517
 20
331.9259597879429
 30
0.0
  0
VERTEX
  5
95
330
55
100
AcDbEntity
  8
MAKE2D VISIBLE LINES
100
AcDbVertex
100
AcDb2dVertex
 10
1259.915864386194
 20
331.4459447799714
 30
0.0
  0
VERTEX
  5
96
330
55
100
AcDbEntity
  8
MAKE2D VISIBLE LINES
100
AcDbVertex
100
AcDb2dVertex
 10
1259.94982982799
 20
330.9646122369604
 30
0.0
  0
VERTEX
  5
97
330
55
100
AcDbEntity
  8
MAKE2D VISIBLE LINES
100
AcDbVertex
100
AcDb2dVertex
 10
1259.969709730484
 20
330.4824635425125
 30
0.0
  0
VERTEX
  5
98
330
55
100
AcDbEntity
  8
MAKE2D VISIBLE LINES
100
AcDbVertex
100
AcDb2dVertex
 10
1259.976405683255
 20
330.0000000802303
 30
0.0
  0
VERTEX
  5
99
330
55
100
AcDbEntity
  8
MAKE2D VISIBLE LINES
100
AcDbVertex
100
AcDb2dVertex
 10
1259.976405683255
 20
61.43357153950467
 30
0.0
  0
VERTEX
  5
9A
330
55
100
AcDbEntity
  8
MAKE2D VISIBLE LINES
100
AcDbVertex
100
AcDb2dVertex
 10
1259.993197373503
 20
60.10934722406742
 30
0.0
  0
VERTEX
  5
9B
330
55
100
AcDbEntity
  8
MAKE2D VISIBLE LINES
100
AcDbVertex
100
AcDb2dVertex
 10
1260.044319950616
 20
58.78604989784179
 30
0.0
  0
VERTEX
  5
9C
330
55
100
AcDbEntity
  8
MAKE2D VISIBLE LINES
100
AcDbVertex
100
AcDb2dVertex
 10
1260.130921409527
 20
57.46465571751919
 30
0.0
  0
VERTEX
  5
9D
330
55
100
AcDbEntity
  8
MAKE2D VISIBLE LINES
100
AcDbVertex
100
AcDb2dVertex
 10
1260.25414974517
 20
56.14614083979105
 30
0.0
  0
VERTEX
  5
9E
330
55
100
AcDbEntity
  8
MAKE2D VISIBLE LINES
100
AcDbVertex
100
AcDb2dVertex
 10
1260.412732534666
 20
54.85004977046139
 30
0.0
  0
VERTEX
  5
9F
330
55
100
AcDbEntity
  8
MAKE2D VISIBLE LINES
100
AcDbVertex
100
AcDb2dVertex
 10
1260.609803050533
 20
53.55929453046785
 30
0.0
  0
VERTEX
  5
A0
330
55
100
AcDbEntity
  8
MAKE2D VISIBLE LINES
100
AcDbVertex
100
AcDb2dVertex
 10
1260.847129288867
 20
52.27546318194541
 30
0.0
  0
VERTEX
  5
A1
330
55
100
AcDbEntity
  8
MAKE2D VISIBLE LINES
100
AcDbVertex
100
AcDb2dVertex
 10
1261.126479245765
 20
51.00014378702904
 30
0.0
  0
VERTEX
  5
A2
330
55
100
AcDbEntity
  8
MAKE2D VISIBLE LINES
100
AcDbVertex
100
AcDb2dVertex
 10
1261.426988151153
 20
49.8183204235862
 30
0.0
  0
VERTEX
  5
A3
330
55
100
AcDbEntity
  8
MAKE2D VISIBLE LINES
100
AcDbVertex
100
AcDb2dVertex
 10
1261.59221035595
 20
49.23139008606476
 30
0.0
  0
VERTEX
  5
A4
330
55
100
AcDbEntity
  8
MAKE2D VISIBLE LINES
100
AcDbVertex
100
AcDb2dVertex
 10
1261.767754619145
 20
48.64747546469228
 30
0.0
  0
VERTEX
  5
A5
330
55
100
AcDbEntity
  8
MAKE2D VISIBLE LINES
100
AcDbVertex
100
AcDb2dVertex
 10
1261.946119138074
 20
48.09035730690034
 30
0.0
  0
VERTEX
  5
A6
330
55
100
AcDbEntity
  8
MAKE2D VISIBLE LINES
100
AcDbVertex
100
AcDb2dVertex
 10
1262.134477850975
 20
47.53655766831788
 30
0.0
  0
VERTEX
  5
A7
330
55
100
AcDbEntity
  8
MAKE2D VISIBLE LINES
100
AcDbVertex
100
AcDb2dVertex
 10
1262.333086673018
 20
46.98636965163891
 30
0.0
  0
VERTEX
  5
A8
330
55
100
AcDbEntity
  8
MAKE2D VISIBLE LINES
100
AcDbVertex
100
AcDb2dVertex
 10
1262.542201519376
 20
46.4400863595574
 30
0.0
  0
VERTEX
  5
A9
330
55
100
AcDbEntity
  8
MAKE2D VISIBLE LINES
100
AcDbVertex
100
AcDb2dVertex
 10
1262.758496299314
 20
45.90661744730205
 30
0.0
  0
VERTEX
  5
AA
330
55
100
AcDbEntity
  8
MAKE2D VISIBLE LINES
100
AcDbVertex
100
AcDb2dVertex
 10
1262.985485809829
 20
45.37760786082107
 30
0.0
  0
VERTEX
  5
AB
330
55
100
AcDbEntity
  8
MAKE2D VISIBLE LINES
100
AcDbVertex
100
AcDb2dVertex
 10
1263.223442845986
 20
44.85345172134322
 30
0.0
  0
VERTEX
  5
AC
330
55
100
AcDbEntity
  8
MAKE2D VISIBLE LINES
100
AcDbVertex
100
AcDb2dVertex
 10
1263.472640202853
 20
44.33454315009735
 30
0.0
  0
VERTEX
  5
AD
330
55
100
AcDbEntity
  8
MAKE2D VISIBLE LINES
100
AcDbVertex
100
AcDb2dVertex
 10
1263.714933604015
 20
43.85663753792836
 30
0.0
  0
VERTEX
  5
AE
330
55
100
AcDbEntity
  8
MAKE2D VISIBLE LINES
100
AcDbVertex
100
AcDb2dVertex
 10
1263.967460167084
 20
43.38406732797652
 30
0.0
  0
VERTEX
  5
AF
330
55
100
AcDbEntity
  8
MAKE2D VISIBLE LINES
100
AcDbVertex
100
AcDb2dVertex
 10
1264.230478700055
 20
42.91728026142629
 30
0.0
  0
VERTEX
  5
B0
330
55
100
AcDbEntity
  8
MAKE2D VISIBLE LINES
100
AcDbVertex
100
AcDb2dVertex
 10
1264.504248010923
 20
42.45672407946217
 30
0.0
  0
VERTEX
  5
B1
330
55
100
AcDbEntity
  8
MAKE2D VISIBLE LINES
100
AcDbVertex
100
AcDb2dVertex
 10
1264.784526308805
 20
42.00983776973109
 30
0.0
  0
VERTEX
  5
B2
330
55
100
AcDbEntity
  8
MAKE2D VISIBLE LINES
100
AcDbVertex
100
AcDb2dVertex
 10
1265.07567823318
 20
41.56996649649952
 30
0.0
  0
VERTEX
  5
B3
330
55
100
AcDbEntity
  8
MAKE2D VISIBLE LINES
100
AcDbVertex
100
AcDb2dVertex
 10
1265.377906010612
 20
41.13765182058049
 30
0.0
  0
VERTEX
  5
B4
330
55
100
AcDbEntity
  8
MAKE2D VISIBLE LINES
100
AcDbVertex
100
AcDb2dVertex
 10
1265.69141186766
 20
40.71343530278706
 30
0.0
  0
VERTEX
  5
B5
330
55
100
AcDbEntity
  8
MAKE2D VISIBLE LINES
100
AcDbVertex
100
AcDb2dVertex
 10
1265.989640284338
 20
40.33121292866683
 30
0.0
  0
VERTEX
  5
B6
330
55
100
AcDbEntity
  8
MAKE2D VISIBLE LINES
100
AcDbVertex
100
AcDb2dVertex
 10
1266.297705103485
 20
39.95687801914806
 30
0.0
  0
VERTEX
  5
B7
330
55
100
AcDbEntity
  8
MAKE2D VISIBLE LINES
100
AcDbVertex
100
AcDb2dVertex
 10
1266.61574684612
 20
39.59102122206367
 30
0.0
  0
VERTEX
  5
B8
330
55
100
AcDbEntity
  8
MAKE2D VISIBLE LINES
100
AcDbVertex
100
AcDb2dVertex
 10
1266.943906033257
 20
39.23423318524654
 30
0.0
  0
VERTEX
  5
B9
330
55
100
AcDbEntity
  8
MAKE2D VISIBLE LINES
100
AcDbVertex
100
AcDb2dVertex
 10
1267.274054205574
 20
38.89532876769611
 30
0.0
  0
VERTEX
  5
BA
330
55
100
AcDbEntity
  8
MAKE2D VISIBLE LINES
100
AcDbVertex
100
AcDb2dVertex
 10
1267.613962924717
 20
38.56622658147518
 30
0.0
  0
VERTEX
  5
BB
330
55
100
AcDbEntity
  8
MAKE2D VISIBLE LINES
100
AcDbVertex
100
AcDb2dVertex
 10
1267.963621372104
 20
38.24752765656542
 30
0.0
  0
VERTEX
  5
BC
330
55
100
AcDbEntity
  8
MAKE2D VISIBLE LINES
100
AcDbVertex
100
AcDb2dVertex
 10
1268.323018729154
 20
37.93983302294849
 30
0.0
  0
VERTEX
  5
BD
330
55
100
AcDbEntity
  8
MAKE2D VISIBLE LINES
100
AcDbVertex
100
AcDb2dVertex
 10
1268.667714188901
 20
37.66273875843726
 30
0.0
  0
VERTEX
  5
BE
330
55
100
AcDbEntity
  8
MAKE2D VISIBLE LINES
100
AcDbVertex
100
AcDb2dVertex
 10
1269.020779708839
 20
37.39638807219044
 30
0.0
  0
VERTEX
  5
BF
330
55
100
AcDbEntity
  8
MAKE2D VISIBLE LINES
100
AcDbVertex
100
AcDb2dVertex
 10
1269.382086726754
 20
37.14138594050104
 30
0.0
  0
VERTEX
  5
C0
330
55
100
AcDbEntity
  8
MAKE2D VISIBLE LINES
100
AcDbVertex
100
AcDb2dVertex
 10
1269.751506680429
 20
36.89833733966205
 30
0.0
  0
VERTEX
  5
C1
330
55
100
AcDbEntity
  8
MAKE2D VISIBLE LINES
100
AcDbVertex
100
AcDb2dVertex
 10
1270.116314121322
 20
36.67522184586333
 30
0.0
  0
VERTEX
  5
C2
330
55
100
AcDbEntity
  8
MAKE2D VISIBLE LINES
100
AcDbVertex
100
AcDb2dVertex
 10
1270.488293514467
 20
36.46429521021179
 30
0.0
  0
VERTEX
  5
C3
330
55
100
AcDbEntity
  8
MAKE2D VISIBLE LINES
100
AcDbVertex
100
AcDb2dVertex
 10
1270.867150175627
 20
36.26600212493249
 30
0.0
  0
VERTEX
  5
C4
330
55
100
AcDbEntity
  8
MAKE2D VISIBLE LINES
100
AcDbVertex
100
AcDb2dVertex
 10
1271.252589420563
 20
36.08078728225052
 30
0.0
  0
VERTEX
  5
C5
330
55
100
AcDbEntity
  8
MAKE2D VISIBLE LINES
100
AcDbVertex
100
AcDb2dVertex
 10
1271.456871430139
 20
35.98919864287647
 30
0.0
  0
VERTEX
  5
C6
330
55
100
AcDbEntity
  8
MAKE2D VISIBLE LINES
100
AcDbVertex
100
AcDb2dVertex
 10
1271.662810616338
 20
35.90137405958107
 30
0.0
  0
VERTEX
  5
C7
330
55
100
AcDbEntity
  8
MAKE2D VISIBLE LINES
100
AcDbVertex
100
AcDb2dVertex
 10
1271.870341239294
 20
35.81737223546038
 30
0.0
  0
VERTEX
  5
C8
330
55
100
AcDbEntity
  8
MAKE2D VISIBLE LINES
100
AcDbVertex
100
AcDb2dVertex
 10
1272.079397559148
 20
35.73725187361044
 30
0.0
  0
VERTEX
  5
C9
330
55
100
AcDbEntity
  8
MAKE2D VISIBLE LINES
100
AcDbVertex
100
AcDb2dVertex
 10
1272.289913836035
 20
35.66107167712731
 30
0.0
  0
VERTEX
  5
CA
330
55
100
AcDbEntity
  8
MAKE2D VISIBLE LINES
100
AcDbVertex
100
AcDb2dVertex
 10
1272.501824330095
 20
35.58889034910703
 30
0.0
  0
VERTEX
  5
CB
330
55
100
AcDbEntity
  8
MAKE2D VISIBLE LINES
100
AcDbVertex
100
AcDb2dVertex
 10
1272.715063301465
 20
35.52076659264569
 30
0.0
  0
VERTEX
  5
CC
330
55
100
AcDbEntity
  8
MAKE2D VISIBLE LINES
100
AcDbVertex
100
AcDb2dVertex
 10
1272.929565010282
 20
35.4567591108393
 30
0.0
  0
VERTEX
  5
CD
330
55
100
AcDbEntity
  8
MAKE2D VISIBLE LINES
100
AcDbVertex
100
AcDb2dVertex
 10
1273.128153157084
 20
35.40150014892472
 30
0.0
  0
VERTEX
  5
CE
330
55
100
AcDbEntity
  8
MAKE2D VISIBLE LINES
100
AcDbVertex
100
AcDb2dVertex
 10
1273.327692367801
 20
35.34978536152128
 30
0.0
  0
VERTEX
  5
CF
330
55
100
AcDbEntity
  8
MAKE2D VISIBLE LINES
100
AcDbVertex
100
AcDb2dVertex
 10
1273.52811863147
 20
35.3016184690195
 30
0.0
  0
VERTEX
  5
D0
330
55
100
AcDbEntity
  8
MAKE2D VISIBLE LINES
100
AcDbVertex
100
AcDb2dVertex
 10
1273.729367937126
 20
35.25700319180989
 30
0.0
  0
VERTEX
  5
D1
330
55
100
AcDbEntity
  8
MAKE2D VISIBLE LINES
100
AcDbVertex
100
AcDb2dVertex
 10
1273.931376273808
 20
35.21594325028296
 30
0.0
  0
VERTEX
  5
D2
330
55
100
AcDbEntity
  8
MAKE2D VISIBLE LINES
100
AcDbVertex
100
AcDb2dVertex
 10
1274.134079630552
 20
35.17844236482923
 30
0.0
  0
VERTEX
  5
D3
330
55
100
AcDbEntity
  8
MAKE2D VISIBLE LINES
100
AcDbVertex
100
AcDb2dVertex
 10
1274.337413996393
 20
35.14450425583921
 30
0.0
  0
VERTEX
  5
D4
330
55
100
AcDbEntity
  8
MAKE2D VISIBLE LINES
100
AcDbVertex
100
AcDb2dVertex
 10
1274.54131536037
 20
35.1141326437034
 30
0.0
  0
VERTEX
  5
D5
330
55
100
AcDbEntity
  8
MAKE2D VISIBLE LINES
100
AcDbVertex
100
AcDb2dVertex
 10
1274.745719711518
 20
35.08733124881233
 30
0.0
  0
VERTEX
  5
D6
330
55
100
AcDbEntity
  8
MAKE2D VISIBLE LINES
100
AcDbVertex
100
AcDb2dVertex
 10
1274.950563038874
 20
35.06410379155649
 30
0.0
  0
VERTEX
  5
D7
330
55
100
AcDbEntity
  8
MAKE2D VISIBLE LINES
100
AcDbVertex
100
AcDb2dVertex
 10
1275.361310578356
 20
35.0283855715126
 30
0.0
  0
VERTEX
  5
D8
330
55
100
AcDbEntity
  8
MAKE2D VISIBLE LINES
100
AcDbVertex
100
AcDb2dVertex
 10
1275.773045891111
 20
35.00700774669583
 30
0.0
  0
VERTEX
  5
D9
330
55
100
AcDbEntity
  8
MAKE2D VISIBLE LINES
100
AcDbVertex
100
AcDb2dVertex
 10
1276.185256889429
 20
35.00000008023028
 30
0.0
  0
VERTEX
  5
DA
330
55
100
AcDbEntity
  8
MAKE2D VISIBLE LINES
100
AcDbVertex
100
AcDb2dVertex
 10
1767.977073821462
 20
35.00000008023028
 30
0.0
  0
VERTEX
  5
DB
330
55
100
AcDbEntity
  8
MAKE2D VISIBLE LINES
100
AcDbVertex
100
AcDb2dVertex
 10
1768.389284819779
 20
35.00700774669676
 30
0.0
  0
VERTEX
  5
DC
330
55
100
AcDbEntity
  8
MAKE2D VISIBLE LINES
100
AcDbVertex
100
AcDb2dVertex
 10
1768.801020132532
 20
35.02838557151541
 30
0.0
  0
VERTEX
  5
DD
330
55
100
AcDbEntity
  8
MAKE2D VISIBLE LINES
100
AcDbVertex
100
AcDb2dVertex
 10
1769.211767672012
 20
35.06410379156185
 30
0.0
  0
VERTEX
  5
DE
330
55
100
AcDbEntity
  8
MAKE2D VISIBLE LINES
100
AcDbVertex
100
AcDb2dVertex
 10
1769.416610999367
 20
35.0873312488191
 30
0.0
  0
VERTEX
  5
DF
330
55
100
AcDbEntity
  8
MAKE2D VISIBLE LINES
100
AcDbVertex
100
AcDb2dVertex
 10
1769.621015350513
 20
35.11413264371166
 30
0.0
  0
VERTEX
  5
E0
330
55
100
AcDbEntity
  8
MAKE2D VISIBLE LINES
100
AcDbVertex
100
AcDb2dVertex
 10
1769.824916714488
 20
35.14450425584895
 30
0.0
  0
VERTEX
  5
E1
330
55
100
AcDbEntity
  8
MAKE2D VISIBLE LINES
100
AcDbVertex
100
AcDb2dVertex
 10
1770.028251080329
 20
35.17844236484044
 30
0.0
  0
VERTEX
  5
E2
330
55
100
AcDbEntity
  8
MAKE2D VISIBLE LINES
100
AcDbVertex
100
AcDb2dVertex
 10
1770.230954437071
 20
35.21594325029558
 30
0.0
  0
VERTEX
  5
E3
330
55
100
AcDbEntity
  8
MAKE2D VISIBLE LINES
100
AcDbVertex
100
AcDb2dVertex
 10
1770.432962773751
 20
35.25700319182381
 30
0.0
  0
VERTEX
  5
E4
330
55
100
AcDbEntity
  8
MAKE2D VISIBLE LINES
100
AcDbVertex
100
AcDb2dVertex
 10
1770.634212079407
 20
35.30161846903458
 30
0.0
  0
VERTEX
  5
E5
330
55
100
AcDbEntity
  8
MAKE2D VISIBLE LINES
100
AcDbVertex
100
AcDb2dVertex
 10
1770.834638343074
 20
35.34978536153734
 30
0.0
  0
VERTEX
  5
E6
330
55
100
AcDbEntity
  8
MAKE2D VISIBLE LINES
100
AcDbVertex
100
AcDb2dVertex
 10
1771.03417755379
 20
35.40150014894155
 30
0.0
  0
VERTEX
  5
E7
330
55
100
AcDbEntity
  8
MAKE2D VISIBLE LINES
100
AcDbVertex
100
AcDb2dVertex
 10
1771.23276570059
 20
35.45675911085667
 30
0.0
  0
VERTEX
  5
E8
330
55
100
AcDbEntity
  8
MAKE2D VISIBLE LINES
100
AcDbVertex
100
AcDb2dVertex
 10
1771.447267409409
 20
35.52076659266413
 30
0.0
  0
VERTEX
  5
E9
330
55
100
AcDbEntity
  8
MAKE2D VISIBLE LINES
100
AcDbVertex
100
AcDb2dVertex
 10
1771.660506380781
 20
35.58889034912644
 30
0.0
  0
VERTEX
  5
EA
330
55
100
AcDbEntity
  8
MAKE2D VISIBLE LINES
100
AcDbVertex
100
AcDb2dVertex
 10
1771.872416874842
 20
35.66107167714767
 30
0.0
  0
VERTEX
  5
EB
330
55
100
AcDbEntity
  8
MAKE2D VISIBLE LINES
100
AcDbVertex
100
AcDb2dVertex
 10
1772.082933151731
 20
35.73725187363189
 30
0.0
  0
VERTEX
  5
EC
330
55
100
AcDbEntity
  8
MAKE2D VISIBLE LINES
100
AcDbVertex
100
AcDb2dVertex
 10
1772.291989471586
 20
35.81737223548315
 30
0.0
  0
VERTEX
  5
ED
330
55
100
AcDbEntity
  8
MAKE2D VISIBLE LINES
100
AcDbVertex
100
AcDb2dVertex
 10
1772.499520094544
 20
35.90137405960551
 30
0.0
  0
VERTEX
  5
EE
330
55
100
AcDbEntity
  8
MAKE2D VISIBLE LINES
100
AcDbVertex
100
AcDb2dVertex
 10
1772.705459280743
 20
35.98919864290303
 30
0.0
  0
VERTEX
  5
EF
330
55
100
AcDbEntity
  8
MAKE2D VISIBLE LINES
100
AcDbVertex
100
AcDb2dVertex
 10
1772.90974129032
 20
36.08078728227979
 30
0.0
  0
VERTEX
  5
F0
330
55
100
AcDbEntity
  8
MAKE2D VISIBLE LINES
100
AcDbVertex
100
AcDb2dVertex
 10
1773.295180535249
 20
36.26600212496506
 30
0.0
  0
VERTEX
  5
F1
330
55
100
AcDbEntity
  8
MAKE2D VISIBLE LINES
100
AcDbVertex
100
AcDb2dVertex
 10
1773.6740371964
 20
36.46429521024918
 30
0.0
  0
VERTEX
  5
F2
330
55
100
AcDbEntity
  8
MAKE2D VISIBLE LINES
100
AcDbVertex
100
AcDb2dVertex
 10
1774.046016589536
 20
36.67522184590658
 30
0.0
  0
VERTEX
  5
F3
330
55
100
AcDbEntity
  8
MAKE2D VISIBLE LINES
100
AcDbVertex
100
AcDb2dVertex
 10
1774.410824030419
 20
36.89833733971165
 30
0.0
  0
VERTEX
  5
F4
330
55
100
AcDbEntity
  8
MAKE2D VISIBLE LINES
100
AcDbVertex
100
AcDb2dVertex
 10
1774.780243984081
 20
37.1413859405555
 30
0.0
  0
VERTEX
  5
F5
330
55
100
AcDbEntity
  8
MAKE2D VISIBLE LINES
100
AcDbVertex
100
AcDb2dVertex
 10
1775.141551001984
 20
37.39638807224814
 30
0.0
  0
VERTEX
  5
F6
330
55
100
AcDbEntity
  8
MAKE2D VISIBLE LINES
100
AcDbVertex
100
AcDb2dVertex
 10
1775.494616521913
 20
37.6627387584951
 30
0.0
  0
VERTEX
  5
F7
330
55
100
AcDbEntity
  8
MAKE2D VISIBLE LINES
100
AcDbVertex
100
AcDb2dVertex
 10
1775.839311981653
 20
37.93983302300187
 30
0.0
  0
VERTEX
  5
F8
330
55
100
AcDbEntity
  8
MAKE2D VISIBLE LINES
100
AcDbVertex
100
AcDb2dVertex
 10
1776.198709338717
 20
38.2475276566206
 30
0.0
  0
VERTEX
  5
F9
330
55
100
AcDbEntity
  8
MAKE2D VISIBLE LINES
100
AcDbVertex
100
AcDb2dVertex
 10
1776.548367786123
 20
38.56622658152737
 30
0.0
  0
VERTEX
  5
FA
330
55
100
AcDbEntity
  8
MAKE2D VISIBLE LINES
100
AcDbVertex
100
AcDb2dVertex
 10
1776.888276505287
 20
38.89532876774177
 30
0.0
  0
VERTEX
  5
FB
330
55
100
AcDbEntity
  8
MAKE2D VISIBLE LINES
100
AcDbVertex
100
AcDb2dVertex
 10
1777.21842467763
 20
39.23423318528337
 30
0.0
  0
VERTEX
  5
FC
330
55
100
AcDbEntity
  8
MAKE2D VISIBLE LINES
100
AcDbVertex
100
AcDb2dVertex
 10
1777.546583864797
 20
39.59102122209239
 30
0.0
  0
VERTEX
  5
FD
330
55
100
AcDbEntity
  8
MAKE2D VISIBLE LINES
100
AcDbVertex
100
AcDb2dVertex
 10
1777.864625607462
 20
39.95687801916925
 30
0.0
  0
VERTEX
  5
FE
330
55
100
AcDbEntity
  8
MAKE2D VISIBLE LINES
100
AcDbVertex
100
AcDb2dVertex
 10
1778.172690426639
 20
40.33121292868265
 30
0.0
  0
VERTEX
  5
FF
330
55
100
AcDbEntity
  8
MAKE2D VISIBLE LINES
100
AcDbVertex
100
AcDb2dVertex
 10
1778.470918843341
 20
40.71343530280125
 30
0.0
  0
VERTEX
  5
100
330
55
100
AcDbEntity
  8
MAKE2D VISIBLE LINES
100
AcDbVertex
100
AcDb2dVertex
 10
1778.784424700397
 20
41.13765182058256
 30
0.0
  0
VERTEX
  5
101
330
55
100
AcDbEntity
  8
MAKE2D VISIBLE LINES
100
AcDbVertex
100
AcDb2dVertex
 10
1779.08665247783
 20
41.5699664964941
 30
0.0
  0
VERTEX
  5
102
330
55
100
AcDbEntity
  8
MAKE2D VISIBLE LINES
100
AcDbVertex
100
AcDb2dVertex
 10
1779.377804402204
 20
42.00983776972171
 30
0.0
  0
VERTEX
  5
103
330
55
100
AcDbEntity
  8
MAKE2D VISIBLE LINES
100
AcDbVertex
100
AcDb2dVertex
 10
1779.65808270008
 20
42.45672407945128
 30
0.0
  0
VERTEX
  5
104
330
55
100
AcDbEntity
  8
MAKE2D VISIBLE LINES
100
AcDbVertex
100
AcDb2dVertex
 10
1779.931852010938
 20
42.91728026141578
 30
0.0
  0
VERTEX
  5
105
330
55
100
AcDbEntity
  8
MAKE2D VISIBLE LINES
100
AcDbVertex
100
AcDb2dVertex
 10
1780.194870543898
 20
43.38406732796718
 30
0.0
  0
VERTEX
  5
106
330
55
100
AcDbEntity
  8
MAKE2D VISIBLE LINES
100
AcDbVertex
100
AcDb2dVertex
 10
1780.447397106956
 20
43.85663753792037
 30
0.0
  0
VERTEX
  5
107
330
55
100
AcDbEntity
  8
MAKE2D VISIBLE LINES
100
AcDbVertex
100
AcDb2dVertex
 10
1780.689690508108
 20
44.33454315009026
 30
0.0
  0
VERTEX
  5
108
330
55
100
AcDbEntity
  8
MAKE2D VISIBLE LINES
100
AcDbVertex
100
AcDb2dVertex
 10
1780.938887864964
 20
44.85345172133468
 30
0.0
  0
VERTEX
  5
109
330
55
100
AcDbEntity
  8
MAKE2D VISIBLE LINES
100
AcDbVertex
100
AcDb2dVertex
 10
1781.176844901114
 20
45.37760786080986
 30
0.0
  0
VERTEX
  5
10A
330
55
100
AcDbEntity
  8
MAKE2D VISIBLE LINES
100
AcDbVertex
100
AcDb2dVertex
 10
1781.403834411623
 20
45.90661744728705
 30
0.0
  0
VERTEX
  5
10B
330
55
100
AcDbEntity
  8
MAKE2D VISIBLE LINES
100
AcDbVertex
100
AcDb2dVertex
 10
1781.620129191557
 20
46.44008635953752
 30
0.0
  0
VERTEX
  5
10C
330
55
100
AcDbEntity
  8
MAKE2D VISIBLE LINES
100
AcDbVertex
100
AcDb2dVertex
 10
1781.829244037915
 20
46.98636965161553
 30
0.0
  0
VERTEX
  5
10D
330
55
100
AcDbEntity
  8
MAKE2D VISIBLE LINES
100
AcDbVertex
100
AcDb2dVertex
 10
1782.027852859961
 20
47.5365576682901
 30
0.0
  0
VERTEX
  5
10E
330
55
100
AcDbEntity
  8
MAKE2D VISIBLE LINES
100
AcDbVertex
100
AcDb2dVertex
 10
1782.216211572866
 20
48.0903573068673
 30
0.0
  0
VERTEX
  5
10F
330
55
100
AcDbEntity
  8
MAKE2D VISIBLE LINES
100
AcDbVertex
100
AcDb2dVertex
 10
1782.394576091804
 20
48.64747546465323
 30
0.0
  0
VERTEX
  5
110
330
55
100
AcDbEntity
  8
MAKE2D VISIBLE LINES
100
AcDbVertex
100
AcDb2dVertex
 10
1782.570120355012
 20
49.2313900860257
 30
0.0
  0
VERTEX
  5
111
330
55
100
AcDbEntity
  8
MAKE2D VISIBLE LINES
100
AcDbVertex
100
AcDb2dVertex
 10
1782.735342559825
 20
49.81832042354689
 30
0.0
  0
VERTEX
  5
112
330
55
100
AcDbEntity
  8
MAKE2D VISIBLE LINES
100
AcDbVertex
100
AcDb2dVertex
 10
1783.035851465243
 20
51.00014378699005
 30
0.0
  0
VERTEX
  5
113
330
55
100
AcDbEntity
  8
MAKE2D VISIBLE LINES
100
AcDbVertex
100
AcDb2dVertex
 10
1783.31520142216
 20
52.27546318191187
 30
0.0
  0
VERTEX
  5
114
330
55
100
AcDbEntity
  8
MAKE2D VISIBLE LINES
100
AcDbVertex
100
AcDb2dVertex
 10
1783.5525276605
 20
53.55929453044292
 30
0.0
  0
VERTEX
  5
115
330
55
100
AcDbEntity
  8
MAKE2D VISIBLE LINES
100
AcDbVertex
100
AcDb2dVertex
 10
1783.749598176363
 20
54.85004977044708
 30
0.0
  0
VERTEX
  5
116
330
55
100
AcDbEntity
  8
MAKE2D VISIBLE LINES
100
AcDbVertex
100
AcDb2dVertex
 10
1783.90818096585
 20
56.14614083978818
 30
0.0
  0
VERTEX
  5
117
330
55
100
AcDbEntity
  8
MAKE2D VISIBLE LINES
100
AcDbVertex
100
AcDb2dVertex
 10
1784.031409301478
 20
57.46465571751582
 30
0.0
  0
VERTEX
  5
118
330
55
100
AcDbEntity
  8
MAKE2D VISIBLE LINES
100
AcDbVertex
100
AcDb2dVertex
 10
1784.118010760372
 20
58.78604989783749
 30
0.0
  0
VERTEX
  5
119
330
55
100
AcDbEntity
  8
MAKE2D VISIBLE LINES
100
AcDbVertex
100
AcDb2dVertex
 10
1784.169133337467
 20
60.10934722406181
 30
0.0
  0
VERTEX
  5
11A
330
55
100
AcDbEntity
  8
MAKE2D VISIBLE LINES
100
AcDbVertex
100
AcDb2dVertex
 10
1784.185925027695
 20
61.43357153949737
 30
0.0
  0
VERTEX
  5
11B
330
55
100
AcDbEntity
  8
MAKE2D VISIBLE LINES
100
AcDbVertex
100
AcDb2dVertex
 10
1784.185925027695
 20
330.0000000802376
 30
0.0
  0
VERTEX
  5
11C
330
55
100
AcDbEntity
  8
MAKE2D VISIBLE LINES
100
AcDbVertex
100
AcDb2dVertex
 10
1784.192690479324
 20
330.4878119215521
 30
0.0
  0
VERTEX
  5
11D
330
55
100
AcDbEntity
  8
MAKE2D VISIBLE LINES
100
AcDbVertex
100
AcDb2dVertex
 10
1784.213169199647
 20
330.9752312389858
 30
0.0
  0
VERTEX
  5
11E
330
55
100
AcDbEntity
  8
MAKE2D VISIBLE LINES
100
AcDbVertex
100
AcDb2dVertex
 10
1784.246957100997
 20
331.4512434078071
 30
0.0
  0
VERTEX
  5
11F
330
55
100
AcDbEntity
  8
MAKE2D VISIBLE LINES
100
AcDbVertex
100
AcDb2dVertex
 10
1784.295360193832
 20
331.9259766701409
 30
0.0
  0
VERTEX
  5
120
330
55
100
AcDbEntity
  8
MAKE2D VISIBLE LINES
100
AcDbVertex
100
AcDb2dVertex
 10
1784.354078681314
 20
332.3617665372629
 30
0.0
  0
VERTEX
  5
121
330
55
100
AcDbEntity
  8
MAKE2D VISIBLE LINES
100
AcDbVertex
100
AcDb2dVertex
 10
1784.389097183565
 20
332.5788238752291
 30
0.0
  0
VERTEX
  5
122
330
55
100
AcDbEntity
  8
MAKE2D VISIBLE LINES
100
AcDbVertex
100
AcDb2dVertex
 10
1784.428231358748
 20
332.7951886583386
 30
0.0
  0
VERTEX
  5
123
330
55
100
AcDbEntity
  8
MAKE2D VISIBLE LINES
100
AcDbVertex
100
AcDb2dVertex
 10
1784.465653887587
 20
332.9817689419302
 30
0.0
  0
VERTEX
  5
124
330
55
100
AcDbEntity
  8
MAKE2D VISIBLE LINES
100
AcDbVertex
100
AcDb2dVertex
 10
1784.50673783608
 20
333.1675701626105
 30
0.0
  0
VERTEX
  5
125
330
55
100
AcDbEntity
  8
MAKE2D VISIBLE LINES
100
AcDbVertex
100
AcDb2dVertex
 10
1784.551869944681
 20
333.3524072450154
 30
0.0
  0
VERTEX
  5
126
330
55
100
AcDbEntity
  8
MAKE2D VISIBLE LINES
100
AcDbVertex
100
AcDb2dVertex
 10
1784.601436953845
 20
333.536095113781
 30
0.0
  0
VERTEX
  5
127
330
55
100
AcDbEntity
  8
MAKE2D VISIBLE LINES
100
AcDbVertex
100
AcDb2dVertex
 10
1784.647329341378
 20
333.6909202163467
 30
0.0
  0
VERTEX
  5
128
330
55
100
AcDbEntity
  8
MAKE2D VISIBLE LINES
100
AcDbVertex
100
AcDb2dVertex
 10
1784.697271892608
 20
333.8444665092944
 30
0.0
  0
VERTEX
  5
129
330
55
100
AcDbEntity
  8
MAKE2D VISIBLE LINES
100
AcDbVertex
100
AcDb2dVertex
 10
1784.751841660754
 20
333.9964162941922
 30
0.0
  0
VERTEX
  5
12A
330
55
100
AcDbEntity
  8
MAKE2D VISIBLE LINES
100
AcDbVertex
100
AcDb2dVertex
 10
1784.781042080302
 20
334.0716932153624
 30
0.0
  0
VERTEX
  5
12B
330
55
100
AcDbEntity
  8
MAKE2D VISIBLE LINES
100
AcDbVertex
100
AcDb2dVertex
 10
1784.811615699037
 20
334.1464518726083
 30
0.0
  0
VERTEX
  5
12C
330
55
100
AcDbEntity
  8
MAKE2D VISIBLE LINES
100
AcDbVertex
100
AcDb2dVertex
 10
1784.837780161935
 20
334.2073388962355
 30
0.0
  0
VERTEX
  5
12D
330
55
100
AcDbEntity
  8
MAKE2D VISIBLE LINES
100
AcDbVertex
100
AcDb2dVertex
 10
1784.865035249049
 20
334.2677474835085
 30
0.0
  0
VERTEX
  5
12E
330
55
100
AcDbEntity
  8
MAKE2D VISIBLE LINES
100
AcDbVertex
100
AcDb2dVertex
 10
1784.893499326528
 20
334.3275745425105
 30
0.0
  0
VERTEX
  5
12F
330
55
100
AcDbEntity
  8
MAKE2D VISIBLE LINES
100
AcDbVertex
100
AcDb2dVertex
 10
1784.923290760518
 20
334.3867169813251
 30
0.0
  0
VERTEX
  5
130
330
55
100
AcDbEntity
  8
MAKE2D VISIBLE LINES
100
AcDbVertex
100
AcDb2dVertex
 10
1784.954527917165
 20
334.4450717080355
 30
0.0
  0
VERTEX
  5
131
330
55
100
AcDbEntity
  8
MAKE2D VISIBLE LINES
100
AcDbVertex
100
AcDb2dVertex
 10
1784.987329162619
 20
334.5025356307249
 30
0.0
  0
VERTEX
  5
132
330
55
100
AcDbEntity
  8
MAKE2D VISIBLE LINES
100
AcDbVertex
100
AcDb2dVertex
 10
1785.021812863024
 20
334.5590056574767
 30
0.0
  0
VERTEX
  5
133
330
55
100
AcDbEntity
  8
MAKE2D VISIBLE LINES
100
AcDbVertex
100
AcDb2dVertex
 10
1785.058097384529
 20
334.6143786963744
 30
0.0
  0
VERTEX
  5
134
330
55
100
AcDbEntity
  8
MAKE2D VISIBLE LINES
100
AcDbVertex
100
AcDb2dVertex
 10
1785.088011613131
 20
334.6570876901037
 30
0.0
  0
VERTEX
  5
135
330
55
100
AcDbEntity
  8
MAKE2D VISIBLE LINES
100
AcDbVertex
100
AcDb2dVertex
 10
1785.1192699684
 20
334.6988317130001
 30
0.0
  0
VERTEX
  5
136
330
55
100
AcDbEntity
  8
MAKE2D VISIBLE LINES
100
AcDbVertex
100
AcDb2dVertex
 10
1785.135451808874
 20
334.7192725608995
 30
0.0
  0
VERTEX
  5
137
330
55
100
AcDbEntity
  8
MAKE2D VISIBLE LINES
100
AcDbVertex
100
AcDb2dVertex
 10
1785.152028019424
 20
334.739389006707
 30
0.0
  0
VERTEX
  5
138
330
55
100
AcDbEntity
  8
MAKE2D VISIBLE LINES
100
AcDbVertex
100
AcDb2dVertex
 10
1785.169018046184
 20
334.759153330628
 30
0.0
  0
VERTEX
  5
139
330
55
100
AcDbEntity
  8
MAKE2D VISIBLE LINES
100
AcDbVertex
100
AcDb2dVertex
 10
1785.186441335292
 20
334.778537812868
 30
0.0
  0
VERTEX
  5
13A
330
55
100
AcDbEntity
  8
MAKE2D VISIBLE LINES
100
AcDbVertex
100
AcDb2dVertex
 10
1785.202641223859
 20
334.7957718752595
 30
0.0
  0
VERTEX
  5
13B
330
55
100
AcDbEntity
  8
MAKE2D VISIBLE LINES
100
AcDbVertex
100
AcDb2dVertex
 10
1785.219225808859
 20
334.8126341153094
 30
0.0
  0
VERTEX
  5
13C
330
55
100
AcDbEntity
  8
MAKE2D VISIBLE LINES
100
AcDbVertex
100
AcDb2dVertex
 10
1785.236207075696
 20
334.8290882525591
 30
0.0
  0
VERTEX
  5
13D
330
55
100
AcDbEntity
  8
MAKE2D VISIBLE LINES
100
AcDbVertex
100
AcDb2dVertex
 10
1785.253597009775
 20
334.8450980065496
 30
0.0
  0
VERTEX
  5
13E
330
55
100
AcDbEntity
  8
MAKE2D VISIBLE LINES
100
AcDbVertex
100
AcDb2dVertex
 10
1785.271407596501
 20
334.8606270968222
 30
0.0
  0
VERTEX
  5
13F
330
55
100
AcDbEntity
  8
MAKE2D VISIBLE LINES
100
AcDbVertex
100
AcDb2dVertex
 10
1785.289650821278
 20
334.8756392429182
 30
0.0
  0
VERTEX
  5
140
330
55
100
AcDbEntity
  8
MAKE2D VISIBLE LINES
100
AcDbVertex
100
AcDb2dVertex
 10
1785.308338669509
 20
334.8900981643787
 30
0.0
  0
VERTEX
  5
141
330
55
100
AcDbEntity
  8
MAKE2D VISIBLE LINES
100
AcDbVertex
100
AcDb2dVertex
 10
1785.3274831266
 20
334.9039675807451
 30
0.0
  0
VERTEX
  5
142
330
55
100
AcDbEntity
  8
MAKE2D VISIBLE LINES
100
AcDbVertex
100
AcDb2dVertex
 10
1785.343735395589
 20
334.9150072168003
 30
0.0
  0
VERTEX
  5
143
330
55
100
AcDbEntity
  8
MAKE2D VISIBLE LINES
100
AcDbVertex
100
AcDb2dVertex
 10
1785.360307449526
 20
334.9255703098718
 30
0.0
  0
VERTEX
  5
144
330
55
100
AcDbEntity
  8
MAKE2D VISIBLE LINES
100
AcDbVertex
100
AcDb2dVertex
 10
1785.377195915677
 20
334.9356118788291
 30
0.0
  0
VERTEX
  5
145
330
55
100
AcDbEntity
  8
MAKE2D VISIBLE LINES
100
AcDbVertex
100
AcDb2dVertex
 10
1785.394397421308
 20
334.9450869425418
 30
0.0
  0
VERTEX
  5
146
330
55
100
AcDbEntity
  8
MAKE2D VISIBLE LINES
100
AcDbVertex
100
AcDb2dVertex
 10
1785.403114509949
 20
334.9495979783281
 30
0.0
  0
VERTEX
  5
147
330
55
100
AcDbEntity
  8
MAKE2D VISIBLE LINES
100
AcDbVertex
100
AcDb2dVertex
 10
1785.411908593684
 20
334.9539505198793
 30
0.0
  0
VERTEX
  5
148
330
55
100
AcDbEntity
  8
MAKE2D VISIBLE LINES
100
AcDbVertex
100
AcDb2dVertex
 10
1785.420779250923
 20
334.958138944554
 30
0.0
  0
VERTEX
  5
149
330
55
100
AcDbEntity
  8
MAKE2D VISIBLE LINES
100
AcDbVertex
100
AcDb2dVertex
 10
1785.429726060073
 20
334.9621576297111
 30
0.0
  0
VERTEX
  5
14A
330
55
100
AcDbEntity
  8
MAKE2D VISIBLE LINES
100
AcDbVertex
100
AcDb2dVertex
 10
1785.438748599542
 20
334.9660009527091
 30
0.0
  0
VERTEX
  5
14B
330
55
100
AcDbEntity
  8
MAKE2D VISIBLE LINES
100
AcDbVertex
100
AcDb2dVertex
 10
1785.447846447738
 20
334.9696632909067
 30
0.0
  0
VERTEX
  5
14C
330
55
100
AcDbEntity
  8
MAKE2D VISIBLE LINES
100
AcDbVertex
100
AcDb2dVertex
 10
1785.45701918307
 20
334.9731390216627
 30
0.0
  0
VERTEX
  5
14D
330
55
100
AcDbEntity
  8
MAKE2D VISIBLE LINES
100
AcDbVertex
100
AcDb2dVertex
 10
1785.466266383947
 20
334.9764225223357
 30
0.0
  0
VERTEX
  5
14E
330
55
100
AcDbEntity
  8
MAKE2D VISIBLE LINES
100
AcDbVertex
100
AcDb2dVertex
 10
1785.474585296104
 20
334.9791875921514
 30
0.0
  0
VERTEX
  5
14F
330
55
100
AcDbEntity
  8
MAKE2D VISIBLE LINES
100
AcDbVertex
100
AcDb2dVertex
 10
1785.482959519456
 20
334.9817923669
 30
0.0
  0
VERTEX
  5
150
330
55
100
AcDbEntity
  8
MAKE2D VISIBLE LINES
100
AcDbVertex
100
AcDb2dVertex
 10
1785.491385331143
 20
334.9842342963116
 30
0.0
  0
VERTEX
  5
151
330
55
100
AcDbEntity
  8
MAKE2D VISIBLE LINES
100
AcDbVertex
100
AcDb2dVertex
 10
1785.499859008306
 20
334.9865108301164
 30
0.0
  0
VERTEX
  5
152
330
55
100
AcDbEntity
  8
MAKE2D VISIBLE LINES
100
AcDbVertex
100
AcDb2dVertex
 10
1785.508376828087
 20
334.9886194180446
 30
0.0
  0
VERTEX
  5
153
330
55
100
AcDbEntity
  8
MAKE2D VISIBLE LINES
100
AcDbVertex
100
AcDb2dVertex
 10
1785.516935067625
 20
334.9905575098262
 30
0.0
  0
VERTEX
  5
154
330
55
100
AcDbEntity
  8
MAKE2D VISIBLE LINES
100
AcDbVertex
100
AcDb2dVertex
 10
1785.525530004063
 20
334.9923225551915
 30
0.0
  0
VERTEX
  5
155
330
55
100
AcDbEntity
  8
MAKE2D VISIBLE LINES
100
AcDbVertex
100
AcDb2dVertex
 10
1785.534157914542
 20
334.9939120038707
 30
0.0
  0
VERTEX
  5
156
330
55
100
AcDbEntity
  8
MAKE2D VISIBLE LINES
100
AcDbVertex
100
AcDb2dVertex
 10
1785.542815076201
 20
334.995323305594
 30
0.0
  0
VERTEX
  5
157
330
55
100
AcDbEntity
  8
MAKE2D VISIBLE LINES
100
AcDbVertex
100
AcDb2dVertex
 10
1785.551497766184
 20
334.9965539100913
 30
0.0
  0
VERTEX
  5
158
330
55
100
AcDbEntity
  8
MAKE2D VISIBLE LINES
100
AcDbVertex
100
AcDb2dVertex
 10
1785.560202261629
 20
334.9976012670931
 30
0.0
  0
VERTEX
  5
159
330
55
100
AcDbEntity
  8
MAKE2D VISIBLE LINES
100
AcDbVertex
100
AcDb2dVertex
 10
1785.56892483968
 20
334.9984628263294
 30
0.0
  0
VERTEX
  5
15A
330
55
100
AcDbEntity
  8
MAKE2D VISIBLE LINES
100
AcDbVertex
100
AcDb2dVertex
 10
1785.577661777475
 20
334.9991360375303
 30
0.0
  0
VERTEX
  5
15B
330
55
100
AcDbEntity
  8
MAKE2D VISIBLE LINES
100
AcDbVertex
100
AcDb2dVertex
 10
1785.586409352158
 20
334.9996183504261
 30
0.0
  0
VERTEX
  5
15C
330
55
100
AcDbEntity
  8
MAKE2D VISIBLE LINES
100
AcDbVertex
100
AcDb2dVertex
 10
1785.595163840868
 20
334.999907214747
 30
0.0
  0
VERTEX
  5
15D
330
55
100
AcDbEntity
  8
MAKE2D VISIBLE LINES
100
AcDbVertex
100
AcDb2dVertex
 10
1785.603921520746
 20
335.000000080223
 30
0.0
  0
SEQEND
  5
15E
330
55
100
AcDbEntity
  8
MAKE2D VISIBLE LINES
  0
POLYLINE
  5
15F
330
1F
100
AcDbEntity
  8
MAKE2D VISIBLE LINES
100
AcDb2dPolyline
 66
     1
 10
0.0
 20
0.0
 30
0.0
  0
VERTEX
  5
160
330
15F
100
AcDbEntity
  8
MAKE2D VISIBLE LINES
100
AcDbVertex
100
AcDb2dVertex
 10
1930.556115494011
 20
451.9414058462303
 30
0.0
  0
VERTEX
  5
161
330
15F
100
AcDbEntity
  8
MAKE2D VISIBLE LINES
100
AcDbVertex
100
AcDb2dVertex
 10
1930.556115493663
 20
336.9999735970069
 30
0.0
 42
-0.4142060414761718
  0
VERTEX
  5
162
330
15F
100
AcDbEntity
  8
MAKE2D VISIBLE LINES
100
AcDbVertex
100
AcDb2dVertex
 10
1928.556115493969
 20
334.9999992993965
 30
0.0
  0
VERTEX
  5
163
330
15F
100
AcDbEntity
  8
MAKE2D VISIBLE LINES
100
AcDbVertex
100
AcDb2dVertex
 10
1115.60621521701
 20
334.9999999395169
 30
0.0
 42
-0.4142063241025896
  0
VERTEX
  5
164
330
15F
100
AcDbEntity
  8
MAKE2D VISIBLE LINES
100
AcDbVertex
100
AcDb2dVertex
 10
1113.606215824135
 20
336.9999753480898
 30
0.0
  0
VERTEX
  5
165
330
15F
100
AcDbEntity
  8
MAKE2D VISIBLE LINES
100
AcDbVertex
100
AcDb2dVertex
 10
1113.606215217005
 20
451.9545679997029
 30
0.0
  0
SEQEND
  5
166
330
15F
100
AcDbEntity
  8
MAKE2D VISIBLE LINES
  0
POLYLINE
  5
167
330
1F
100
AcDbEntity
  8
MAKE2D VISIBLE LINES
100
AcDb2dPolyline
 66
     1
 10
0.0
 20
0.0
 30
0.0
  0
VERTEX
  5
168
330
167
100
AcDbEntity
  8
MAKE2D VISIBLE LINES
100
AcDbVertex
100
AcDb2dVertex
 10
1930.556115493983
 20
460.0000000802376
 30
0.0
  0
VERTEX
  5
169
330
167
100
AcDbEntity
  8
MAKE2D VISIBLE LINES
100
AcDbVertex
100
AcDb2dVertex
 10
1930.556115455056
 20
451.9994740957735
 30
0.0
 42
-0.4141367658105832
  0
VERTEX
  5
16A
330
167
100
AcDbEntity
  8
MAKE2D VISIBLE LINES
100
AcDbVertex
100
AcDb2dVertex
 10
1928.556115493969
 20
449.9999992993927
 30
0.0
  0
VERTEX
  5
16B
330
167
100
AcDbEntity
  8
MAKE2D VISIBLE LINES
100
AcDbVertex
100
AcDb2dVertex
 10
1115.606215216937
 20
449.9999999395424
 30
0.0
 42
-0.4142056619437479
  0
VERTEX
  5
16C
330
167
100
AcDbEntity
  8
MAKE2D VISIBLE LINES
100
AcDbVertex
100
AcDb2dVertex
 10
1113.606215347327
 20
451.9999734243994
 30
0.0
  0
VERTEX
  5
16D
330
167
100
AcDbEntity
  8
MAKE2D VISIBLE LINES
100
AcDbVertex
100
AcDb2dVertex
 10
1113.606215216966
 20
460.000000080223
 30
0.0
  0
SEQEND
  5
16E
330
167
100
AcDbEntity
  8
MAKE2D VISIBLE LINES
  0
LINE
  5
16F
330
1F
100
AcDbEntity
  8
MAKE2D VISIBLE LINES
100
AcDbLine
 10
1113.606215216918
 20
336.9414058462224
 30
0.0
 11
1113.606215216966
 21
20.00000008024483
 31
0.0
  0
ENDSEC
  0
SECTION
  2
OBJECTS
  0
DICTIONARY
  5
C
330
0
100
AcDbDictionary
281
     1
  3
ACAD_GROUP
350
D
  3
ACAD_LAYOUT
350
1A
  3
ACAD_MLEADERSTYLE
350
171
  3
ACAD_MLINESTYLE
350
17
  3
ACAD_PLOTSETTINGS
350
19
  3
ACAD_PLOTSTYLENAME
350
E
  3
ACAD_TABLESTYLE
350
170
  3
ACAD_VISUALSTYLE
350
2A
  0
DICTIONARY
  5
D
102
{ACAD_REACTORS
330
C
102
}
330
C
100
AcDbDictionary
281
     1
  0
DICTIONARY
  5
1A
102
{ACAD_REACTORS
330
C
102
}
330
C
100
AcDbDictionary
281
     1
  3
Layout1
350
1E
  3
Layout2
350
26
  3
Model
350
22
  0
DICTIONARY
  5
171
102
{ACAD_REACTORS
330
C
102
}
330
C
100
AcDbDictionary
281
     1
  0
DICTIONARY
  5
17
102
{ACAD_REACTORS
330
C
102
}
330
C
100
AcDbDictionary
281
     1
  3
Standard
350
18
  0
DICTIONARY
  5
19
102
{ACAD_REACTORS
330
C
102
}
330
C
100
AcDbDictionary
281
     1
  0
ACDBDICTIONARYWDFLT
  5
E
102
{ACAD_REACTORS
330
C
102
}
330
C
100
AcDbDictionary
281
     1
  3
Normal
350
F
100
AcDbDictionaryWithDefault
340
F
  0
DICTIONARY
  5
170
102
{ACAD_REACTORS
330
C
102
}
330
C
100
AcDbDictionary
281
     1
  0
DICTIONARY
  5
2A
102
{ACAD_REACTORS
330
C
102
}
330
C
100
AcDbDictionary
281
     1
  3
2dWireframe
350
2F
  3
3D Hidden
350
31
  3
3dWireframe
350
30
  3
Basic
350
32
  3
Brighten
350
36
  3
ColorChange
350
3A
  3
Conceptual
350
34
  3
Dim
350
35
  3
Facepattern
350
39
  3
Flat
350
2B
  3
FlatWithEdges
350
2C
  3
Gouraud
350
2D
  3
GouraudWithEdges
350
2E
  3
Linepattern
350
38
  3
Realistic
350
33
  3
Thicken
350
37
  0
LAYOUT
  5
1E
102
{ACAD_REACTORS
330
1A
102
}
330
1A
100
AcDbPlotSettings
  1

  2
none_device
  4

  6

 40
0.0
 41
0.0
 42
0.0
 43
0.0
 44
0.0
 45
0.0
 46
0.0
 47
0.0
 48
0.0
 49
0.0
140
0.0
141
0.0
142
1.0
143
1.0
 70
   688
 72
     0
 73
     0
 74
     5
  7

 75
    16
 76
     0
 77
     2
 78
   300
147
1.0
148
0.0
149
0.0
100
AcDbLayout
  1
Layout1
 70
     1
 71
     1
 10
0.0
 20
0.0
 11
12.0
 21
9.0
 12
0.0
 22
0.0
 32
0.0
 14
1.000000000000000E+20
 24
1.000000000000000E+20
 34
1.000000000000000E+20
 15
-1.000000000000000E+20
 25
-1.000000000000000E+20
 35
-1.000000000000000E+20
146
0.0
 13
0.0
 23
0.0
 33
0.0
 16
1.0
 26
0.0
 36
0.0
 17
0.0
 27
1.0
 37
0.0
 76
     0
330
1B
  0
LAYOUT
  5
26
102
{ACAD_REACTORS
330
1A
102
}
330
1A
100
AcDbPlotSettings
  1

  2
none_device
  4

  6

 40
0.0
 41
0.0
 42
0.0
 43
0.0
 44
0.0
 45
0.0
 46
0.0
 47
0.0
 48
0.0
 49
0.0
140
0.0
141
0.0
142
1.0
143
1.0
 70
   688
 72
     0
 73
     0
 74
     5
  7

 75
    16
 76
     0
 77
     2
 78
   300
147
1.0
148
0.0
149
0.0
100
AcDbLayout
  1
Layout2
 70
     1
 71
     2
 10
0.0
 20
0.0
 11
0.0
 21
0.0
 12
0.0
 22
0.0
 32
0.0
 14
0.0
 24
0.0
 34
0.0
 15
0.0
 25
0.0
 35
0.0
146
0.0
 13
0.0
 23
0.0
 33
0.0
 16
1.0
 26
0.0
 36
0.0
 17
0.0
 27
1.0
 37
0.0
 76
     0
330
23
  0
LAYOUT
  5
22
102
{ACAD_REACTORS
330
1A
102
}
330
1A
100
AcDbPlotSettings
  1

  2
none_device
  4

  6

 40
0.0
 41
0.0
 42
0.0
 43
0.0
 44
0.0
 45
0.0
 46
0.0
 47
0.0
 48
0.0
 49
0.0
140
0.0
141
0.0
142
1.0
143
1.0
 70
  1712
 72
     0
 73
     0
 74
     0
  7

 75
     0
 76
     0
 77
     2
 78
   300
147
1.0
148
0.0
149
0.0
100
AcDbLayout
  1
Model
 70
     1
 71
     0
 10
0.0
 20
0.0
 11
12.0
 21
9.0
 12
0.0
 22
0.0
 32
0.0
 14
1113.606215216918
 24
0.0000000802302793
 34
0.0
 15
1930.556115494014
 25
480.0000000802376
 35
0.0
146
0.0
 13
0.0
 23
0.0
 33
0.0
 16
1.0
 26
0.0
 36
0.0
 17
0.0
 27
1.0
 37
0.0
 76
     0
330
1F
331
29
  0
MLINESTYLE
  5
18
102
{ACAD_REACTORS
330
17
102
}
330
17
100
AcDbMlineStyle
  2
Standard
 70
     0
  3

 62
   256
 51
90.0
 52
90.0
 71
     2
 49
0.5
 62
   256
  6
BYLAYER
 49
-0.5
 62
   256
  6
BYLAYER
  0
ACDBPLACEHOLDER
  5
F
102
{ACAD_REACTORS
330
E
102
}
330
E
  0
VISUALSTYLE
  5
2F
102
{ACAD_REACTORS
330
2A
102
}
330
2A
100
AcDbVisualStyle
  2
2dWireframe
 70
     4
 71
     0
 72
     2
 73
     0
 90
        0
 40
-0.6
 41
-30.0
 62
     5
 63
     7
421
 16777215
 74
     1
 91
        4
 64
     7
 65
   257
 75
     1
175
     1
 42
1.0
 92
        0
 66
   257
 43
1.0
 76
     1
 77
     6
 78
     2
 67
     7
 79
     5
170
     0
171
     0
290
     0
174
     0
 93
        1
 44
0.0
173
     0
291
     0
 45
0.0
1001
ACAD
1000
AcDbSavedByObjectVersion
1070
     0
  0
VISUALSTYLE
  5
31
102
{ACAD_REACTORS
330
2A
102
}
330
2A
100
AcDbVisualStyle
  2
3D Hidden
 70
     6
 71
     1
 72
     2
 73
     2
 90
        0
 40
-0.6
 41
-30.0
 62
     5
 63
     7
421
 16777215
 74
     2
 91
        2
 64
     7
 65
   257
 75
     2
175
     1
 42
40.0
 92
        0
 66
   257
 43
1.0
 76
     1
 77
     6
 78
     2
 67
     7
 79
     3
170
     0
171
     0
290
     0
174
     0
 93
        1
 44
0.0
173
     0
291
     0
 45
0.0
1001
ACAD
1000
AcDbSavedByObjectVersion
1070
     0
  0
VISUALSTYLE
  5
30
102
{ACAD_REACTORS
330
2A
102
}
330
2A
100
AcDbVisualStyle
  2
3dWireframe
 70
     5
 71
     0
 72
     2
 73
     0
 90
        0
 40
-0.6
 41
-30.0
 62
     5
 63
     7
421
 16777215
 74
     1
 91
        4
 64
     7
 65
   257
 75
     1
175
     1
 42
1.0
 92
        0
 66
   257
 43
1.0
 76
     1
 77
     6
 78
     2
 67
     7
 79
     5
170
     0
171
     0
290
     0
174
     0
 93
        1
 44
0.0
173
     0
291
     0
 45
0.0
1001
ACAD
1000
AcDbSavedByObjectVersion
1070
     0
  0
VISUALSTYLE
  5
32
102
{ACAD_REACTORS
330
2A
102
}
330
2A
100
AcDbVisualStyle
  2
Basic
 70
     7
 71
     1
 72
     0
 73
     1
 90
        0
 40
-0.6
 41
-30.0
 62
     5
 63
     7
421
 16777215
 74
     0
 91
        4
 64
     7
 65
   257
 75
     1
175
     1
 42
1.0
 92
        8
 66
     7
 43
1.0
 76
     1
 77
     6
 78
     2
 67
     7
 79
     5
170
     0
171
     0
290
     0
174
     0
 93
        1
 44
0.0
173
     0
291
     1
 45
0.0
1001
ACAD
1000
AcDbSavedByObjectVersion
1070
     0
  0
VISUALSTYLE
  5
36
102
{ACAD_REACTORS
330
2A
102
}
330
2A
100
AcDbVisualStyle
  2
Brighten
 70
    12
 71
     2
 72
     2
 73
     0
 90
        0
 40
-0.6
 41
-30.0
 62
     5
 63
     7
421
 16777215
 74
     1
 91
        4
 64
     7
 65
   257
 75
     1
175
     1
 42
1.0
 92
        8
 66
     7
 43
1.0
 76
     1
 77
     6
 78
     2
 67
     7
 79
     5
170
     0
171
     0
290
     0
174
     0
 93
        1
 44
50.0
173
     0
291
     1
 45
0.0
1001
ACAD
1000
AcDbSavedByObjectVersion
1070
     0
  0
VISUALSTYLE
  5
3A
102
{ACAD_REACTORS
330
2A
102
}
330
2A
100
AcDbVisualStyle
  2
ColorChange
 70
    16
 71
     2
 72
     2
 73
     3
 90
        0
 40
-0.6
 41
-30.0
 62
     5
 63
     8
421
  8421504
 74
     1
 91
        4
 64
     7
 65
   257
 75
     1
175
     1
 42
1.0
 92
        8
 66
     8
424
  8421504
 43
1.0
 76
     1
 77
     6
 78
     2
 67
     7
 79
     5
170
     0
171
     0
290
     0
174
     0
 93
        1
 44
0.0
173
     0
291
     1
 45
0.0
1001
ACAD
1000
AcDbSavedByObjectVersion
1070
     0
  0
VISUALSTYLE
  5
34
102
{ACAD_REACTORS
330
2A
102
}
330
2A
100
AcDbVisualStyle
  2
Conceptual
 70
     9
 71
     3
 72
     2
 73
     0
 90
        0
 40
-0.6
 41
-30.0
 62
     5
 63
     7
421
 16777215
 74
     2
 91
        2
 64
     7
 65
   257
 75
     1
175
     1
 42
40.0
 92
        8
 66
     7
 43
1.0
 76
     1
 77
     6
 78
     2
 67
     7
 79
     3
170
     0
171
     0
290
     0
174
     0
 93
        1
 44
0.0
173
     0
291
     0
 45
0.0
1001
ACAD
1000
AcDbSavedByObjectVersion
1070
     0
  0
VISUALSTYLE
  5
35
102
{ACAD_REACTORS
330
2A
102
}
330
2A
100
AcDbVisualStyle
  2
Dim
 70
    11
 71
     2
 72
     2
 73
     0
 90
        0
 40
-0.6
 41
-30.0
 62
     5
 63
     7
421
 16777215
 74
     1
 91
        4
 64
     7
 65
   257
 75
     1
175
     1
 42
1.0
 92
        8
 66
     7
 43
1.0
 76
     1
 77
     6
 78
     2
 67
     7
 79
     5
170
     0
171
     0
290
     0
174
     0
 93
        1
 44
-50.0
173
     0
291
     1
 45
0.0
1001
ACAD
1000
AcDbSavedByObjectVersion
1070
     0
  0
VISUALSTYLE
  5
39
102
{ACAD_REACTORS
330
2A
102
}
330
2A
100
AcDbVisualStyle
  2
Facepattern
 70
    15
 71
     2
 72
     2
 73
     0
 90
        0
 40
-0.6
 41
-30.0
 62
     5
 63
     7
421
 16777215
 74
     1
 91
        4
 64
     7
 65
   257
 75
     1
175
     1
 42
1.0
 92
        8
 66
     7
 43
1.0
 76
     1
 77
     6
 78
     2
 67
     7
 79
     5
170
     0
171
     0
290
     0
174
     0
 93
        1
 44
0.0
173
     0
291
     1
 45
0.0
1001
ACAD
1000
AcDbSavedByObjectVersion
1070
     0
  0
VISUALSTYLE
  5
2B
102
{ACAD_REACTORS
330
2A
102
}
330
2A
100
AcDbVisualStyle
  2
Flat
 70
     0
 71
     2
 72
     1
 73
     1
 90
        2
 40
-0.6
 41
30.0
 62
     5
 63
     7
421
 16777215
 74
     0
 91
        4
 64
     7
 65
   257
 75
     1
175
     1
 42
1.0
 92
        8
 66
     7
 43
1.0
 76
     1
 77
     6
 78
     2
 67
     7
 79
     5
170
     0
171
     0
290
     0
174
     0
 93
       13
 44
0.0
173
     0
291
     1
 45
0.0
1001
ACAD
1000
AcDbSavedByObjectVersion
1070
     0
  0
VISUALSTYLE
  5
2C
102
{ACAD_REACTORS
330
2A
102
}
330
2A
100
AcDbVisualStyle
  2
FlatWithEdges
 70
     1
 71
     2
 72
     1
 73
     1
 90
        2
 40
-0.6
 41
30.0
 62
     5
 63
     7
421
 16777215
 74
     1
 91
        4
 64
     7
 65
   257
 75
     1
175
     1
 42
1.0
 92
        0
 66
   257
 43
1.0
 76
     1
 77
     6
 78
     2
 67
     7
 79
     5
170
     0
171
     0
290
     0
174
     0
 93
       13
 44
0.0
173
     0
291
     1
 45
0.0
1001
ACAD
1000
AcDbSavedByObjectVersion
1070
     0
  0
VISUALSTYLE
  5
2D
102
{ACAD_REACTORS
330
2A
102
}
330
2A
100
AcDbVisualStyle
  2
Gouraud
 70
     2
 71
     2
 72
     2
 73
     1
 90
        2
 40
-0.6
 41
30.0
 62
     5
 63
     7
421
 16777215
 74
     0
 91
        4
 64
     7
 65
   257
 75
     1
175
     1
 42
1.0
 92
        0
 66
     7
 43
1.0
 76
     1
 77
     6
 78
     2
 67
     7
 79
     5
170
     0
171
     0
290
     0
174
     0
 93
       13
 44
0.0
173
     0
291
     1
 45
0.0
1001
ACAD
1000
AcDbSavedByObjectVersion
1070
     0
  0
VISUALSTYLE
  5
2E
102
{ACAD_REACTORS
330
2A
102
}
330
2A
100
AcDbVisualStyle
  2
GouraudWithEdges
 70
     3
 71
     2
 72
     2
 73
     1
 90
        2
 40
-0.6
 41
30.0
 62
     5
 63
     7
421
 16777215
 74
     1
 91
        4
 64
     7
 65
   257
 75
     1
175
     1
 42
1.0
 92
        0
 66
   257
 43
1.0
 76
     1
 77
     6
 78
     2
 67
     7
 79
     5
170
     0
171
     0
290
     0
174
     0
 93
       13
 44
0.0
173
     0
291
     1
 45
0.0
1001
ACAD
1000
AcDbSavedByObjectVersion
1070
     0
  0
VISUALSTYLE
  5
38
102
{ACAD_REACTORS
330
2A
102
}
330
2A
100
AcDbVisualStyle
  2
Linepattern
 70
    14
 71
     2
 72
     2
 73
     0
 90
        0
 40
-0.6
 41
-30.0
 62
     5
 63
     7
421
 16777215
 74
     1
 91
        4
 64
     7
 65
   257
 75
     7
175
     7
 42
1.0
 92
        8
 66
     7
 43
1.0
 76
     1
 77
     6
 78
     2
 67
     7
 79
     5
170
     0
171
     0
290
     0
174
     0
 93
        1
 44
0.0
173
     0
291
     1
 45
0.0
1001
ACAD
1000
AcDbSavedByObjectVersion
1070
     0
  0
VISUALSTYLE
  5
33
102
{ACAD_REACTORS
330
2A
102
}
330
2A
100
AcDbVisualStyle
  2
Realistic
 70
     8
 71
     2
 72
     2
 73
     0
 90
        0
 40
-0.6
 41
-30.0
 62
     5
 63
     7
421
 16777215
 74
     1
 91
        0
 64
     7
 65
   257
 75
     1
175
     1
 42
1.0
 92
        8
 66
     8
424
  7895160
 43
1.0
 76
     1
 77
     6
 78
     2
 67
     7
 79
     5
170
     0
171
     0
290
     0
174
     0
 93
       13
 44
0.0
173
     0
291
     0
 45
0.0
1001
ACAD
1000
AcDbSavedByObjectVersion
1070
     0
  0
VISUALSTYLE
  5
37
102
{ACAD_REACTORS
330
2A
102
}
330
2A
100
AcDbVisualStyle
  2
Thicken
 70
    13
 71
     2
 72
     2
 73
     0
 90
        0
 40
-0.6
 41
-30.0
 62
     5
 63
     7
421
 16777215
 74
     1
 91
        4
 64
     7
 65
   257
 75
     1
175
     1
 42
1.0
 92
       12
 66
     7
 43
1.0
 76
     1
 77
     6
 78
     2
 67
     7
 79
     5
170
     0
171
     0
290
     0
174
     0
 93
        1
 44
0.0
173
     0
291
     1
 45
0.0
1001
ACAD
1000
AcDbSavedByObjectVersion
1070
     0
  0
ENDSEC
  0
EOF
