  0
SECTION
  2
HEADER
  9
$ACADVER
  1
AC1009
  9
$INSBASE
 10
4436.7382074756142174
 20
285.7934011444577891
 30
0.0
  9
$EXTMIN
 10
4427.2082155049929497
 20
280.800684304753986
 30
-0.0015258207003583
  9
$EXTMAX
 10
4446.2038629301951005
 20
287.7605432860771089
 30
0.0000000349246037
  9
$LIMMIN
 10
0.0
 20
0.0
  9
$LIMMAX
 10
11.6929133858000007
 20
8.2677165353999982
  9
$ORTHOMODE
 70
     0
  9
$REGENMODE
 70
     1
  9
$FILLMODE
 70
     1
  9
$QTEXTMODE
 70
     0
  9
$MIRRTEXT
 70
     0
  9
$DRAGMODE
 70
     2
  9
$LTSCALE
 40
0.6431102362
  9
$OSMODE
 70
  4095
  9
$ATTMODE
 70
     1
  9
$TEXTSIZE
 40
0.2
  9
$TRACEWID
 40
0.05
  9
$TEXTSTYLE
  7
STANDARD
  9
$CLAYER
  8
0
  9
$CELTYPE
  6
BYLAYER
  9
$CECOLOR
 62
   256
  9
$DIMSCALE
 40
1.0
  9
$DIMASZ
 40
0.1875
  9
$DIMEXO
 40
0.0625
  9
$DIMDLI
 40
0.4443307087
  9
$DIMRND
 40
0.0
  9
$DIMDLE
 40
0.0
  9
$DIMEXE
 40
0.125
  9
$DIMTP
 40
0.01
  9
$DIMTM
 40
0.01
  9
$DIMTXT
 40
2.0
  9
$DIMCEN
 40
0.1052362205
  9
$DIMTSZ
 40
0.0
  9
$DIMTOL
 70
     1
  9
$DIMLIM
 70
     0
  9
$DIMTIH
 70
     1
  9
$DIMTOH
 70
     1
  9
$DIMSE1
 70
     0
  9
$DIMSE2
 70
     0
  9
$DIMTAD
 70
     0
  9
$DIMZIN
 70
     0
  9
$DIMBLK
  1

  9
$DIMASO
 70
     1
  9
$DIMSHO
 70
     1
  9
$DIMPOST
  1
\X
  9
$DIMAPOST
  1

  9
$DIMALT
 70
     1
  9
$DIMALTD
 70
     2
  9
$DIMALTF
 40
25.3999999999999986
  9
$DIMLFAC
 40
1.0
  9
$DIMTOFL
 70
     0
  9
$DIMTVP
 40
0.0
  9
$DIMTIX
 70
     0
  9
$DIMSOXD
 70
     0
  9
$DIMSAH
 70
     0
  9
$DIMBLK1
  1

  9
$DIMBLK2
  1

  9
$DIMSTYLE
  2
STANDARD
  9
$DIMCLRD
 70
     0
  9
$DIMCLRE
 70
     0
  9
$DIMCLRT
 70
     0
  9
$DIMTFAC
 40
1.0
  9
$DIMGAP
 40
0.09
  9
$LUNITS
 70
     2
  9
$LUPREC
 70
     4
  9
$SKETCHINC
 40
0.1
  9
$FILLETRAD
 40
0.0
  9
$AUNITS
 70
     0
  9
$AUPREC
 70
     0
  9
$MENU
  1
.
  9
$ELEVATION
 40
0.0
  9
$PELEVATION
 40
0.0
  9
$THICKNESS
 40
0.0
  9
$LIMCHECK
 70
     0
  9
$BLIPMODE
 70
     0
  9
$CHAMFERA
 40
0.0
  9
$CHAMFERB
 40
0.0
  9
$SKPOLY
 70
     0
  9
$TDCREATE
 40
2458060.468368056230247
  9
$TDUPDATE
 40
2460017.6812384258955717
  9
$TDINDWG
 40
0.5502269676
  9
$TDUSRTIMER
 40
0.5502269676
  9
$USRTIMER
 70
     1
  9
$ANGBASE
 50
0.0
  9
$ANGDIR
 70
     0
  9
$PDMODE
 70
     0
  9
$PDSIZE
 40
0.3125
  9
$PLINEWID
 40
0.0
  9
$COORDS
 70
     1
  9
$SPLFRAME
 70
     0
  9
$SPLINETYPE
 70
     6
  9
$SPLINESEGS
 70
     8
  9
$ATTDIA
 70
     1
  9
$ATTREQ
 70
     1
  9
$HANDLING
 70
     1
  9
$HANDSEED
  5
24A81
  9
$SURFTAB1
 70
     6
  9
$SURFTAB2
 70
     6
  9
$SURFTYPE
 70
     6
  9
$SURFU
 70
     6
  9
$SURFV
 70
     6
  9
$UCSNAME
  2

  9
$UCSORG
 10
0.0
 20
0.0
 30
0.0
  9
$UCSXDIR
 10
1.0
 20
0.0
 30
0.0
  9
$UCSYDIR
 10
0.0
 20
1.0
 30
0.0
  9
$PUCSNAME
  2

  9
$PUCSORG
 10
0.0
 20
0.0
 30
0.0
  9
$PUCSXDIR
 10
1.0
 20
0.0
 30
0.0
  9
$PUCSYDIR
 10
0.0
 20
1.0
 30
0.0
  9
$USERI1
 70
     0
  9
$USERI2
 70
     0
  9
$USERI3
 70
     0
  9
$USERI4
 70
     0
  9
$USERI5
 70
     0
  9
$USERR1
 40
0.0
  9
$USERR2
 40
0.0
  9
$USERR3
 40
0.0
  9
$USERR4
 40
0.0
  9
$USERR5
 40
0.0
  9
$WORLDVIEW
 70
     1
  9
$SHADEDGE
 70
     3
  9
$SHADEDIF
 70
    70
  9
$TILEMODE
 70
     1
  9
$MAXACTVP
 70
    64
  9
$PLIMCHECK
 70
     0
  9
$PEXTMIN
 10
1.0000000000000000E+20
 20
1.0000000000000000E+20
 30
1.0000000000000000E+20
  9
$PEXTMAX
 10
-1.0000000000000000E+20
 20
-1.0000000000000000E+20
 30
-1.0000000000000000E+20
  9
$PLIMMIN
 10
0.0
 20
0.0
  9
$PLIMMAX
 10
12.0
 20
9.0
  9
$UNITMODE
 70
     0
  9
$VISRETAIN
 70
     1
  9
$PLINEGEN
 70
     0
  9
$PSLTSCALE
 70
     1
  0
ENDSEC
  0
SECTION
  2
TABLES
  0
TABLE
  2
VPORT
 70
     1
  0
VPORT
  2
*ACTIVE
 70
     0
 10
0.0
 20
0.0
 11
1.0
 21
1.0
 12
525.3406827722819799
 22
151.7010086928765134
 13
0.0
 23
0.0
 14
1.0
 24
1.0
 15
0.0
 25
0.0
 16
0.0
 26
0.0
 36
60.4960186965801583
 17
3911.3653564453120453
 27
132.5796051025390057
 37
0.0
 40
11.9775009120281997
 41
1.593589743589743
 42
50.0
 43
0.0
 44
0.0
 50
0.0
 51
0.0
 71
     0
 72
   100
 73
     1
 74
     1
 75
     0
 76
     0
 77
     0
 78
     0
  0
ENDTAB
  0
TABLE
  2
LTYPE
 70
     2
  0
LTYPE
  2
CONTINUOUS
 70
     0
  3
Solid line
 72
    65
 73
     0
 40
0.0
  0
LTYPE
  2
PHANTOM2
 70
     0
  3
___ _ _ ___ _ _ ___ _ _ ___ _ _
 72
    65
 73
     6
 40
1.25
 49
0.625
 49
-0.125
 49
0.125
 49
-0.125
 49
0.125
 49
-0.125
  0
ENDTAB
  0
TABLE
  2
LAYER
 70
     2
  0
LAYER
  2
0
 70
     0
 62
   255
  6
CONTINUOUS
  0
LAYER
  2
DEFPOINTS
 70
     0
 62
     7
  6
CONTINUOUS
  0
ENDTAB
  0
TABLE
  2
STYLE
 70
     1
  0
STYLE
  2
STANDARD
 70
     0
 40
0.0
 41
0.8
 50
0.0
 71
     0
 42
0.2
  3
txt
  4

  0
ENDTAB
  0
TABLE
  2
VIEW
 70
     0
  0
ENDTAB
  0
TABLE
  2
UCS
 70
     0
  0
ENDTAB
  0
TABLE
  2
APPID
 70
    11
  0
APPID
  2
ACAD
 70
     0
  0
APPID
  2
ACAD_MLEADERVER
 70
     0
  0
APPID
  2
ACAD_EXEMPT_FROM_CAD_STANDARDS
 70
     0
  0
APPID
  2
ACAD_NAV_VCDISPLAY
 70
     0
  0
APPID
  2
ACAECLAYERSTANDARD
 70
     0
  0
APPID
  2
ACCMTRANSPARENCY
 70
     0
  0
APPID
  2
ACAD_DSTYLE_DIMJAG
 70
     0
  0
APPID
  2
ACAD_DSTYLE_DIMTALN
 70
     0
  0
APPID
  2
ACDBATTR
 70
     0
  0
APPID
  2
ACADANNOTATIVE
 70
     0
  0
APPID
  2
DCO15
 70
     0
  0
ENDTAB
  0
TABLE
  2
DIMSTYLE
 70
     1
  0
DIMSTYLE
  2
STANDARD
 70
     0
  3

  4

  5

  6

  7

 40
1.0
 41
0.1875
 42
0.0625
 43
0.38
 44
0.125
 45
0.0
 46
0.0
 47
0.01
 48
0.01
140
0.15625
141
0.09
142
0.0
143
25.3999999999999986
144
1.0
145
0.0
146
1.0
147
0.09
 71
     1
 72
     0
 73
     1
 74
     1
 75
     0
 76
     0
 77
     0
 78
     4
170
     0
171
     2
172
     0
173
     0
174
     0
175
     0
176
     0
177
     0
178
     0
  0
ENDTAB
  0
ENDSEC
  0
SECTION
  2
BLOCKS
  0
BLOCK
  8
0
  2
$MODEL_SPACE
 70
     0
 10
0.0
 20
0.0
 30
0.0
  3
$MODEL_SPACE
  1

  0
ENDBLK
  5
21
  8
0
  0
BLOCK
 67
     1
  8
0
  2
$PAPER_SPACE
 70
     0
 10
0.0
 20
0.0
 30
0.0
  3
$PAPER_SPACE
  1

  0
ENDBLK
  5
1D
 67
     1
  8
0
  0
ENDSEC
  0
SECTION
  2
ENTITIES
  0
ATTDEF
  5
20106
  8
DEFPOINTS
 10
4436.7319695590449555
 20
285.7909896068931062
 30
0.0
 40
0.001
  1
K-XAK112K
  3

  2
MODELNUMBER
 70
     0
1001
ACDBATTR
1070
     0
1070
     1
  0
ATTDEF
  5
20107
  8
DEFPOINTS
 10
4436.7318437493868259
 20
285.7893227665139761
 30
0.0
 40
0.001
  1
MODERNLIFE
  3

  2
TRADENAME
 70
     0
1001
ACDBATTR
1070
     0
1070
     1
  0
ATTDEF
  5
20108
  8
DEFPOINTS
 10
4436.7319695590449555
 20
285.7876562735597759
 30
0.0
 40
0.001
  1
VANITY TOP BATHROOM SINK
  3

  2
PRODUCT
 70
     0
1001
ACDBATTR
1070
     0
1070
     1
  0
LINE
  5
24950
  8
0
  6
CONTINUOUS
 10
4427.2670658884144359
 20
287.4814557901577814
 30
0.0
 11
4427.5647154674143167
 21
285.7934011444577891
 31
0.0
  0
LINE
  5
24951
  8
0
  6
CONTINUOUS
 10
4436.8194958894127922
 20
282.0130701146579213
 30
0.0
 11
4436.9250388359141652
 21
280.9169647059579233
 31
0.0
  0
LINE
  5
24952
  8
0
  6
CONTINUOUS
 10
4439.6914809556128603
 20
281.171313115257874
 30
0.0
 11
4441.4751342352137726
 21
281.3273625569577803
 31
0.0
  0
LINE
  5
24953
  8
0
  6
CONTINUOUS
 10
4436.0845966007118477
 20
282.2478750061579262
 30
0.0
 11
4436.6437890654142393
 21
282.1910522030858033
 31
0.0
  0
LINE
  5
24954
  8
0
  6
CONTINUOUS
 10
4445.2927472588144155
 20
282.3771474400579109
 30
0.0
 11
4445.8133088720142041
 21
282.3768004616578082
 31
0.0
  0
LINE
  5
24955
  8
0
  6
CONTINUOUS
 10
4439.4250657693128232
 20
282.0104340454578278
 30
0.0
 11
4439.3944467162145884
 21
281.3257716746579149
 31
0.0
  0
LINE
  5
24956
  8
0
  6
CONTINUOUS
 10
4439.7900201457641742
 20
281.0183397022290137
 30
0.0
 11
4439.780249895414272
 21
280.9169647059579233
 31
0.0
  0
LINE
  5
24957
  8
0
  6
CONTINUOUS
 10
4442.0138557423142629
 20
281.8950565736578255
 30
0.0
 11
4442.0261764334818508
 21
282.2478750061579262
 31
0.0
  0
LINE
  5
24958
  8
0
  6
CONTINUOUS
 10
4427.5647154674143167
 20
285.7934011444577891
 30
0.0
 11
4445.9116994838141181
 21
285.7934011444577891
 31
0.0
  0
LINE
  5
24959
  8
0
  6
CONTINUOUS
 10
4444.8862674716137917
 20
283.3684288551577879
 30
0.0
 11
4444.6915616673149998
 21
285.7934011444577891
 31
0.0
  0
LINE
  5
2495A
  8
0
  6
CONTINUOUS
 10
4445.9116994838141181
 20
282.3462397635577759
 30
0.0
 11
4445.9116994838141181
 21
287.660721279657821
 31
0.0
  0
ARC
  5
2495B
  8
0
  6
CONTINUOUS
 10
4441.4236643090143843
 20
281.9156665125578911
 30
0.0
 40
0.5905511811000002
 50
274.9999999698958959
 51
357.9999999999993179
  0
ARC
  5
2495C
  8
0
  6
CONTINUOUS
 10
4436.6213292163265578
 20
281.9931581060973826
 30
0.0
 40
0.1991645510803994
 50
5.7378848488743799
 51
83.5249636382389724
  0
ARC
  5
2495D
  8
0
  6
CONTINUOUS
 10
4439.9915194156092184
 20
280.9973511539599826
 30
0.0
 40
0.2025894244686104
 50
105.0997972149542932
 51
174.053406709965401
  0
ARC
  5
2495E
  8
0
  6
CONTINUOUS
 10
4439.6626834153130403
 20
280.9282850704577754
 30
0.0
 40
0.1181102362
 50
270.0
 51
354.4999999991997015
  0
ARC
  5
2495F
  8
0
  6
CONTINUOUS
 10
4437.042605316015397
 20
280.9282850704577754
 30
0.0
 40
0.1181102362
 50
185.5000000008002132
 51
270.0
  0
ARC
  5
24960
  8
0
  6
CONTINUOUS
 10
4445.81325246997676
 20
287.6606993860581838
 30
0.0
 40
0.0984470162719271
 50
0.0127419896977952
 51
89.787212241894224
  0
ARC
  5
24961
  8
0
  6
CONTINUOUS
 10
4445.8129742758010252
 20
282.346598488345478
 30
0.0
 40
0.0987258597366177
 50
270.397637902156589
 51
359.791812787235699
  0
ARC
  5
24962
  8
0
  6
CONTINUOUS
 10
4439.6587988303635939
 20
281.5992419841242054
 30
0.0
 40
0.4291750669832652
 50
247.4775341013715888
 51
274.3673608672569912
  0
ARC
  5
24963
  8
0
  6
CONTINUOUS
 10
4439.5693981820222689
 20
281.397926726326773
 30
0.0
 40
0.2090412673321855
 50
221.4027128055658125
 51
248.9767142825029111
  0
ARC
  5
24964
  8
0
  6
CONTINUOUS
 10
4439.4795507487915529
 20
281.3148068235512937
 30
0.0
 40
0.0867267758827467
 50
190.3844313681026108
 51
219.4691660816993988
  0
ARC
  5
24965
  8
0
  6
CONTINUOUS
 10
4439.4697948560587974
 20
281.3118993332797118
 30
0.0
 40
0.0766145158146002
 50
169.5680988679739869
 51
189.5607646984421137
  0
ARC
  5
24966
  8
0
  6
CONTINUOUS
 10
4423.9969041133490464
 20
281.0348523788732109
 30
0.0
 40
15.4589757639617407
 50
3.6182139018712318
 51
4.2892418869726798
  0
ARC
  5
24967
  8
0
  6
CONTINUOUS
 10
4439.2460636658361182
 20
286.2386877886772822
 30
0.0
 40
4.0510594029026201
 50
272.3558042910129871
 51
279.8937144534414188
  0
ARC
  5
24968
  8
0
  6
CONTINUOUS
 10
4438.0281856771207458
 20
-3680.7452303785721597
 30
0.0
 40
3962.9365243914908206
 50
89.9799845179822171
 51
90.0200154819656717
  0
ARC
  5
24969
  8
0
 10
4434.253172978485054
 20
290.978599514664495
 30
0.0
 40
8.7307367856608025
 50
258.8926376338952196
 51
269.9039137847183838
  0
ARC
  5
2496A
  8
0
 10
4433.1804978525369734
 20
286.1555949299558961
 30
0.0
 40
3.7934372416802709
 50
221.7746678785811127
 51
260.7573830981048104
  0
ARC
  5
2496B
  8
0
 10
4434.1806097945936926
 20
286.6431178235143875
 30
0.0
 40
4.8734899541292682
 50
191.1757359704133137
 51
218.2136799869491881
  0
ARC
  5
2496C
  8
0
 10
4429.1312546896788263
 20
285.6359501202492197
 30
0.0
 40
0.2754847220947654
 50
13.1329322347577708
 51
34.857807817752807
  0
ARC
  5
2496D
  8
0
 10
4445.8149933947579484
 20
282.473509992611298
 30
0.0
 40
0.0967242006641186
 50
269.0021016170898065
 51
358.8911945677953099
  0
ARC
  5
2496E
  8
0
 10
4445.5560896851748112
 20
282.8003355620812158
 30
0.0
 40
0.4984349708269975
 50
208.9072634385150025
 51
238.1067318213671058
  0
ARC
  5
2496F
  8
0
 10
4446.787958936078212
 20
283.4790554554598998
 30
0.0
 40
1.904906472956446
 50
183.3293002571857926
 51
208.8674456977358886
  0
ARC
  5
24970
  8
0
 10
4427.5004481861706154
 20
287.5222346881238877
 30
0.0
 40
0.2369181618733117
 50
90.4444065060124558
 51
189.9112368077965129
  0
LINE
  5
24971
  8
0
  6
CONTINUOUS
 10
4427.4986105828120344
 20
287.7591457234079257
 30
0.0
 11
4445.8136180862911715
 21
287.7591457234079257
 31
0.0
  0
LINE
  5
24972
  8
0
  6
CONTINUOUS
 10
4439.6626834153130403
 20
280.8101748342579072
 30
0.0
 11
4437.042605316015397
 21
280.8101748342579072
 31
0.0
  0
LINE
  5
24973
  8
0
 10
4445.8136594367142607
 20
282.2478750061579262
 30
0.0
 11
4434.2385313579616195
 21
282.2478750061579262
 31
0.0
  0
ENDSEC
  0
EOF
