  0
SECTION
  2
HEADER
  9
$ACADVER
  1
AC1009
  9
$INSBASE
 10
4440.9052269080857513
 20
309.4558562561024928
 30
0.0
  9
$EXTMIN
 10
4422.6388998476677443
 20
299.8650530816992159
 30
-0.0000000000000058
  9
$EXTMAX
 10
4459.3819482936296481
 20
318.5297602301250208
 30
0.0000000000000104
  9
$LIMMIN
 10
0.0
 20
0.0
  9
$LIMMAX
 10
11.6929133858000007
 20
8.2677165353999982
  9
$ORTHOMODE
 70
     0
  9
$REGENMODE
 70
     1
  9
$FILLMODE
 70
     1
  9
$QTEXTMODE
 70
     0
  9
$MIRRTEXT
 70
     0
  9
$DRAGMODE
 70
     2
  9
$LTSCALE
 40
0.6431102362
  9
$OSMODE
 70
  4095
  9
$ATTMODE
 70
     1
  9
$TEXTSIZE
 40
0.2
  9
$TRACEWID
 40
0.05
  9
$TEXTSTYLE
  7
STANDARD
  9
$CLAYER
  8
0
  9
$CELTYPE
  6
BYLAYER
  9
$CECOLOR
 62
   256
  9
$DIMSCALE
 40
1.0
  9
$DIMASZ
 40
0.1875
  9
$DIMEXO
 40
0.0625
  9
$DIMDLI
 40
0.4443307087
  9
$DIMRND
 40
0.0
  9
$DIMDLE
 40
0.0
  9
$DIMEXE
 40
0.125
  9
$DIMTP
 40
0.01
  9
$DIMTM
 40
0.01
  9
$DIMTXT
 40
2.0
  9
$DIMCEN
 40
0.1052362205
  9
$DIMTSZ
 40
0.0
  9
$DIMTOL
 70
     1
  9
$DIMLIM
 70
     0
  9
$DIMTIH
 70
     1
  9
$DIMTOH
 70
     1
  9
$DIMSE1
 70
     0
  9
$DIMSE2
 70
     0
  9
$DIMTAD
 70
     0
  9
$DIMZIN
 70
     0
  9
$DIMBLK
  1

  9
$DIMASO
 70
     1
  9
$DIMSHO
 70
     1
  9
$DIMPOST
  1
\X
  9
$DIMAPOST
  1

  9
$DIMALT
 70
     1
  9
$DIMALTD
 70
     2
  9
$DIMALTF
 40
25.3999999999999986
  9
$DIMLFAC
 40
1.0
  9
$DIMTOFL
 70
     0
  9
$DIMTVP
 40
0.0
  9
$DIMTIX
 70
     0
  9
$DIMSOXD
 70
     0
  9
$DIMSAH
 70
     0
  9
$DIMBLK1
  1

  9
$DIMBLK2
  1

  9
$DIMSTYLE
  2
STANDARD
  9
$DIMCLRD
 70
     0
  9
$DIMCLRE
 70
     0
  9
$DIMCLRT
 70
     0
  9
$DIMTFAC
 40
1.0
  9
$DIMGAP
 40
0.09
  9
$LUNITS
 70
     2
  9
$LUPREC
 70
     4
  9
$SKETCHINC
 40
0.1
  9
$FILLETRAD
 40
0.0
  9
$AUNITS
 70
     0
  9
$AUPREC
 70
     0
  9
$MENU
  1
.
  9
$ELEVATION
 40
0.0
  9
$PELEVATION
 40
0.0
  9
$THICKNESS
 40
0.0
  9
$LIMCHECK
 70
     0
  9
$BLIPMODE
 70
     0
  9
$CHAMFERA
 40
0.0
  9
$CHAMFERB
 40
0.0
  9
$SKPOLY
 70
     0
  9
$TDCREATE
 40
2458060.468368056230247
  9
$TDUPDATE
 40
2460017.6811458338052034
  9
$TDINDWG
 40
0.5497640046
  9
$TDUSRTIMER
 40
0.5497640046
  9
$USRTIMER
 70
     1
  9
$ANGBASE
 50
0.0
  9
$ANGDIR
 70
     0
  9
$PDMODE
 70
     0
  9
$PDSIZE
 40
0.3125
  9
$PLINEWID
 40
0.0
  9
$COORDS
 70
     1
  9
$SPLFRAME
 70
     0
  9
$SPLINETYPE
 70
     6
  9
$SPLINESEGS
 70
     8
  9
$ATTDIA
 70
     1
  9
$ATTREQ
 70
     1
  9
$HANDLING
 70
     1
  9
$HANDSEED
  5
24B2E
  9
$SURFTAB1
 70
     6
  9
$SURFTAB2
 70
     6
  9
$SURFTYPE
 70
     6
  9
$SURFU
 70
     6
  9
$SURFV
 70
     6
  9
$UCSNAME
  2

  9
$UCSORG
 10
0.0
 20
0.0
 30
0.0
  9
$UCSXDIR
 10
1.0
 20
0.0
 30
0.0
  9
$UCSYDIR
 10
0.0
 20
1.0
 30
0.0
  9
$PUCSNAME
  2

  9
$PUCSORG
 10
0.0
 20
0.0
 30
0.0
  9
$PUCSXDIR
 10
1.0
 20
0.0
 30
0.0
  9
$PUCSYDIR
 10
0.0
 20
1.0
 30
0.0
  9
$USERI1
 70
     0
  9
$USERI2
 70
     0
  9
$USERI3
 70
     0
  9
$USERI4
 70
     0
  9
$USERI5
 70
     0
  9
$USERR1
 40
0.0
  9
$USERR2
 40
0.0
  9
$USERR3
 40
0.0
  9
$USERR4
 40
0.0
  9
$USERR5
 40
0.0
  9
$WORLDVIEW
 70
     1
  9
$SHADEDGE
 70
     3
  9
$SHADEDIF
 70
    70
  9
$TILEMODE
 70
     1
  9
$MAXACTVP
 70
    64
  9
$PLIMCHECK
 70
     0
  9
$PEXTMIN
 10
1.0000000000000000E+20
 20
1.0000000000000000E+20
 30
1.0000000000000000E+20
  9
$PEXTMAX
 10
-1.0000000000000000E+20
 20
-1.0000000000000000E+20
 30
-1.0000000000000000E+20
  9
$PLIMMIN
 10
0.0
 20
0.0
  9
$PLIMMAX
 10
12.0
 20
9.0
  9
$UNITMODE
 70
     0
  9
$VISRETAIN
 70
     1
  9
$PLINEGEN
 70
     0
  9
$PSLTSCALE
 70
     1
  0
ENDSEC
  0
SECTION
  2
TABLES
  0
TABLE
  2
VPORT
 70
     1
  0
VPORT
  2
*ACTIVE
 70
     0
 10
0.0
 20
0.0
 11
1.0
 21
1.0
 12
529.645067625336992
 22
176.617801553372999
 13
0.0
 23
0.0
 14
1.0
 24
1.0
 15
0.0
 25
0.0
 16
0.0
 26
0.0
 36
60.4960186965801583
 17
3911.3653564453120453
 27
132.5796051025390057
 37
0.0
 40
23.1679334966148289
 41
1.593589743589743
 42
50.0
 43
0.0
 44
0.0
 50
0.0
 51
0.0
 71
     0
 72
   100
 73
     1
 74
     1
 75
     0
 76
     0
 77
     0
 78
     0
  0
ENDTAB
  0
TABLE
  2
LTYPE
 70
     2
  0
LTYPE
  2
CONTINUOUS
 70
     0
  3
Solid line
 72
    65
 73
     0
 40
0.0
  0
LTYPE
  2
PHANTOM2
 70
     0
  3
___ _ _ ___ _ _ ___ _ _ ___ _ _
 72
    65
 73
     6
 40
1.25
 49
0.625
 49
-0.125
 49
0.125
 49
-0.125
 49
0.125
 49
-0.125
  0
ENDTAB
  0
TABLE
  2
LAYER
 70
     2
  0
LAYER
  2
0
 70
     0
 62
   255
  6
CONTINUOUS
  0
LAYER
  2
DEFPOINTS
 70
     0
 62
     7
  6
CONTINUOUS
  0
ENDTAB
  0
TABLE
  2
STYLE
 70
     1
  0
STYLE
  2
STANDARD
 70
     0
 40
0.0
 41
0.8
 50
0.0
 71
     0
 42
0.2
  3
txt
  4

  0
ENDTAB
  0
TABLE
  2
VIEW
 70
     0
  0
ENDTAB
  0
TABLE
  2
UCS
 70
     0
  0
ENDTAB
  0
TABLE
  2
APPID
 70
    11
  0
APPID
  2
ACAD
 70
     0
  0
APPID
  2
ACAD_MLEADERVER
 70
     0
  0
APPID
  2
ACAD_EXEMPT_FROM_CAD_STANDARDS
 70
     0
  0
APPID
  2
ACAD_NAV_VCDISPLAY
 70
     0
  0
APPID
  2
ACAECLAYERSTANDARD
 70
     0
  0
APPID
  2
ACCMTRANSPARENCY
 70
     0
  0
APPID
  2
ACAD_DSTYLE_DIMJAG
 70
     0
  0
APPID
  2
ACAD_DSTYLE_DIMTALN
 70
     0
  0
APPID
  2
ACDBATTR
 70
     0
  0
APPID
  2
ACADANNOTATIVE
 70
     0
  0
APPID
  2
DCO15
 70
     0
  0
ENDTAB
  0
TABLE
  2
DIMSTYLE
 70
     1
  0
DIMSTYLE
  2
STANDARD
 70
     0
  3

  4

  5

  6

  7

 40
1.0
 41
0.1875
 42
0.0625
 43
0.38
 44
0.125
 45
0.0
 46
0.0
 47
0.01
 48
0.01
140
0.15625
141
0.09
142
0.0
143
25.3999999999999986
144
1.0
145
0.0
146
1.0
147
0.09
 71
     1
 72
     0
 73
     1
 74
     1
 75
     0
 76
     0
 77
     0
 78
     4
170
     0
171
     2
172
     0
173
     0
174
     0
175
     0
176
     0
177
     0
178
     0
  0
ENDTAB
  0
ENDSEC
  0
SECTION
  2
BLOCKS
  0
BLOCK
  8
0
  2
$MODEL_SPACE
 70
     0
 10
0.0
 20
0.0
 30
0.0
  3
$MODEL_SPACE
  1

  0
ENDBLK
  5
21
  8
0
  0
BLOCK
 67
     1
  8
0
  2
$PAPER_SPACE
 70
     0
 10
0.0
 20
0.0
 30
0.0
  3
$PAPER_SPACE
  1

  0
ENDBLK
  5
1D
 67
     1
  8
0
  0
ENDSEC
  0
SECTION
  2
ENTITIES
  0
ATTDEF
  5
20106
  8
DEFPOINTS
 10
4440.900384308242792
 20
309.4536866900766086
 30
0.0
 40
0.001
  1
K-XAK112K
  3

  2
MODELNUMBER
 70
     0
1001
ACDBATTR
1070
     0
1070
     1
  0
ATTDEF
  5
20107
  8
DEFPOINTS
 10
4440.9002584985855719
 20
309.4520198496974785
 30
0.0
 40
0.001
  1
MODERNLIFE
  3

  2
TRADENAME
 70
     0
1001
ACDBATTR
1070
     0
1070
     1
  0
ATTDEF
  5
20108
  8
DEFPOINTS
 10
4440.900384308242792
 20
309.4503533567432783
 30
0.0
 40
0.001
  1
VANITY TOP BATHROOM SINK
  3

  2
PRODUCT
 70
     0
1001
ACDBATTR
1070
     0
1070
     1
  0
LINE
  5
249B8
  8
0
  6
CONTINUOUS
 10
4423.3293562495227889
 20
299.8753448637580163
 30
0.0
 11
4458.4808791417817702
 21
299.8753448641580235
 31
0.0
  0
LINE
  5
249B9
  8
0
  6
CONTINUOUS
 10
4422.8078619089237691
 20
318.5235671698579836
 30
0.0
 11
4459.0021018998459112
 21
318.5235671698579836
 31
0.0
  0
CIRCLE
  5
249BA
  8
0
  6
CONTINUOUS
 10
4440.9049818961238998
 20
310.9645120517579926
 30
0.0
 40
0.925380784
  0
CIRCLE
  5
249BB
  8
0
  6
CONTINUOUS
 10
4440.9049753174240323
 20
315.9645100731580101
 30
0.0
 40
0.7890339793070354
  0
ARC
  5
249BC
  8
0
  6
CONTINUOUS
 10
4422.8078742684283498
 20
318.4251413337785266
 30
0.0
 40
0.0984258368554592
 50
90.0071947308903191
 51
177.9368196741588974
  0
ARC
  5
249BD
  8
0
 10
4423.3292213711838485
 20
300.4951729851629807
 30
0.0
 40
0.619828136080162
 50
181.1227598208126892
 51
270.0124679072005165
  0
ARC
  5
249BE
  8
0
 10
4440.9049818475232314
 20
307.1997338567499014
 30
0.0
 40
6.2121015037080056
 50
86.0024351543643348
 51
93.9975639459528338
  0
ARC
  5
249BF
  8
0
 10
4440.9049819448246126
 20
319.5937062065492
 30
0.0
 40
6.212098756591252
 50
266.0024333836764754
 51
273.9975657166406791
  0
ARC
  5
249C0
  8
0
 10
4442.3266947627380432
 20
761.2446644064151542
 30
0.0
 40
459.5745610247770969
 50
269.3406463756811036
 51
269.8227528603521819
  0
ARC
  5
249C1
  8
0
 10
4436.8256615540867642
 20
329.7863068816404848
 30
0.0
 40
28.0865759949325309
 50
265.1712986937595815
 51
270.433325785717102
  0
ARC
  5
249C2
  8
0
 10
4434.9895376575977934
 20
308.1415679105197114
 30
0.0
 40
6.3641032999215863
 50
249.457571801525205
 51
265.2398813473569135
  0
ARC
  5
249C3
  8
0
 10
4433.6586806703953698
 20
304.580191275086122
 30
0.0
 40
2.5621887636805498
 50
213.9028986495299023
 51
249.3802209684112086
  0
ARC
  5
249C4
  8
0
 10
4434.1816909108501932
 20
304.8736520480077843
 30
0.0
 40
3.16033454651875
 50
185.2066603705287093
 51
213.0297297361595952
  0
ARC
  5
249C5
  8
0
 10
4439.3256648160659097
 20
305.774272884212678
 30
0.0
 40
8.3758634967660228
 50
180.7305731895822873
 51
188.1500728106734073
  0
ARC
  5
249C6
  8
0
 10
4964.7568919651121178
 20
310.0620322321627782
 30
0.0
 40
533.8244985230187467
 50
180.0447113692671905
 51
180.4716763176263044
  0
ARC
  5
249C7
  8
0
 10
4437.3278463471342548
 20
309.7458670023119112
 30
0.0
 40
6.3960785716174904
 50
165.5082968643193908
 51
180.8995081637328042
  0
ARC
  5
249C8
  8
0
 10
4433.7523820190463084
 20
310.6978543780002724
 30
0.0
 40
2.6962814262855002
 50
135.3212497138127901
 51
166.0815303306943065
  0
ARC
  5
249C9
  8
0
 10
4433.8608452288963235
 20
310.4197049835291864
 30
0.0
 40
2.9714665216446159
 50
106.4574782937742015
 51
132.9775041467914036
  0
ARC
  5
249CA
  8
0
 10
4435.1189070132995766
 20
306.2988563954501728
 30
0.0
 40
7.2800033443822141
 50
94.9131437245247156
 51
106.7649542873944029
  0
ARC
  5
249CB
  8
0
 10
4436.1567246837366838
 20
295.6785859799092009
 30
0.0
 40
17.9505670752843294
 50
90.4842015995142361
 51
95.3102984677251754
  0
ARC
  5
249CC
  8
0
 10
4440.7840914123244147
 20
-73.7593888543161142
 30
0.0
 40
387.4173785800988981
 50
89.9821213103059421
 51
90.7068013304671155
  0
LINE
  5
249CD
  8
0
  6
CONTINUOUS
 10
4422.7095122375403662
 20
300.4830276998505951
 30
0.0
 11
4422.7095122375403662
 21
318.4286848123542768
 31
0.0
  0
CIRCLE
  5
249CF
  8
0
 10
4440.9049818961238998
 20
310.9645120517579926
 30
0.0
 40
1.5604039775536089
  0
ARC
  5
249D0
  8
0
 10
4439.4832690460098092
 20
761.2446644064151542
 30
0.0
 40
459.5745610247770969
 50
270.1772471396478181
 51
270.6593536243188964
  0
ARC
  5
249D1
  8
0
 10
4444.9843022546601787
 20
329.7863068816404848
 30
0.0
 40
28.0865759949325309
 50
269.566674214282898
 51
274.8287013062403048
  0
ARC
  5
249D2
  8
0
 10
4446.820426151150059
 20
308.1415679105197114
 30
0.0
 40
6.3641032999215863
 50
274.7601186526432002
 51
290.542428198474795
  0
ARC
  5
249D3
  8
0
 10
4448.1512831383533921
 20
304.580191275086122
 30
0.0
 40
2.5621887636805498
 50
290.6197790315887914
 51
326.0971013504700977
  0
ARC
  5
249D4
  8
0
 10
4447.6282728978958403
 20
304.8736520480077843
 30
0.0
 40
3.16033454651875
 50
326.9702702638404048
 51
354.7933396294712907
  0
ARC
  5
249D5
  8
0
 10
4442.4842989926801238
 20
305.774272884212678
 30
0.0
 40
8.3758634967660228
 50
351.849927189326479
 51
359.269426810417599
  0
ARC
  5
249D6
  8
0
 10
3917.0530718436361894
 20
310.0620322321627782
 30
0.0
 40
533.8244985230187467
 50
359.5283236823736956
 51
359.9552886307296262
  0
ARC
  5
249D7
  8
0
 10
4444.4821174616126882
 20
309.7458670023119112
 30
0.0
 40
6.3960785716174904
 50
359.1004918362671106
 51
14.4917031356805701
  0
ARC
  5
249D8
  8
0
 10
4448.0575817897024535
 20
310.6978543780002724
 30
0.0
 40
2.6962814262855002
 50
13.9184696693056509
 51
44.6787502861871317
  0
ARC
  5
249D9
  8
0
 10
4447.9491185798524384
 20
310.4197049835291864
 30
0.0
 40
2.9714665216446159
 50
47.0224958532085822
 51
73.5425217062258127
  0
ARC
  5
249DA
  8
0
 10
4446.6910567954482758
 20
306.2988563954501728
 30
0.0
 40
7.2800033443822141
 50
73.2350457126055971
 51
85.0868562754752844
  0
ARC
  5
249DB
  8
0
 10
4445.6532391250102592
 20
295.6785859799092009
 30
0.0
 40
17.9505670752843294
 50
84.6897015322748103
 51
89.5157984004857497
  0
ARC
  5
249DC
  8
0
 10
4441.0258723964234377
 20
-73.7593888543161142
 30
0.0
 40
387.4173785800988981
 50
89.2931986695328845
 51
90.0178786896940579
  0
ARC
  5
249DD
  8
0
  6
CONTINUOUS
 10
4459.0020895403204122
 20
318.4251413337785266
 30
0.0
 40
0.0984258368554592
 50
2.063180325841115
 51
89.9928052691096809
  0
ARC
  5
249DE
  8
0
 10
4458.4807424375640039
 20
300.4951729851629807
 30
0.0
 40
0.619828136080162
 50
269.9875320927994835
 51
358.8772401791873108
  0
LINE
  5
249DF
  8
0
  6
CONTINUOUS
 10
4459.1004515712083958
 20
300.4830276998505951
 30
0.0
 11
4459.1004515712083958
 21
318.4286848123542768
 31
0.0
  0
POINT
  5
249E0
  8
DEFPOINTS
 10
4440.9049753174240323
 20
315.9645100731580101
 30
0.0
  0
ENDSEC
  0
EOF
