  0
SECTION
  2
HEADER
  9
$ACADVER
  1
AC1009
  9
$INSBASE
 10
4709.0989909698910196
 20
324.7308643522745797
 30
0.0
  9
$EXTMIN
 10
4703.1872097729437883
 20
324.7027508649022138
 30
-0.0000000000112498
  9
$EXTMAX
 10
4710.3744459515537528
 20
337.3659415244437128
 30
0.0000000000002956
  9
$LIMMIN
 10
0.0
 20
0.0
  9
$LIMMAX
 10
11.6929133858000007
 20
8.2677165353999982
  9
$ORTHOMODE
 70
     0
  9
$REGENMODE
 70
     1
  9
$FILLMODE
 70
     1
  9
$QTEXTMODE
 70
     0
  9
$MIRRTEXT
 70
     0
  9
$DRAGMODE
 70
     2
  9
$LTSCALE
 40
0.6431102362
  9
$OSMODE
 70
   575
  9
$ATTMODE
 70
     1
  9
$TEXTSIZE
 40
0.2
  9
$TRACEWID
 40
0.05
  9
$TEXTSTYLE
  7
STANDARD
  9
$CLAYER
  8
0
  9
$CELTYPE
  6
BYLAYER
  9
$CECOLOR
 62
   256
  9
$DIMSCALE
 40
1.0
  9
$DIMASZ
 40
0.1875
  9
$DIMEXO
 40
0.0625
  9
$DIMDLI
 40
0.4443307087
  9
$DIMRND
 40
0.0
  9
$DIMDLE
 40
0.0
  9
$DIMEXE
 40
0.125
  9
$DIMTP
 40
0.01
  9
$DIMTM
 40
0.01
  9
$DIMTXT
 40
2.0
  9
$DIMCEN
 40
0.1052362205
  9
$DIMTSZ
 40
0.0
  9
$DIMTOL
 70
     1
  9
$DIMLIM
 70
     0
  9
$DIMTIH
 70
     1
  9
$DIMTOH
 70
     1
  9
$DIMSE1
 70
     0
  9
$DIMSE2
 70
     0
  9
$DIMTAD
 70
     0
  9
$DIMZIN
 70
     0
  9
$DIMBLK
  1

  9
$DIMASO
 70
     1
  9
$DIMSHO
 70
     1
  9
$DIMPOST
  1
\X
  9
$DIMAPOST
  1

  9
$DIMALT
 70
     1
  9
$DIMALTD
 70
     2
  9
$DIMALTF
 40
25.3999999999999986
  9
$DIMLFAC
 40
1.0
  9
$DIMTOFL
 70
     0
  9
$DIMTVP
 40
0.0
  9
$DIMTIX
 70
     0
  9
$DIMSOXD
 70
     0
  9
$DIMSAH
 70
     0
  9
$DIMBLK1
  1

  9
$DIMBLK2
  1

  9
$DIMSTYLE
  2
STANDARD
  9
$DIMCLRD
 70
     0
  9
$DIMCLRE
 70
     0
  9
$DIMCLRT
 70
     0
  9
$DIMTFAC
 40
1.0
  9
$DIMGAP
 40
0.09
  9
$LUNITS
 70
     2
  9
$LUPREC
 70
     4
  9
$SKETCHINC
 40
0.1
  9
$FILLETRAD
 40
0.0
  9
$AUNITS
 70
     0
  9
$AUPREC
 70
     0
  9
$MENU
  1
.
  9
$ELEVATION
 40
0.0
  9
$PELEVATION
 40
0.0
  9
$THICKNESS
 40
0.0
  9
$LIMCHECK
 70
     0
  9
$BLIPMODE
 70
     0
  9
$CHAMFERA
 40
0.0
  9
$CHAMFERB
 40
0.0
  9
$SKPOLY
 70
     0
  9
$TDCREATE
 40
2458060.468368056230247
  9
$TDUPDATE
 40
2459430.020659722853452
  9
$TDINDWG
 40
0.6163033565
  9
$TDUSRTIMER
 40
0.6163033565
  9
$USRTIMER
 70
     1
  9
$ANGBASE
 50
0.0
  9
$ANGDIR
 70
     0
  9
$PDMODE
 70
     0
  9
$PDSIZE
 40
0.3125
  9
$PLINEWID
 40
0.0
  9
$COORDS
 70
     2
  9
$SPLFRAME
 70
     0
  9
$SPLINETYPE
 70
     6
  9
$SPLINESEGS
 70
     8
  9
$ATTDIA
 70
     1
  9
$ATTREQ
 70
     1
  9
$HANDLING
 70
     1
  9
$HANDSEED
  5
21DD3
  9
$SURFTAB1
 70
     6
  9
$SURFTAB2
 70
     6
  9
$SURFTYPE
 70
     6
  9
$SURFU
 70
     6
  9
$SURFV
 70
     6
  9
$UCSNAME
  2

  9
$UCSORG
 10
0.0
 20
0.0
 30
0.0
  9
$UCSXDIR
 10
1.0
 20
0.0
 30
0.0
  9
$UCSYDIR
 10
0.0
 20
1.0
 30
0.0
  9
$PUCSNAME
  2

  9
$PUCSORG
 10
0.0
 20
0.0
 30
0.0
  9
$PUCSXDIR
 10
1.0
 20
0.0
 30
0.0
  9
$PUCSYDIR
 10
0.0
 20
1.0
 30
0.0
  9
$USERI1
 70
     0
  9
$USERI2
 70
     0
  9
$USERI3
 70
     0
  9
$USERI4
 70
     0
  9
$USERI5
 70
     0
  9
$USERR1
 40
0.0
  9
$USERR2
 40
0.0
  9
$USERR3
 40
0.0
  9
$USERR4
 40
0.0
  9
$USERR5
 40
0.0
  9
$WORLDVIEW
 70
     1
  9
$SHADEDGE
 70
     3
  9
$SHADEDIF
 70
    70
  9
$TILEMODE
 70
     1
  9
$MAXACTVP
 70
    64
  9
$PLIMCHECK
 70
     0
  9
$PEXTMIN
 10
1.0000000000000000E+20
 20
1.0000000000000000E+20
 30
1.0000000000000000E+20
  9
$PEXTMAX
 10
-1.0000000000000000E+20
 20
-1.0000000000000000E+20
 30
-1.0000000000000000E+20
  9
$PLIMMIN
 10
0.0
 20
0.0
  9
$PLIMMAX
 10
12.0
 20
9.0
  9
$UNITMODE
 70
     0
  9
$VISRETAIN
 70
     1
  9
$PLINEGEN
 70
     0
  9
$PSLTSCALE
 70
     1
  0
ENDSEC
  0
SECTION
  2
TABLES
  0
TABLE
  2
VPORT
 70
     1
  0
VPORT
  2
*ACTIVE
 70
     0
 10
0.0
 20
0.0
 11
1.0
 21
1.0
 12
795.4154713868348381
 22
198.454741081242787
 13
0.0
 23
0.0
 14
1.0
 24
1.0
 15
0.0
 25
0.0
 16
0.0
 26
0.0
 36
60.4960186965801583
 17
3911.3653564453120453
 27
132.5796051025390057
 37
0.0
 40
20.5819059050708617
 41
2.5310015898251188
 42
50.0
 43
0.0
 44
0.0
 50
0.0
 51
0.0
 71
     0
 72
   100
 73
     1
 74
     1
 75
     0
 76
     0
 77
     0
 78
     0
  0
ENDTAB
  0
TABLE
  2
LTYPE
 70
     2
  0
LTYPE
  2
CONTINUOUS
 70
     0
  3
Solid line
 72
    65
 73
     0
 40
0.0
  0
LTYPE
  2
PHANTOM2
 70
     0
  3
___ _ _ ___ _ _ ___ _ _ ___ _ _
 72
    65
 73
     6
 40
1.25
 49
0.625
 49
-0.125
 49
0.125
 49
-0.125
 49
0.125
 49
-0.125
  0
ENDTAB
  0
TABLE
  2
LAYER
 70
     2
  0
LAYER
  2
0
 70
     0
 62
   255
  6
CONTINUOUS
  0
LAYER
  2
DEFPOINTS
 70
     0
 62
     7
  6
CONTINUOUS
  0
ENDTAB
  0
TABLE
  2
STYLE
 70
     1
  0
STYLE
  2
STANDARD
 70
     0
 40
0.0
 41
0.8
 50
0.0
 71
     0
 42
0.2
  3
txt
  4

  0
ENDTAB
  0
TABLE
  2
VIEW
 70
     1
  0
ENDTAB
  0
TABLE
  2
UCS
 70
     0
  0
ENDTAB
  0
TABLE
  2
APPID
 70
    11
  0
APPID
  2
ACAD
 70
     0
  0
APPID
  2
ACAD_MLEADERVER
 70
     0
  0
APPID
  2
ACAD_EXEMPT_FROM_CAD_STANDARDS
 70
     0
  0
APPID
  2
ACAD_NAV_VCDISPLAY
 70
     0
  0
APPID
  2
ACAECLAYERSTANDARD
 70
     0
  0
APPID
  2
ACCMTRANSPARENCY
 70
     0
  0
APPID
  2
ACAD_DSTYLE_DIMJAG
 70
     0
  0
APPID
  2
ACAD_DSTYLE_DIMTALN
 70
     0
  0
APPID
  2
ACDBATTR
 70
     0
  0
APPID
  2
ACADANNOTATIVE
 70
     0
  0
APPID
  2
DCO15
 70
     0
  0
ENDTAB
  0
TABLE
  2
DIMSTYLE
 70
     1
  0
DIMSTYLE
  2
STANDARD
 70
     0
  3

  4

  5

  6

  7

 40
1.0
 41
0.1875
 42
0.0625
 43
0.38
 44
0.125
 45
0.0
 46
0.0
 47
0.01
 48
0.01
140
0.15625
141
0.09
142
0.0
143
25.3999999999999986
144
1.0
145
0.0
146
1.0
147
0.09
 71
     1
 72
     0
 73
     1
 74
     1
 75
     0
 76
     0
 77
     0
 78
     4
170
     0
171
     2
172
     0
173
     0
174
     0
175
     0
176
     0
177
     0
178
     0
  0
ENDTAB
  0
ENDSEC
  0
SECTION
  2
BLOCKS
  0
BLOCK
  8
0
  2
$MODEL_SPACE
 70
     0
 10
0.0
 20
0.0
 30
0.0
  3
$MODEL_SPACE
  1

  0
ENDBLK
  5
21
  8
0
  0
BLOCK
 67
     1
  8
0
  2
$PAPER_SPACE
 70
     0
 10
0.0
 20
0.0
 30
0.0
  3
$PAPER_SPACE
  1

  0
ENDBLK
  5
1D
 67
     1
  8
0
  0
ENDSEC
  0
SECTION
  2
ENTITIES
  0
ATTDEF
  5
20106
  8
DEFPOINTS
 10
4709.0949787708441363
 20
324.7283002004875812
 30
0.0
 40
0.001
  1
K-C98340D
  3

  2
MODELNUMBER
 70
     0
1001
ACDBATTR
1070
     0
1070
     1
  0
ATTDEF
  5
20107
  8
DEFPOINTS
 10
4709.0948529611869162
 20
324.726633360108508
 30
0.0
 40
0.001
  1
STRAYT
  3

  2
TRADENAME
 70
     0
1001
ACDBATTR
1070
     0
1070
     1
  0
ATTDEF
  5
20108
  8
DEFPOINTS
 10
4709.0949787708441363
 20
324.7249668671543077
 30
0.0
 40
0.001
  1
BATHROOM SINK FAUCET
  3

  2
PRODUCT
 70
     0
1001
ACDBATTR
1070
     0
1070
     1
  0
LINE
  5
21CD4
  8
0
 10
4708.2124791588412336
 20
324.7308643522745797
 30
0.0
 11
4709.9855027809398962
 21
324.7308643522745797
 31
0.0
  0
LINE
  5
21CD5
  8
0
 10
4705.8492010297413799
 20
337.3505885804747209
 30
0.0
 11
4710.0032594938411421
 21
337.3505885804747209
 31
0.0
  0
LINE
  5
21CD6
  8
0
 10
4710.004502780940129
 20
336.0465100215745906
 30
0.0
 11
4710.004502780940129
 21
324.7498643522745851
 31
0.0
  0
LINE
  5
21CD7
  8
0
 10
4708.1934791588400913
 20
333.5696832498745721
 30
0.0
 11
4708.1934791588400913
 21
324.7498643522745851
 31
0.0
  0
LINE
  5
21CD8
  8
0
 10
4703.3505893950386962
 20
334.1796832498745857
 30
0.0
 11
4707.5834791588413282
 21
334.1796832498745857
 31
0.0
  0
LINE
  5
21CD9
  8
0
 10
4703.3505893950386962
 20
335.1048801002747268
 30
0.0
 11
4707.5919068404400605
 21
335.1048801002747268
 31
0.0
  0
LINE
  5
21CDA
  8
0
 10
4703.3115893950398458
 20
335.0658801002746259
 30
0.0
 11
4703.3115893950398458
 21
334.218683249874573
 31
0.0
  0
LINE
  5
21CDB
  8
0
 10
4705.8492010297413799
 20
337.0009039122788863
 30
0.0
 11
4707.5719068404387144
 21
337.0009039122788863
 31
0.0
  0
LINE
  5
21CDC
  8
0
 10
4705.8302010297402376
 20
337.3315885804747154
 30
0.0
 11
4705.8302010297402376
 21
337.0199039122788918
 31
0.0
  0
ARC
  5
21CDD
  8
0
 10
4705.8492010297413799
 20
337.3315885804747154
 30
0.0
 40
0.019
 50
90.0
 51
179.9999999999934914
  0
ARC
  5
21CDE
  8
0
 10
4705.8492010297413799
 20
337.0199039122788918
 30
0.0
 40
0.019
 50
180.0000000000098055
 51
270.0
  0
LINE
  5
21CDF
  8
0
 10
4709.9855027809398962
 20
336.0655100215747098
 30
0.0
 11
4708.2124791588412336
 21
336.0655100215747098
 31
0.0
  0
ARC
  5
21CE0
  8
0
 10
4709.9855027809398962
 20
336.0465100215745906
 30
0.0
 40
0.019
 50
0.0
 51
90.0
  0
ARC
  5
21CE1
  8
0
 10
4708.2131854427643702
 20
336.0458163966436018
 30
0.0
 40
0.0197062857968441
 50
92.0539515693873085
 51
179.9750222297246012
  0
LINE
  5
21CE2
  8
0
 10
4710.0222594938413749
 20
337.3315885804747154
 30
0.0
 11
4710.0222594938413749
 21
336.624565139674587
 31
0.0
  0
ARC
  5
21CE3
  8
0
 10
4710.0032594938411421
 20
337.3315885804747154
 30
0.0
 40
0.019
 50
0.0000000000065138
 51
90.0
  0
ARC
  5
21CE4
  8
0
 10
4703.3505893950386962
 20
335.0658801002746259
 30
0.0
 40
0.039
 50
90.0
 51
180.0000000000032117
  0
ARC
  5
21CE5
  8
0
 10
4703.3505893950386962
 20
334.218683249874573
 30
0.0
 40
0.039
 50
180.0
 51
270.0
  0
ARC
  5
21CE6
  8
0
 10
4707.5834791588413282
 20
333.5696832498745721
 30
0.0
 40
0.61
 50
0.0
 51
90.0
  0
ARC
  5
21CE7
  8
0
 10
4707.5719068404387144
 20
336.3909039122788727
 30
0.0
 40
0.61
 50
0.0
 51
90.0
  0
ARC
  5
21CE8
  8
0
 10
4707.5837622515164185
 20
335.7145428773134199
 30
0.0
 40
0.6097171770873137
 50
270.7653785520337806
 51
0.0538871073315202
  0
LINE
  5
21CE9
  8
0
 10
4708.1819068404392965
 20
336.3909039122788727
 30
0.0
 11
4708.1819068404392965
 21
336.1521241947746717
 31
0.0
  0
LINE
  5
21CEA
  8
0
 10
4708.1819068404392965
 20
336.1521241947746717
 30
0.0
 11
4708.7322707706307483
 21
336.1521241947746717
 31
0.0
  0
LINE
  5
21CEB
  8
0
 10
4708.1934791588400913
 20
336.0458249821746222
 30
0.0
 11
4708.1934794286044053
 21
335.7145428773134199
 31
0.0
  0
ARC
  5
21CEC
  8
0
 10
4708.5591818683724341
 20
338.6221014921147798
 30
0.0
 40
2.4760346559488839
 50
274.0085701786023833
 51
306.2205782068688791
  0
ARC
  5
21CED
  8
0
 10
4709.1462350643396348
 20
336.1442501789745734
 30
0.0
 40
0.759842519699987
 50
0.0
 51
27.2007509645087602
  0
LINE
  5
21CEE
  8
0
 10
4709.9060775840389397
 20
336.1442501789745734
 30
0.0
 11
4709.9060775840389397
 21
336.0655100215747098
 31
0.0
  0
LINE
  5
21CEF
  8
0
 10
4708.2919451784082412
 20
336.1521264681667276
 30
0.0
 11
4708.2919451784082412
 21
336.0655100215747098
 31
0.0
  0
ARC
  5
21CF0
  8
0
 10
4708.2124791588412336
 20
324.7498643522745851
 30
0.0
 40
0.019
 50
179.9999999999901945
 51
270.0
  0
ARC
  5
21CF1
  8
0
 10
4709.9855027809398962
 20
324.7498643522745851
 30
0.0
 40
0.019
 50
270.0
 51
0.0000000000097707
  0
ENDSEC
  0
EOF
