  0
SECTION
  2
HEADER
  9
$ACADVER
  1
AC1009
  9
$INSBASE
 10
576.177345202705169
 20
209.8925057204779137
 30
0.0
  9
$EXTMIN
 10
569.5499915911633479
 20
209.8876524641422066
 30
0.0
  9
$EXTMAX
 10
577.1812822106053318
 20
217.5519305415778888
 30
0.0
  9
$LIMMIN
 10
0.0
 20
0.0
  9
$LIMMAX
 10
11.6929133858000007
 20
8.2677165353999982
  9
$ORTHOMODE
 70
     0
  9
$REGENMODE
 70
     1
  9
$FILLMODE
 70
     1
  9
$QTEXTMODE
 70
     0
  9
$MIRRTEXT
 70
     0
  9
$DRAGMODE
 70
     2
  9
$LTSCALE
 40
0.6431102362
  9
$OSMODE
 70
  4063
  9
$ATTMODE
 70
     1
  9
$TEXTSIZE
 40
0.2
  9
$TRACEWID
 40
0.05
  9
$TEXTSTYLE
  7
STANDARD
  9
$CLAYER
  8
0
  9
$CELTYPE
  6
BYLAYER
  9
$CECOLOR
 62
   256
  9
$DIMSCALE
 40
1.0
  9
$DIMASZ
 40
0.1875
  9
$DIMEXO
 40
0.0625
  9
$DIMDLI
 40
0.4443307087
  9
$DIMRND
 40
0.0
  9
$DIMDLE
 40
0.0
  9
$DIMEXE
 40
0.125
  9
$DIMTP
 40
0.01
  9
$DIMTM
 40
0.01
  9
$DIMTXT
 40
1.0
  9
$DIMCEN
 40
0.1052362205
  9
$DIMTSZ
 40
0.0
  9
$DIMTOL
 70
     1
  9
$DIMLIM
 70
     0
  9
$DIMTIH
 70
     0
  9
$DIMTOH
 70
     1
  9
$DIMSE1
 70
     0
  9
$DIMSE2
 70
     0
  9
$DIMTAD
 70
     0
  9
$DIMZIN
 70
     0
  9
$DIMBLK
  1

  9
$DIMASO
 70
     1
  9
$DIMSHO
 70
     1
  9
$DIMPOST
  1
\X
  9
$DIMAPOST
  1

  9
$DIMALT
 70
     1
  9
$DIMALTD
 70
     2
  9
$DIMALTF
 40
25.3999999999999986
  9
$DIMLFAC
 40
1.0
  9
$DIMTOFL
 70
     0
  9
$DIMTVP
 40
0.0
  9
$DIMTIX
 70
     0
  9
$DIMSOXD
 70
     0
  9
$DIMSAH
 70
     0
  9
$DIMBLK1
  1

  9
$DIMBLK2
  1

  9
$DIMSTYLE
  2
STANDARD
  9
$DIMCLRD
 70
     0
  9
$DIMCLRE
 70
     0
  9
$DIMCLRT
 70
     0
  9
$DIMTFAC
 40
1.0
  9
$DIMGAP
 40
0.09
  9
$LUNITS
 70
     2
  9
$LUPREC
 70
     4
  9
$SKETCHINC
 40
0.1
  9
$FILLETRAD
 40
0.0
  9
$AUNITS
 70
     0
  9
$AUPREC
 70
     0
  9
$MENU
  1
.
  9
$ELEVATION
 40
0.0
  9
$PELEVATION
 40
0.0
  9
$THICKNESS
 40
0.0
  9
$LIMCHECK
 70
     0
  9
$BLIPMODE
 70
     0
  9
$CHAMFERA
 40
0.0
  9
$CHAMFERB
 40
0.0
  9
$SKPOLY
 70
     0
  9
$TDCREATE
 40
2458172.5207638889551163
  9
$TDUPDATE
 40
2459508.445474537089467
  9
$TDINDWG
 40
0.4992114468
  9
$TDUSRTIMER
 40
0.4992114468
  9
$USRTIMER
 70
     1
  9
$ANGBASE
 50
0.0
  9
$ANGDIR
 70
     0
  9
$PDMODE
 70
     0
  9
$PDSIZE
 40
0.3125
  9
$PLINEWID
 40
0.0
  9
$COORDS
 70
     1
  9
$SPLFRAME
 70
     0
  9
$SPLINETYPE
 70
     6
  9
$SPLINESEGS
 70
     8
  9
$ATTDIA
 70
     1
  9
$ATTREQ
 70
     1
  9
$HANDLING
 70
     1
  9
$HANDSEED
  5
A1A2
  9
$SURFTAB1
 70
     6
  9
$SURFTAB2
 70
     6
  9
$SURFTYPE
 70
     6
  9
$SURFU
 70
     6
  9
$SURFV
 70
     6
  9
$UCSNAME
  2

  9
$UCSORG
 10
0.0
 20
0.0
 30
0.0
  9
$UCSXDIR
 10
1.0
 20
0.0
 30
0.0
  9
$UCSYDIR
 10
0.0
 20
1.0
 30
0.0
  9
$PUCSNAME
  2

  9
$PUCSORG
 10
0.0
 20
0.0
 30
0.0
  9
$PUCSXDIR
 10
1.0
 20
0.0
 30
0.0
  9
$PUCSYDIR
 10
0.0
 20
1.0
 30
0.0
  9
$USERI1
 70
     0
  9
$USERI2
 70
     0
  9
$USERI3
 70
     0
  9
$USERI4
 70
     0
  9
$USERI5
 70
     0
  9
$USERR1
 40
0.0
  9
$USERR2
 40
0.0
  9
$USERR3
 40
0.0
  9
$USERR4
 40
0.0
  9
$USERR5
 40
0.0
  9
$WORLDVIEW
 70
     1
  9
$SHADEDGE
 70
     3
  9
$SHADEDIF
 70
    70
  9
$TILEMODE
 70
     1
  9
$MAXACTVP
 70
    64
  9
$PLIMCHECK
 70
     0
  9
$PEXTMIN
 10
1.0000000000000000E+20
 20
1.0000000000000000E+20
 30
1.0000000000000000E+20
  9
$PEXTMAX
 10
-1.0000000000000000E+20
 20
-1.0000000000000000E+20
 30
-1.0000000000000000E+20
  9
$PLIMMIN
 10
0.0
 20
0.0
  9
$PLIMMAX
 10
12.0
 20
9.0
  9
$UNITMODE
 70
     0
  9
$VISRETAIN
 70
     1
  9
$PLINEGEN
 70
     0
  9
$PSLTSCALE
 70
     1
  0
ENDSEC
  0
SECTION
  2
TABLES
  0
TABLE
  2
VPORT
 70
     1
  0
VPORT
  2
*ACTIVE
 70
     0
 10
0.0
 20
0.0
 11
1.0
 21
1.0
 12
70.7390478582533433
 22
123.8939594268615991
 13
0.0
 23
0.0
 14
1.0
 24
1.0
 15
0.0
 25
0.0
 16
0.0
 26
0.0
 36
15.0514596368723108
 17
502.6320285006868858
 27
89.8960179397507062
 37
0.0
 40
7.8734545184492637
 41
2.0416141235813359
 42
50.0
 43
0.0
 44
0.0
 50
0.0
 51
0.0
 71
     0
 72
   100
 73
     1
 74
     1
 75
     0
 76
     0
 77
     0
 78
     0
  0
ENDTAB
  0
TABLE
  2
LTYPE
 70
     2
  0
LTYPE
  2
CONTINUOUS
 70
     0
  3
Solid line
 72
    65
 73
     0
 40
0.0
  0
LTYPE
  2
PHANTOM2
 70
     0
  3
___ _ _ ___ _ _ ___ _ _ ___ _ _
 72
    65
 73
     6
 40
1.25
 49
0.625
 49
-0.125
 49
0.125
 49
-0.125
 49
0.125
 49
-0.125
  0
ENDTAB
  0
TABLE
  2
LAYER
 70
     2
  0
LAYER
  2
0
 70
     0
 62
   255
  6
CONTINUOUS
  0
LAYER
  2
DEFPOINTS
 70
     0
 62
     7
  6
CONTINUOUS
  0
ENDTAB
  0
TABLE
  2
STYLE
 70
     1
  0
STYLE
  2
STANDARD
 70
     0
 40
0.0
 41
0.8
 50
0.0
 71
     0
 42
0.2
  3
txt
  4

  0
ENDTAB
  0
TABLE
  2
VIEW
 70
     0
  0
ENDTAB
  0
TABLE
  2
UCS
 70
     0
  0
ENDTAB
  0
TABLE
  2
APPID
 70
    10
  0
APPID
  2
ACAD
 70
     0
  0
APPID
  2
ACAD_MLEADERVER
 70
     0
  0
APPID
  2
ACAD_EXEMPT_FROM_CAD_STANDARDS
 70
     0
  0
APPID
  2
ACAD_DSTYLE_DIMJAG
 70
     0
  0
APPID
  2
ACAD_DSTYLE_DIMTALN
 70
     0
  0
APPID
  2
ACAD_NAV_VCDISPLAY
 70
     0
  0
APPID
  2
ACAECLAYERSTANDARD
 70
     0
  0
APPID
  2
ACCMTRANSPARENCY
 70
     0
  0
APPID
  2
DCO15
 70
     0
  0
APPID
  2
ACDBATTR
 70
     0
  0
ENDTAB
  0
TABLE
  2
DIMSTYLE
 70
     1
  0
DIMSTYLE
  2
STANDARD
 70
     0
  3

  4

  5

  6

  7

 40
1.0
 41
0.1875
 42
0.0625
 43
0.38
 44
0.125
 45
0.0
 46
0.0
 47
0.01
 48
0.01
140
0.15625
141
0.09
142
0.0
143
25.3999999999999986
144
1.0
145
0.0
146
1.0
147
0.09
 71
     1
 72
     0
 73
     1
 74
     1
 75
     0
 76
     0
 77
     0
 78
     4
170
     0
171
     2
172
     0
173
     0
174
     0
175
     0
176
     0
177
     0
178
     0
  0
ENDTAB
  0
ENDSEC
  0
SECTION
  2
BLOCKS
  0
BLOCK
  8
0
  2
$MODEL_SPACE
 70
     0
 10
0.0
 20
0.0
 30
0.0
  3
$MODEL_SPACE
  1

  0
ENDBLK
  5
21
  8
0
  0
BLOCK
 67
     1
  8
0
  2
$PAPER_SPACE
 70
     0
 10
0.0
 20
0.0
 30
0.0
  3
$PAPER_SPACE
  1

  0
ENDBLK
  5
1D
 67
     1
  8
0
  0
BLOCK
  8
0
  2
_FILLED
 70
     0
 10
0.0
 20
0.0
 30
0.0
  3
_FILLED
  1

  0
SOLID
  5
A038
  8
0
  6
BYBLOCK
 62
     0
 10
0.0
 20
0.0
 30
0.0
 11
-1.0
 21
0.1666666667
 31
0.0
 12
-1.0
 22
-0.1666666667
 32
0.0
 13
-1.0
 23
-0.1666666667
 33
0.0
  0
ENDBLK
  5
A039
  8
0
  6
BYBLOCK
 62
     0
  0
ENDSEC
  0
SECTION
  2
ENTITIES
  0
ATTDEF
  5
829
  8
DEFPOINTS
 10
576.1782263200493617
 20
209.8909857974755937
 30
0.0
 40
0.001
  1
K-C73158D-ND
  3

  2
MODELNUMBER
 70
     0
1001
ACDBATTR
1070
     0
1070
     1
  0
ATTDEF
  5
82A
  8
DEFPOINTS
 10
576.1782263200493617
 20
209.8893191308089001
 30
0.0
 40
0.001
  1
COMPOSED
  3

  2
TRADENAME
 70
     0
1001
ACDBATTR
1070
     0
1070
     1
  0
ATTDEF
  5
82B
  8
DEFPOINTS
 10
576.1782263200493617
 20
209.8876524641422066
 30
0.0
 40
0.001
  1
BATHROOM SINK FAUCET
  3

  2
PRODUCT
 70
     0
1001
ACDBATTR
1070
     0
1070
     1
  0
LINE
  5
A08D
  8
0
 10
569.5499915912128017
 20
214.1416702461824002
 30
0.0
 11
569.5670485480975458
 21
214.6295681448735024
 31
0.0
  0
LINE
  5
A08E
  8
0
 10
569.5803888508346517
 20
214.1090937514096879
 30
0.0
 11
576.9935077302867512
 21
213.8502250082779881
 31
0.0
  0
LINE
  5
A08F
  8
0
 10
569.5996250428703433
 20
214.6599462176963016
 30
0.0
 11
576.9934128889964313
 21
214.401745783303312
 31
0.0
  0
ARC
  5
A090
  8
0
 10
569.5985258318454498
 20
214.6284689339485965
 30
0.0
 40
0.0314964705961094
 50
88.0000000000028422
 51
177.9999999999994884
  0
ARC
  5
A091
  8
0
 10
569.5865891556517226
 20
214.1453494316328943
 30
0.0
 40
0.0367820354581137
 50
185.7407077918996947
 51
260.2953814822977279
  0
LINE
  5
A092
  8
0
 10
569.7495634463446095
 20
214.1031861144728055
 30
0.0
 11
569.7437086332167837
 21
213.9355262024454021
 31
0.0
  0
LINE
  5
A093
  8
0
 10
569.7437086332167837
 20
213.9355262024454021
 30
0.0
 11
569.7613637422396096
 21
213.9244940659112046
 31
0.0
  0
LINE
  5
A094
  8
0
 10
569.7613637422396096
 20
213.9244940659112046
 30
0.0
 11
570.6679452402374864
 21
213.8918790585447027
 31
0.0
  0
LINE
  5
A095
  8
0
 10
570.6679452402374864
 20
213.8918790585447027
 30
0.0
 11
570.6880149264375177
 21
213.9025503000447088
 31
0.0
  0
LINE
  5
A096
  8
0
 10
570.6880149264375177
 20
213.9025503000447088
 30
0.0
 11
570.6938697532953029
 21
214.0702106029793015
 31
0.0
  0
LINE
  5
A097
  8
0
 10
570.0809901593373752
 20
213.9237480720447024
 30
0.0
 11
570.0847155086604516
 21
214.0304281192474036
 31
0.0
  0
LINE
  5
A098
  8
0
 10
570.0847155086604516
 20
214.0304281192474036
 30
0.0
 11
570.3544587495039195
 21
214.0210084777494046
 31
0.0
  0
LINE
  5
A099
  8
0
 10
570.3544587495039195
 20
214.0210084777494046
 30
0.0
 11
570.3507334003375036
 21
213.9143284304446979
 31
0.0
  0
LINE
  5
A09A
  8
0
 10
570.3507334003375036
 20
213.9143284304446979
 30
0.0
 11
570.6880149264319471
 21
213.9025502998850925
 31
0.0
  0
LINE
  5
A09B
  8
0
 10
570.0809901593373752
 20
213.9237480720447024
 30
0.0
 11
569.7437086332167837
 21
213.9355262024454021
 31
0.0
  0
ARC
  5
A09C
  8
0
 10
570.2436264718060102
 20
214.7141150166924888
 30
0.0
 40
0.806926562756063
 50
258.3723674167931108
 51
265.9683815055367972
  0
ARC
  5
A09D
  8
0
 10
570.2436264718060102
 20
214.7141150166924888
 30
0.0
 40
0.806926562756063
 50
269.9108710372034921
 51
277.6276326531487939
  0
ARC
  5
A09E
  8
0
 10
570.203786175989876
 20
213.5732381992322075
 30
0.0
 40
0.4724409452711975
 50
71.4021578893757294
 51
104.5978421326255017
  0
LINE
  5
A09F
  8
0
 10
576.011990872005299
 20
215.069164909075397
 30
0.0
 11
576.011990872005299
 21
217.5240503264317056
 31
0.0
  0
LINE
  5
A0A0
  8
0
 10
576.3426995334051526
 20
217.5240503264317056
 30
0.0
 11
576.3426995334051526
 21
215.069164909075397
 31
0.0
  0
ARC
  5
A0A1
  8
0
 10
576.0306450079292517
 20
215.0699586552215976
 30
0.0
 40
0.0186710155057832
 50
182.4365045408993922
 51
254.9207367941874907
  0
ARC
  5
A0A2
  8
0
 10
576.0434222352483857
 20
217.5206775899254126
 30
0.0
 40
0.0316118007532011
 50
98.6413308730586209
 51
173.8753226067200046
  0
ARC
  5
A0A3
  8
0
 10
576.3243651214703505
 20
215.0700358965870862
 30
0.0
 40
0.0183550886742982
 50
279.4621879753343023
 51
357.2801735563284069
  0
ARC
  5
A0A4
  8
0
 10
576.3114725788816486
 20
217.5215539135564029
 30
0.0
 40
0.0313265824190809
 50
4.5707426084682421
 51
75.853919563533438
  0
LINE
  5
A0A5
  8
0
 10
576.0887625255053308
 20
214.7330329037779109
 30
0.0
 11
576.0887625255053308
 21
215.0322455021778865
 31
0.0
  0
LINE
  5
A0A6
  8
0
 10
576.2659278798053037
 20
214.7330329037779109
 30
0.0
 11
576.2659278798053037
 21
215.0322455021778865
 31
0.0
  0
ARC
  5
A0A7
  8
0
 10
576.0689969921685361
 20
214.7328414471161011
 30
0.0
 40
0.0197664605769099
 50
279.5314330266439242
 51
0.5549719015362965
  0
ARC
  5
A0A8
  8
0
 10
576.2857154133031372
 20
214.7326757171614986
 30
0.0
 40
0.0197907570397432
 50
178.9658608417065011
 51
257.5834146946743886
  0
ARC
  5
A0A9
  8
0
 10
576.2854612221555044
 20
215.0324230057009061
 30
0.0
 40
0.0195341488392358
 50
92.9911370412668248
 51
180.520644270844798
  0
ARC
  5
A0AA
  8
0
 10
576.0691076253320944
 20
215.0323422973513061
 30
0.0
 40
0.0196551385170743
 50
359.7178357544883056
 51
85.2715657796081103
  0
LINE
  5
A0AB
  8
0
 10
576.0198648877052392
 20
214.695672910877903
 30
0.0
 11
576.0198648877052392
 21
214.7035053447779092
 31
0.0
  0
LINE
  5
A0AC
  8
0
 10
576.3348255176052817
 20
214.695672910877903
 30
0.0
 11
576.3348255176052817
 21
214.7035053447779092
 31
0.0
  0
LINE
  5
A0AD
  8
0
 10
576.0284045861673121
 20
214.7133478643779085
 30
0.0
 11
576.3260370500223644
 21
214.7133478643779085
 31
0.0
  0
LINE
  5
A0AE
  8
0
 10
576.038672607908552
 20
217.5519305415778888
 30
0.0
 11
576.3191286376654716
 21
217.5519305415778888
 31
0.0
  0
LINE
  5
A0AF
  8
0
 10
576.0257876487218027
 20
215.0519305415778888
 30
0.0
 11
576.3273826370431152
 21
215.0519305415778888
 31
0.0
  0
ARC
  5
A0B0
  8
0
 10
576.0297376905687088
 20
214.7035652950289943
 30
0.0
 40
0.0098729848785519
 50
97.7600925668860583
 51
180.3479107397859025
  0
ARC
  5
A0B1
  8
0
 10
576.324961542651522
 20
214.7035426272178995
 30
0.0
 40
0.0098640454109388
 50
359.7834426486625716
 51
83.7404194265999138
  0
LINE
  5
A0B2
  8
0
 10
576.0118012195802066
 20
214.695672910877903
 30
0.0
 11
576.342899128613908
 21
214.695672910877903
 31
0.0
  0
ARC
  5
A0B3
  8
0
 10
576.1772015012925294
 20
214.5519720634480905
 30
0.0
 40
0.220335905287629
 50
139.7699465599926896
 51
187.99845870804171
  0
ARC
  5
A0B4
  8
0
 10
576.177345200520449
 20
214.551930541139086
 30
0.0
 40
0.2204724429460726
 50
348.0186054438427163
 51
40.2141707485956772
  0
ARC
  5
A0B5
  8
0
 10
576.3426907802163441
 20
214.691732569870112
 30
0.0
 40
0.0039458454496181
 50
40.1690772325305119
 51
86.973262633382376
  0
ARC
  5
A0B6
  8
0
 10
576.0119987127937975
 20
214.6917329628834068
 30
0.0
 40
0.0039448946460962
 50
92.8695974573314658
 51
139.8266801279374079
  0
ARC
  5
A0B7
  8
0
 10
575.9435572371138505
 20
214.5139486427785016
 30
0.0
 40
0.007904372345841
 50
90.0979325710576404
 51
192.1973671319261996
  0
ARC
  5
A0B8
  8
0
 10
575.6832233492973501
 20
214.5014028336815102
 30
0.0
 40
0.0196850393919175
 50
87.9999998817187787
 51
178.0000000097485895
  0
ARC
  5
A0B9
  8
0
 10
575.6708724740384469
 20
214.486077548422486
 30
0.0
 40
0.0078765327867055
 50
178.0075841742408045
 51
269.1086104881886172
  0
ARC
  5
A0BA
  8
0
 10
575.6704751392159096
 20
214.4703327497491898
 30
0.0
 40
0.0078740157283009
 50
88.0000000847531254
 51
177.4999997196779873
  0
LINE
  5
A0BB
  8
0
 10
575.6630007031063769
 20
214.4863513935113133
 30
0.0
 11
575.6635503014994129
 21
214.5020898316456055
 31
0.0
  0
LINE
  5
A0BC
  8
0
 10
575.6618328066052754
 20
214.4529072121779052
 30
0.0
 11
575.6626086178075639
 21
214.4706762095298984
 31
0.0
  0
LINE
  5
A0BD
  8
0
 10
575.6839103473053001
 20
214.5210758814779126
 30
0.0
 11
576.6675627360052658
 21
214.4867259831779052
 31
0.0
  0
LINE
  5
A0BE
  8
0
 10
575.6707499384571065
 20
214.478201968839187
 30
0.0
 11
576.6777003538901454
 21
214.4430384854402973
 31
0.0
  0
LINE
  5
A0BF
  8
0
 10
576.684831290905322
 20
214.4171833179779014
 30
0.0
 11
575.6618328066052754
 21
214.4529072121779052
 31
0.0
  0
ARC
  5
A0C0
  8
0
 10
576.6668757381195292
 20
214.467052935383208
 30
0.0
 40
0.019685039385959
 50
357.9999998883147896
 51
88.0000000423747082
  0
ARC
  5
A0C1
  8
0
 10
576.6781274892787224
 20
214.4509034282357902
 30
0.0
 40
0.007876532854998
 50
266.8913903714160938
 51
357.9924154204244928
  0
ARC
  5
A0C2
  8
0
 10
576.6774255547052235
 20
214.4351692663778977
 30
0.0
 40
0.0078740157000207
 50
0.000000000058624
 51
88.0000000042458908
  0
LINE
  5
A0C3
  8
0
 10
576.684831290905322
 20
214.4171833179779014
 30
0.0
 11
576.6852995704051636
 21
214.4351692663778977
 31
0.0
  0
LINE
  5
A0C4
  8
0
 10
576.6859991875053311
 20
214.4506274991805981
 30
0.0
 11
576.6865487859097357
 21
214.4663659373701137
 31
0.0
  0
LINE
  5
A0C5
  8
0
 10
575.9435437266052986
 20
214.5218530035778883
 30
0.0
 11
576.4083415554900967
 21
214.5056267053402905
 31
0.0
  0
ARC
  5
A0C6
  8
0
 10
576.4080518836624378
 20
214.4977282971725003
 30
0.0
 40
0.0079037182361358
 50
343.8002011967340081
 51
87.8996351615972458
  0
ARC
  5
A0C7
  8
0
 10
575.701659800705329
 20
214.4653043497779095
 30
0.0
 40
0.0196850394000016
 50
222.4270042714786939
 51
247.4936977889655907
  0
ARC
  5
A0C8
  8
0
 10
576.6459660940053027
 20
214.4323284473778983
 30
0.0
 40
0.0196850394000043
 50
288.5023493873600842
 51
313.5729959717755833
  0
LINE
  5
A0C9
  8
0
 10
575.1734081948052335
 20
210.0324162420830021
 30
0.0
 11
575.1734081948052335
 21
209.8925057204779137
 31
0.0
  0
LINE
  5
A0CA
  8
0
 10
577.1812822106053318
 20
210.0331986331586052
 30
0.0
 11
577.1812822106053318
 21
209.8925057204779137
 31
0.0
  0
LINE
  5
A0CB
  8
0
 10
577.1812822106053318
 20
209.8925057204779137
 30
0.0
 11
575.1734081948052335
 21
209.8925057204779137
 31
0.0
  0
LINE
  5
A0CC
  8
0
 10
577.1636856022230404
 20
210.0499860354779003
 30
0.0
 11
575.1927870679477337
 21
210.0499860354779003
 31
0.0
  0
ARC
  5
A0CD
  8
0
 10
575.1930200463971232
 20
210.0302570589254003
 30
0.0
 40
0.0197303521197262
 50
90.6765714069427844
 51
173.7172763276863918
  0
ARC
  5
A0CE
  8
0
 10
577.1616940107803657
 20
210.0302823314756893
 30
0.0
 40
0.0198041002795079
 50
8.4680261572365101
 51
84.2283163704767759
  0
LINE
  5
A0CF
  8
0
 10
575.330888509805277
 20
213.8758390660842963
 30
0.0
 11
575.330888509805277
 21
210.079214455697695
 31
0.0
  0
ARC
  5
A0D0
  8
0
 10
575.3623981480775456
 20
210.0814319147013975
 30
0.0
 40
0.0315875676252697
 50
184.0254960107430122
 51
264.5711335179670982
  0
LINE
  5
A0D1
  8
0
 10
577.0238018956051746
 20
213.8222063581704901
 30
0.0
 11
577.0238018956051746
 21
210.079214455697695
 31
0.0
  0
LINE
  5
A0D2
  8
0
 10
577.0238018956051746
 20
213.881783875874504
 30
0.0
 11
577.0238018956051746
 21
214.3682743465822114
 31
0.0
  0
ARC
  5
A0D3
  8
0
 10
576.992292257332906
 20
210.0814319147013975
 30
0.0
 40
0.0315875676252697
 50
275.4288664820330155
 51
355.9745039892570162
  0
ARC
  5
A0D4
  8
0
 10
576.9925399200200218
 20
213.8187920304602017
 30
0.0
 40
0.0314478735562055
 50
6.2329476913327326
 51
88.236440364170619
  0
ARC
  5
A0D5
  8
0
 10
576.9920709922241713
 20
213.881923676345906
 30
0.0
 40
0.031731211346909
 50
272.595147717652992
 51
359.7475670623392716
  0
ARC
  5
A0D6
  8
0
 10
576.9833453889883685
 20
214.36207447385911
 30
0.0
 40
0.040928808306945
 50
8.7126716681381762
 51
75.7604869408501997
  0
ARC
  5
A0D7
  8
0
 10
575.3682106073908926
 20
213.8705461162487893
 30
0.0
 40
0.0376955472987722
 50
102.9909341268403011
 51
171.9282469226428987
  0
ENDSEC
  0
EOF
