  0
SECTION
  2
HEADER
  9
$ACADVER
  1
AC1009
  9
$INSBASE
 10
576.1774672582459971
 20
209.8924545722653079
 30
0.0
  9
$EXTMIN
 10
568.369730780204236
 20
209.8876524641422066
 30
0.0
  9
$EXTMAX
 10
577.1814042661460462
 20
221.2546352988653098
 30
0.0
  9
$LIMMIN
 10
0.0
 20
0.0
  9
$LIMMAX
 10
11.6929133858000007
 20
8.2677165353999982
  9
$ORTHOMODE
 70
     0
  9
$REGENMODE
 70
     1
  9
$FILLMODE
 70
     1
  9
$QTEXTMODE
 70
     0
  9
$MIRRTEXT
 70
     0
  9
$DRAGMODE
 70
     2
  9
$LTSCALE
 40
0.6431102362
  9
$OSMODE
 70
  4063
  9
$ATTMODE
 70
     1
  9
$TEXTSIZE
 40
0.2
  9
$TRACEWID
 40
0.05
  9
$TEXTSTYLE
  7
STANDARD
  9
$CLAYER
  8
0
  9
$CELTYPE
  6
BYLAYER
  9
$CECOLOR
 62
   256
  9
$DIMSCALE
 40
1.0
  9
$DIMASZ
 40
0.1875
  9
$DIMEXO
 40
0.0625
  9
$DIMDLI
 40
0.4443307087
  9
$DIMRND
 40
0.0
  9
$DIMDLE
 40
0.0
  9
$DIMEXE
 40
0.125
  9
$DIMTP
 40
0.01
  9
$DIMTM
 40
0.01
  9
$DIMTXT
 40
1.0
  9
$DIMCEN
 40
0.1052362205
  9
$DIMTSZ
 40
0.0
  9
$DIMTOL
 70
     1
  9
$DIMLIM
 70
     0
  9
$DIMTIH
 70
     0
  9
$DIMTOH
 70
     1
  9
$DIMSE1
 70
     0
  9
$DIMSE2
 70
     0
  9
$DIMTAD
 70
     0
  9
$DIMZIN
 70
     0
  9
$DIMBLK
  1

  9
$DIMASO
 70
     1
  9
$DIMSHO
 70
     1
  9
$DIMPOST
  1
\X
  9
$DIMAPOST
  1

  9
$DIMALT
 70
     1
  9
$DIMALTD
 70
     2
  9
$DIMALTF
 40
25.3999999999999986
  9
$DIMLFAC
 40
1.0
  9
$DIMTOFL
 70
     0
  9
$DIMTVP
 40
0.0
  9
$DIMTIX
 70
     0
  9
$DIMSOXD
 70
     0
  9
$DIMSAH
 70
     0
  9
$DIMBLK1
  1

  9
$DIMBLK2
  1

  9
$DIMSTYLE
  2
STANDARD
  9
$DIMCLRD
 70
     0
  9
$DIMCLRE
 70
     0
  9
$DIMCLRT
 70
     0
  9
$DIMTFAC
 40
1.0
  9
$DIMGAP
 40
0.09
  9
$LUNITS
 70
     2
  9
$LUPREC
 70
     4
  9
$SKETCHINC
 40
0.1
  9
$FILLETRAD
 40
0.0
  9
$AUNITS
 70
     0
  9
$AUPREC
 70
     0
  9
$MENU
  1
.
  9
$ELEVATION
 40
0.0
  9
$PELEVATION
 40
0.0
  9
$THICKNESS
 40
0.0
  9
$LIMCHECK
 70
     0
  9
$BLIPMODE
 70
     0
  9
$CHAMFERA
 40
0.0
  9
$CHAMFERB
 40
0.0
  9
$SKPOLY
 70
     0
  9
$TDCREATE
 40
2458172.5207638889551163
  9
$TDUPDATE
 40
2459508.4404166671447456
  9
$TDINDWG
 40
0.5064683912
  9
$TDUSRTIMER
 40
0.5064683912
  9
$USRTIMER
 70
     1
  9
$ANGBASE
 50
0.0
  9
$ANGDIR
 70
     0
  9
$PDMODE
 70
     0
  9
$PDSIZE
 40
0.3125
  9
$PLINEWID
 40
0.0
  9
$COORDS
 70
     1
  9
$SPLFRAME
 70
     0
  9
$SPLINETYPE
 70
     6
  9
$SPLINESEGS
 70
     8
  9
$ATTDIA
 70
     1
  9
$ATTREQ
 70
     1
  9
$HANDLING
 70
     1
  9
$HANDSEED
  5
AE27
  9
$SURFTAB1
 70
     6
  9
$SURFTAB2
 70
     6
  9
$SURFTYPE
 70
     6
  9
$SURFU
 70
     6
  9
$SURFV
 70
     6
  9
$UCSNAME
  2

  9
$UCSORG
 10
0.0
 20
0.0
 30
0.0
  9
$UCSXDIR
 10
1.0
 20
0.0
 30
0.0
  9
$UCSYDIR
 10
0.0
 20
1.0
 30
0.0
  9
$PUCSNAME
  2

  9
$PUCSORG
 10
0.0
 20
0.0
 30
0.0
  9
$PUCSXDIR
 10
1.0
 20
0.0
 30
0.0
  9
$PUCSYDIR
 10
0.0
 20
1.0
 30
0.0
  9
$USERI1
 70
     0
  9
$USERI2
 70
     0
  9
$USERI3
 70
     0
  9
$USERI4
 70
     0
  9
$USERI5
 70
     0
  9
$USERR1
 40
0.0
  9
$USERR2
 40
0.0
  9
$USERR3
 40
0.0
  9
$USERR4
 40
0.0
  9
$USERR5
 40
0.0
  9
$WORLDVIEW
 70
     1
  9
$SHADEDGE
 70
     3
  9
$SHADEDIF
 70
    70
  9
$TILEMODE
 70
     1
  9
$MAXACTVP
 70
    64
  9
$PLIMCHECK
 70
     0
  9
$PEXTMIN
 10
1.0000000000000000E+20
 20
1.0000000000000000E+20
 30
1.0000000000000000E+20
  9
$PEXTMAX
 10
-1.0000000000000000E+20
 20
-1.0000000000000000E+20
 30
-1.0000000000000000E+20
  9
$PLIMMIN
 10
0.0
 20
0.0
  9
$PLIMMAX
 10
12.0
 20
9.0
  9
$UNITMODE
 70
     0
  9
$VISRETAIN
 70
     1
  9
$PLINEGEN
 70
     0
  9
$PSLTSCALE
 70
     1
  0
ENDSEC
  0
SECTION
  2
TABLES
  0
TABLE
  2
VPORT
 70
     1
  0
VPORT
  2
*ACTIVE
 70
     0
 10
0.0
 20
0.0
 11
1.0
 21
1.0
 12
70.1405200553463146
 22
126.7382225772732056
 13
0.0
 23
0.0
 14
1.0
 24
1.0
 15
0.0
 25
0.0
 16
0.0
 26
0.0
 36
15.0514596368723108
 17
502.6320285006868858
 27
89.8960179397507062
 37
0.0
 40
13.5857842207525401
 41
2.0416141235813359
 42
50.0
 43
0.0
 44
0.0
 50
0.0
 51
0.0
 71
     0
 72
   100
 73
     1
 74
     1
 75
     0
 76
     0
 77
     0
 78
     0
  0
ENDTAB
  0
TABLE
  2
LTYPE
 70
     2
  0
LTYPE
  2
CONTINUOUS
 70
     0
  3
Solid line
 72
    65
 73
     0
 40
0.0
  0
LTYPE
  2
PHANTOM2
 70
     0
  3
___ _ _ ___ _ _ ___ _ _ ___ _ _
 72
    65
 73
     6
 40
1.25
 49
0.625
 49
-0.125
 49
0.125
 49
-0.125
 49
0.125
 49
-0.125
  0
ENDTAB
  0
TABLE
  2
LAYER
 70
     2
  0
LAYER
  2
0
 70
     0
 62
   255
  6
CONTINUOUS
  0
LAYER
  2
DEFPOINTS
 70
     0
 62
     7
  6
CONTINUOUS
  0
ENDTAB
  0
TABLE
  2
STYLE
 70
     1
  0
STYLE
  2
STANDARD
 70
     0
 40
0.0
 41
0.8
 50
0.0
 71
     0
 42
0.2
  3
txt
  4

  0
ENDTAB
  0
TABLE
  2
VIEW
 70
     0
  0
ENDTAB
  0
TABLE
  2
UCS
 70
     0
  0
ENDTAB
  0
TABLE
  2
APPID
 70
    10
  0
APPID
  2
ACAD
 70
     0
  0
APPID
  2
ACAD_MLEADERVER
 70
     0
  0
APPID
  2
ACAD_EXEMPT_FROM_CAD_STANDARDS
 70
     0
  0
APPID
  2
ACAD_DSTYLE_DIMJAG
 70
     0
  0
APPID
  2
ACAD_DSTYLE_DIMTALN
 70
     0
  0
APPID
  2
ACAD_NAV_VCDISPLAY
 70
     0
  0
APPID
  2
ACAECLAYERSTANDARD
 70
     0
  0
APPID
  2
ACCMTRANSPARENCY
 70
     0
  0
APPID
  2
DCO15
 70
     0
  0
APPID
  2
ACDBATTR
 70
     0
  0
ENDTAB
  0
TABLE
  2
DIMSTYLE
 70
     1
  0
DIMSTYLE
  2
STANDARD
 70
     0
  3

  4

  5

  6

  7

 40
1.0
 41
0.1875
 42
0.0625
 43
0.38
 44
0.125
 45
0.0
 46
0.0
 47
0.01
 48
0.01
140
0.15625
141
0.09
142
0.0
143
25.3999999999999986
144
1.0
145
0.0
146
1.0
147
0.09
 71
     1
 72
     0
 73
     1
 74
     1
 75
     0
 76
     0
 77
     0
 78
     4
170
     0
171
     2
172
     0
173
     0
174
     0
175
     0
176
     0
177
     0
178
     0
  0
ENDTAB
  0
ENDSEC
  0
SECTION
  2
BLOCKS
  0
BLOCK
  8
0
  2
$MODEL_SPACE
 70
     0
 10
0.0
 20
0.0
 30
0.0
  3
$MODEL_SPACE
  1

  0
ENDBLK
  5
21
  8
0
  0
BLOCK
 67
     1
  8
0
  2
$PAPER_SPACE
 70
     0
 10
0.0
 20
0.0
 30
0.0
  3
$PAPER_SPACE
  1

  0
ENDBLK
  5
1D
 67
     1
  8
0
  0
BLOCK
  8
0
  2
_FILLED
 70
     0
 10
0.0
 20
0.0
 30
0.0
  3
_FILLED
  1

  0
SOLID
  5
ACBD
  8
0
  6
BYBLOCK
 62
     0
 10
0.0
 20
0.0
 30
0.0
 11
-1.0
 21
0.1666666667
 31
0.0
 12
-1.0
 22
-0.1666666667
 32
0.0
 13
-1.0
 23
-0.1666666667
 33
0.0
  0
ENDBLK
  5
ACBE
  8
0
  6
BYBLOCK
 62
     0
  0
ENDSEC
  0
SECTION
  2
ENTITIES
  0
ATTDEF
  5
829
  8
DEFPOINTS
 10
576.1782263200493617
 20
209.8909857974755937
 30
0.0
 40
0.001
  1
K-C73053D-ND
  3

  2
MODELNUMBER
 70
     0
1001
ACDBATTR
1070
     0
1070
     1
  0
ATTDEF
  5
82A
  8
DEFPOINTS
 10
576.1782263200493617
 20
209.8893191308089001
 30
0.0
 40
0.001
  1
COMPOSED
  3

  2
TRADENAME
 70
     0
1001
ACDBATTR
1070
     0
1070
     1
  0
ATTDEF
  5
82B
  8
DEFPOINTS
 10
576.1782263200493617
 20
209.8876524641422066
 30
0.0
 40
0.001
  1
BATHROOM SINK FAUCET
  3

  2
PRODUCT
 70
     0
1001
ACDBATTR
1070
     0
1070
     1
  0
LINE
  5
AD12
  8
0
 10
568.3697307802535761
 20
217.8855948815198076
 30
0.0
 11
568.3867877371385475
 21
218.3734927802109098
 31
0.0
  0
LINE
  5
AD13
  8
0
 10
568.4001280398754261
 20
217.8530183867470953
 30
0.0
 11
576.9936297858275793
 21
217.5529297655654091
 31
0.0
  0
LINE
  5
AD14
  8
0
 10
568.4193642319112314
 20
218.4038708530337942
 30
0.0
 11
576.9935349445371457
 21
218.1044505405907046
 31
0.0
  0
ARC
  5
AD15
  8
0
 10
568.4182650208863379
 20
218.3723935692860039
 30
0.0
 40
0.0314964705961094
 50
88.0000000000028422
 51
177.9999999999994884
  0
ARC
  5
AD16
  8
0
 10
568.4063283446923833
 20
217.8892740669703869
 30
0.0
 40
0.0367820354581137
 50
185.7407077918996947
 51
260.2953814822977279
  0
LINE
  5
AD17
  8
0
 10
568.5693026353852702
 20
217.8471107498102981
 30
0.0
 11
568.5634478222577854
 21
217.6794508377828095
 31
0.0
  0
LINE
  5
AD18
  8
0
 10
568.5634478222577854
 20
217.6794508377828095
 30
0.0
 11
568.5811029312802702
 21
217.6684187012486973
 31
0.0
  0
LINE
  5
AD19
  8
0
 10
568.5811029312802702
 20
217.6684187012486973
 30
0.0
 11
569.4876844292782607
 21
217.6358036938821101
 31
0.0
  0
LINE
  5
AD1A
  8
0
 10
569.4876844292782607
 20
217.6358036938821101
 30
0.0
 11
569.5077541154781784
 21
217.6464749353820878
 31
0.0
  0
LINE
  5
AD1B
  8
0
 10
569.5077541154781784
 20
217.6464749353820878
 30
0.0
 11
569.5136089423360772
 21
217.8141352383167941
 31
0.0
  0
LINE
  5
AD1C
  8
0
 10
568.9007293483781496
 20
217.6676727073821951
 30
0.0
 11
568.904454697701226
 21
217.774352754584811
 31
0.0
  0
LINE
  5
AD1D
  8
0
 10
568.904454697701226
 20
217.774352754584811
 30
0.0
 11
569.1741979385445802
 21
217.764933113086812
 31
0.0
  0
LINE
  5
AD1E
  8
0
 10
569.1741979385445802
 20
217.764933113086812
 30
0.0
 11
569.1704725893781642
 21
217.6582530657821053
 31
0.0
  0
LINE
  5
AD1F
  8
0
 10
569.1704725893781642
 20
217.6582530657821053
 30
0.0
 11
569.5077541154727214
 21
217.6464749352224999
 31
0.0
  0
LINE
  5
AD20
  8
0
 10
568.9007293483781496
 20
217.6676727073821951
 30
0.0
 11
568.5634478222577854
 21
217.6794508377828095
 31
0.0
  0
ARC
  5
AD21
  8
0
 10
569.0633656608467845
 20
218.4580396520298962
 30
0.0
 40
0.806926562756063
 50
258.3723674167931108
 51
265.9683815055367972
  0
ARC
  5
AD22
  8
0
 10
569.0633656608467845
 20
218.4580396520298962
 30
0.0
 40
0.806926562756063
 50
269.9108710372034921
 51
277.6276326531487939
  0
ARC
  5
AD23
  8
0
 10
569.0235253650306504
 20
217.3171628345695865
 30
0.0
 40
0.4724409452711975
 50
71.4021578893757294
 51
104.5978421326255017
  0
LINE
  5
AD24
  8
0
 10
576.0121129275461271
 20
218.7718696663629032
 30
0.0
 11
576.0121129275461271
 21
221.2267550837192118
 31
0.0
  0
LINE
  5
AD25
  8
0
 10
576.3428215889460944
 20
221.2267550837192118
 30
0.0
 11
576.3428215889460944
 21
218.7718696663629032
 31
0.0
  0
ARC
  5
AD26
  8
0
 10
576.0307670634700798
 20
218.7726634125089902
 30
0.0
 40
0.0186710155057832
 50
182.4365045408993922
 51
254.9207367941874907
  0
ARC
  5
AD27
  8
0
 10
576.0435442907891002
 20
221.2233823472128904
 30
0.0
 40
0.0316118007532011
 50
98.6413308730586209
 51
173.8753226067200046
  0
ARC
  5
AD28
  8
0
 10
576.3244871770112923
 20
218.7727406538745925
 30
0.0
 40
0.0183550886742982
 50
279.4621879753343023
 51
357.2801735563284069
  0
ARC
  5
AD29
  8
0
 10
576.3115946344225904
 20
221.2242586708437955
 30
0.0
 40
0.0313265824190809
 50
4.5707426084682421
 51
75.853919563533438
  0
LINE
  5
AD2A
  8
0
 10
576.0888845810461589
 20
218.4357376610653887
 30
0.0
 11
576.0888845810461589
 21
218.7349502594653927
 31
0.0
  0
LINE
  5
AD2B
  8
0
 10
576.2660499353461319
 20
218.4357376610653887
 30
0.0
 11
576.2660499353461319
 21
218.7349502594653927
 31
0.0
  0
ARC
  5
AD2C
  8
0
 10
576.0691190477093642
 20
218.4355462044034937
 30
0.0
 40
0.0197664605769099
 50
279.5314330266439242
 51
0.5549719015362965
  0
ARC
  5
AD2D
  8
0
 10
576.2858374688438516
 20
218.4353804744490049
 30
0.0
 40
0.0197907570397432
 50
178.9658608417065011
 51
257.5834146946743886
  0
ARC
  5
AD2E
  8
0
 10
576.2855832776963325
 20
218.7351277629882986
 30
0.0
 40
0.0195341488392358
 50
92.9911370412668248
 51
180.520644270844798
  0
ARC
  5
AD2F
  8
0
 10
576.0692296808729225
 20
218.7350470546386987
 30
0.0
 40
0.0196551385170743
 50
359.7178357544883056
 51
85.2715657796081103
  0
LINE
  5
AD30
  8
0
 10
576.0199869432460673
 20
218.3983776681654092
 30
0.0
 11
576.0199869432460673
 21
218.406210102065387
 31
0.0
  0
LINE
  5
AD31
  8
0
 10
576.3349475731461098
 20
218.3983776681654092
 30
0.0
 11
576.3349475731461098
 21
218.406210102065387
 31
0.0
  0
LINE
  5
AD32
  8
0
 10
576.0285266417082539
 20
218.4160526216653864
 30
0.0
 11
576.3261591055631925
 21
218.4160526216653864
 31
0.0
  0
LINE
  5
AD33
  8
0
 10
576.0387946634493801
 20
221.2546352988653098
 30
0.0
 11
576.3192506932064134
 21
221.2546352988653098
 31
0.0
  0
LINE
  5
AD34
  8
0
 10
576.0259097042627445
 20
218.754635298865395
 30
0.0
 11
576.3275046925839433
 21
218.754635298865395
 31
0.0
  0
ARC
  5
AD35
  8
0
 10
576.0298597461095369
 20
218.4062700523163869
 30
0.0
 40
0.0098729848785519
 50
97.7600925668860583
 51
180.3479107397859025
  0
ARC
  5
AD36
  8
0
 10
576.3250835981923501
 20
218.4062473845052921
 30
0.0
 40
0.0098640454109388
 50
359.7834426486625716
 51
83.7404194265999138
  0
LINE
  5
AD37
  8
0
 10
576.0119232751211484
 20
218.3983776681654092
 30
0.0
 11
576.3430211841547361
 21
218.3983776681654092
 31
0.0
  0
ARC
  5
AD38
  8
0
 10
576.1773235568332439
 20
218.2546768207355115
 30
0.0
 40
0.220335905287629
 50
139.7699465599914106
 51
187.99845870804171
  0
ARC
  5
AD39
  8
0
 10
576.1774672560613908
 20
218.2546352984265923
 30
0.0
 40
0.2204724429460726
 50
348.0186054438427163
 51
40.2141707485956772
  0
ARC
  5
AD3A
  8
0
 10
576.3428128357570586
 20
218.3944373271575898
 30
0.0
 40
0.0039458454496181
 50
40.1690772325305119
 51
86.973262633382376
  0
ARC
  5
AD3B
  8
0
 10
576.0121207683347393
 20
218.3944377201707994
 30
0.0
 40
0.0039448946460962
 50
92.8695974573314658
 51
139.8266801279374079
  0
ARC
  5
AD3C
  8
0
 10
575.9436792926547923
 20
218.2166534000658942
 30
0.0
 40
0.007904372345841
 50
90.0979325710576404
 51
192.1973671319261996
  0
ARC
  5
AD3D
  8
0
 10
575.6833454048381782
 20
218.204107590968988
 30
0.0
 40
0.0196850393919175
 50
87.9999998817187787
 51
178.0000000097485895
  0
ARC
  5
AD3E
  8
0
 10
575.6709945295793887
 20
218.188782305709907
 30
0.0
 40
0.0078765327867055
 50
178.0075841742408045
 51
269.1086104881886172
  0
ARC
  5
AD3F
  8
0
 10
575.6705971947567377
 20
218.1730375070366961
 30
0.0
 40
0.0078740157283009
 50
88.0000000847531254
 51
177.4999997196779873
  0
LINE
  5
AD40
  8
0
 10
575.6631227586473187
 20
218.1890561507987911
 30
0.0
 11
575.663672357040241
 21
218.2047945889329981
 31
0.0
  0
LINE
  5
AD41
  8
0
 10
575.6619548621459899
 20
218.1556119694654114
 30
0.0
 11
575.6627306733482783
 21
218.173380966817291
 31
0.0
  0
LINE
  5
AD42
  8
0
 10
575.6840324028461282
 20
218.2237806387653904
 30
0.0
 11
576.6676847915459803
 21
218.1894307404652977
 31
0.0
  0
LINE
  5
AD43
  8
0
 10
575.6708719939979346
 20
218.1809067261266932
 30
0.0
 11
576.6778224094309735
 21
218.1457432427276899
 31
0.0
  0
LINE
  5
AD44
  8
0
 10
576.6849533464461501
 20
218.1198880752654077
 30
0.0
 11
575.6619548621459899
 21
218.1556119694654114
 31
0.0
  0
ARC
  5
AD45
  8
0
 10
576.6669977936602436
 20
218.1697576926706859
 30
0.0
 40
0.019685039385959
 50
357.9999998883147896
 51
88.0000000423747082
  0
ARC
  5
AD46
  8
0
 10
576.6782495448195505
 20
218.1536081855232112
 30
0.0
 40
0.007876532854998
 50
266.8913903714160938
 51
357.9924154204244928
  0
ARC
  5
AD47
  8
0
 10
576.6775476102460516
 20
218.1378740236652902
 30
0.0
 40
0.0078740157000207
 50
0.000000000058624
 51
88.0000000042458908
  0
LINE
  5
AD48
  8
0
 10
576.6849533464461501
 20
218.1198880752654077
 30
0.0
 11
576.6854216259461055
 21
218.1378740236652902
 31
0.0
  0
LINE
  5
AD49
  8
0
 10
576.6861212430461592
 20
218.1533322564681043
 30
0.0
 11
576.6866708414504501
 21
218.1690706946575062
 31
0.0
  0
LINE
  5
AD4A
  8
0
 10
575.9436657821461267
 20
218.2245577608653946
 30
0.0
 11
576.4084636110309248
 21
218.2083314626277115
 31
0.0
  0
ARC
  5
AD4B
  8
0
 10
576.4081739392031523
 20
218.2004330544598929
 30
0.0
 40
0.0079037182361358
 50
343.8002011967340081
 51
87.8996351615972458
  0
ARC
  5
AD4C
  8
0
 10
575.7017818562460434
 20
218.1680091070653873
 30
0.0
 40
0.0196850394000016
 50
222.4270042714786939
 51
247.4936977889655907
  0
ARC
  5
AD4D
  8
0
 10
576.6460881495460171
 20
218.1350332046654046
 30
0.0
 40
0.0196850394000043
 50
288.5023493873600842
 51
313.5729959717755833
  0
LINE
  5
AD4E
  8
0
 10
575.1735302503459479
 20
210.0323650938703963
 30
0.0
 11
575.1735302503459479
 21
209.8924545722653079
 31
0.0
  0
LINE
  5
AD4F
  8
0
 10
577.1814042661460462
 20
210.0331474849461131
 30
0.0
 11
577.1814042661460462
 21
209.8924545722653079
 31
0.0
  0
LINE
  5
AD50
  8
0
 10
577.1814042661460462
 20
209.8924545722653079
 30
0.0
 11
575.1735302503459479
 21
209.8924545722653079
 31
0.0
  0
LINE
  5
AD51
  8
0
 10
577.1638076577637548
 20
210.0499348872652945
 30
0.0
 11
575.1929091234884481
 21
210.0499348872652945
 31
0.0
  0
ARC
  5
AD52
  8
0
 10
575.1931421019379513
 20
210.0302059107127945
 30
0.0
 40
0.0197303521197262
 50
90.6765714069427844
 51
173.7172763276848002
  0
ARC
  5
AD53
  8
0
 10
577.1618160663213075
 20
210.0302311832631119
 30
0.0
 40
0.0198041002795079
 50
8.4680261572365101
 51
84.2283163704767759
  0
LINE
  5
AD54
  8
0
 10
575.3310105653461051
 20
217.5785438233716889
 30
0.0
 11
575.3310105653461051
 21
210.0791633074850893
 31
0.0
  0
ARC
  5
AD55
  8
0
 10
575.36252020361826
 20
210.0813807664887918
 30
0.0
 40
0.0315875676252697
 50
184.0254960107430122
 51
264.5711335179670982
  0
LINE
  5
AD56
  8
0
 10
577.0239239511461165
 20
217.5249111154579964
 30
0.0
 11
577.0239239511461165
 21
210.0791633074850893
 31
0.0
  0
LINE
  5
AD57
  8
0
 10
577.0239239511461165
 20
217.5844886331620103
 30
0.0
 11
577.0239239511461165
 21
218.0709791038696039
 31
0.0
  0
ARC
  5
AD58
  8
0
 10
576.9924143128738478
 20
210.0813807664887918
 30
0.0
 40
0.0315875676252697
 50
275.4288664820330155
 51
355.9745039892570162
  0
ARC
  5
AD59
  8
0
 10
576.9926619755608499
 20
217.5214967877475942
 30
0.0
 40
0.0314478735562055
 50
6.2329476913327326
 51
88.236440364170619
  0
ARC
  5
AD5A
  8
0
 10
576.9921930477651131
 20
217.5846284336332985
 30
0.0
 40
0.031731211346909
 50
272.595147717652992
 51
359.7475670623392716
  0
ARC
  5
AD5B
  8
0
 10
576.983467444529083
 20
218.0647792311465878
 30
0.0
 40
0.040928808306945
 50
8.7126716681381762
 51
75.7604869408501997
  0
ARC
  5
AD5C
  8
0
 10
575.3683326629317207
 20
217.5732508735362103
 30
0.0
 40
0.0376955472987722
 50
102.9909341268403011
 51
171.9282469226428987
  0
ENDSEC
  0
EOF
