  0
SECTION
  2
HEADER
  9
$ACADVER
  1
AC1009
  9
$INSBASE
 10
576.1774601351810361
 20
209.8926090629730936
 30
0.0
  9
$EXTMIN
 10
569.548749029138321
 20
209.8876524641422066
 30
0.0
  9
$EXTMAX
 10
577.1814101351569661
 20
214.6620816816194122
 30
0.0
  9
$LIMMIN
 10
0.0
 20
0.0
  9
$LIMMAX
 10
11.6929133858000007
 20
8.2677165353999982
  9
$ORTHOMODE
 70
     0
  9
$REGENMODE
 70
     1
  9
$FILLMODE
 70
     1
  9
$QTEXTMODE
 70
     0
  9
$MIRRTEXT
 70
     0
  9
$DRAGMODE
 70
     2
  9
$LTSCALE
 40
0.6431102362
  9
$OSMODE
 70
  4063
  9
$ATTMODE
 70
     1
  9
$TEXTSIZE
 40
0.2
  9
$TRACEWID
 40
0.05
  9
$TEXTSTYLE
  7
STANDARD
  9
$CLAYER
  8
0
  9
$CELTYPE
  6
BYLAYER
  9
$CECOLOR
 62
   256
  9
$DIMSCALE
 40
1.0
  9
$DIMASZ
 40
0.1875
  9
$DIMEXO
 40
0.0625
  9
$DIMDLI
 40
0.4443307087
  9
$DIMRND
 40
0.0
  9
$DIMDLE
 40
0.0
  9
$DIMEXE
 40
0.125
  9
$DIMTP
 40
0.01
  9
$DIMTM
 40
0.01
  9
$DIMTXT
 40
1.0
  9
$DIMCEN
 40
0.1052362205
  9
$DIMTSZ
 40
0.0
  9
$DIMTOL
 70
     1
  9
$DIMLIM
 70
     0
  9
$DIMTIH
 70
     0
  9
$DIMTOH
 70
     1
  9
$DIMSE1
 70
     0
  9
$DIMSE2
 70
     0
  9
$DIMTAD
 70
     0
  9
$DIMZIN
 70
     0
  9
$DIMBLK
  1

  9
$DIMASO
 70
     1
  9
$DIMSHO
 70
     1
  9
$DIMPOST
  1
\X
  9
$DIMAPOST
  1

  9
$DIMALT
 70
     1
  9
$DIMALTD
 70
     2
  9
$DIMALTF
 40
25.3999999999999986
  9
$DIMLFAC
 40
1.0
  9
$DIMTOFL
 70
     0
  9
$DIMTVP
 40
0.0
  9
$DIMTIX
 70
     0
  9
$DIMSOXD
 70
     0
  9
$DIMSAH
 70
     0
  9
$DIMBLK1
  1

  9
$DIMBLK2
  1

  9
$DIMSTYLE
  2
STANDARD
  9
$DIMCLRD
 70
     0
  9
$DIMCLRE
 70
     0
  9
$DIMCLRT
 70
     0
  9
$DIMTFAC
 40
1.0
  9
$DIMGAP
 40
0.09
  9
$LUNITS
 70
     2
  9
$LUPREC
 70
     4
  9
$SKETCHINC
 40
0.1
  9
$FILLETRAD
 40
0.0
  9
$AUNITS
 70
     0
  9
$AUPREC
 70
     0
  9
$MENU
  1
.
  9
$ELEVATION
 40
0.0
  9
$PELEVATION
 40
0.0
  9
$THICKNESS
 40
0.0
  9
$LIMCHECK
 70
     0
  9
$BLIPMODE
 70
     0
  9
$CHAMFERA
 40
0.0
  9
$CHAMFERB
 40
0.0
  9
$SKPOLY
 70
     0
  9
$TDCREATE
 40
2458172.5207638889551163
  9
$TDUPDATE
 40
2459508.4397222218103707
  9
$TDINDWG
 40
0.6112947801
  9
$TDUSRTIMER
 40
0.6112947801
  9
$USRTIMER
 70
     1
  9
$ANGBASE
 50
0.0
  9
$ANGDIR
 70
     0
  9
$PDMODE
 70
     0
  9
$PDSIZE
 40
0.3125
  9
$PLINEWID
 40
0.0
  9
$COORDS
 70
     1
  9
$SPLFRAME
 70
     0
  9
$SPLINETYPE
 70
     6
  9
$SPLINESEGS
 70
     8
  9
$ATTDIA
 70
     1
  9
$ATTREQ
 70
     1
  9
$HANDLING
 70
     1
  9
$HANDSEED
  5
B736
  9
$SURFTAB1
 70
     6
  9
$SURFTAB2
 70
     6
  9
$SURFTYPE
 70
     6
  9
$SURFU
 70
     6
  9
$SURFV
 70
     6
  9
$UCSNAME
  2

  9
$UCSORG
 10
0.0
 20
0.0
 30
0.0
  9
$UCSXDIR
 10
1.0
 20
0.0
 30
0.0
  9
$UCSYDIR
 10
0.0
 20
1.0
 30
0.0
  9
$PUCSNAME
  2

  9
$PUCSORG
 10
0.0
 20
0.0
 30
0.0
  9
$PUCSXDIR
 10
1.0
 20
0.0
 30
0.0
  9
$PUCSYDIR
 10
0.0
 20
1.0
 30
0.0
  9
$USERI1
 70
     0
  9
$USERI2
 70
     0
  9
$USERI3
 70
     0
  9
$USERI4
 70
     0
  9
$USERI5
 70
     0
  9
$USERR1
 40
0.0
  9
$USERR2
 40
0.0
  9
$USERR3
 40
0.0
  9
$USERR4
 40
0.0
  9
$USERR5
 40
0.0
  9
$WORLDVIEW
 70
     1
  9
$SHADEDGE
 70
     3
  9
$SHADEDIF
 70
    70
  9
$TILEMODE
 70
     1
  9
$MAXACTVP
 70
    64
  9
$PLIMCHECK
 70
     0
  9
$PEXTMIN
 10
1.0000000000000000E+20
 20
1.0000000000000000E+20
 30
1.0000000000000000E+20
  9
$PEXTMAX
 10
-1.0000000000000000E+20
 20
-1.0000000000000000E+20
 30
-1.0000000000000000E+20
  9
$PLIMMIN
 10
0.0
 20
0.0
  9
$PLIMMAX
 10
12.0
 20
9.0
  9
$UNITMODE
 70
     0
  9
$VISRETAIN
 70
     1
  9
$PLINEGEN
 70
     0
  9
$PSLTSCALE
 70
     1
  0
ENDSEC
  0
SECTION
  2
TABLES
  0
TABLE
  2
VPORT
 70
     1
  0
VPORT
  2
*ACTIVE
 70
     0
 10
0.0
 20
0.0
 11
1.0
 21
1.0
 12
70.7313932479280822
 22
122.5367314614954068
 13
0.0
 23
0.0
 14
1.0
 24
1.0
 15
0.0
 25
0.0
 16
0.0
 26
0.0
 36
15.0514596368723108
 17
502.6320285006868858
 27
89.8960179397507062
 37
0.0
 40
4.9260685350578006
 41
2.0416141235813359
 42
50.0
 43
0.0
 44
0.0
 50
0.0
 51
0.0
 71
     0
 72
   100
 73
     1
 74
     1
 75
     0
 76
     0
 77
     0
 78
     0
  0
ENDTAB
  0
TABLE
  2
LTYPE
 70
     2
  0
LTYPE
  2
CONTINUOUS
 70
     0
  3
Solid line
 72
    65
 73
     0
 40
0.0
  0
LTYPE
  2
PHANTOM2
 70
     0
  3
___ _ _ ___ _ _ ___ _ _ ___ _ _
 72
    65
 73
     6
 40
1.25
 49
0.625
 49
-0.125
 49
0.125
 49
-0.125
 49
0.125
 49
-0.125
  0
ENDTAB
  0
TABLE
  2
LAYER
 70
     2
  0
LAYER
  2
0
 70
     0
 62
   255
  6
CONTINUOUS
  0
LAYER
  2
DEFPOINTS
 70
     0
 62
     7
  6
CONTINUOUS
  0
ENDTAB
  0
TABLE
  2
STYLE
 70
     1
  0
STYLE
  2
STANDARD
 70
     0
 40
0.0
 41
0.8
 50
0.0
 71
     0
 42
0.2
  3
txt
  4

  0
ENDTAB
  0
TABLE
  2
VIEW
 70
     0
  0
ENDTAB
  0
TABLE
  2
UCS
 70
     0
  0
ENDTAB
  0
TABLE
  2
APPID
 70
    10
  0
APPID
  2
ACAD
 70
     0
  0
APPID
  2
ACAD_MLEADERVER
 70
     0
  0
APPID
  2
ACAD_EXEMPT_FROM_CAD_STANDARDS
 70
     0
  0
APPID
  2
ACAD_DSTYLE_DIMJAG
 70
     0
  0
APPID
  2
ACAD_DSTYLE_DIMTALN
 70
     0
  0
APPID
  2
ACAD_NAV_VCDISPLAY
 70
     0
  0
APPID
  2
ACAECLAYERSTANDARD
 70
     0
  0
APPID
  2
ACCMTRANSPARENCY
 70
     0
  0
APPID
  2
DCO15
 70
     0
  0
APPID
  2
ACDBATTR
 70
     0
  0
ENDTAB
  0
TABLE
  2
DIMSTYLE
 70
     1
  0
DIMSTYLE
  2
STANDARD
 70
     0
  3

  4

  5

  6

  7

 40
1.0
 41
0.1875
 42
0.0625
 43
0.38
 44
0.125
 45
0.0
 46
0.0
 47
0.01
 48
0.01
140
0.15625
141
0.09
142
0.0
143
25.3999999999999986
144
1.0
145
0.0
146
1.0
147
0.09
 71
     1
 72
     0
 73
     1
 74
     1
 75
     0
 76
     0
 77
     0
 78
     4
170
     0
171
     2
172
     0
173
     0
174
     0
175
     0
176
     0
177
     0
178
     0
  0
ENDTAB
  0
ENDSEC
  0
SECTION
  2
BLOCKS
  0
BLOCK
  8
0
  2
$MODEL_SPACE
 70
     0
 10
0.0
 20
0.0
 30
0.0
  3
$MODEL_SPACE
  1

  0
ENDBLK
  5
21
  8
0
  0
BLOCK
 67
     1
  8
0
  2
$PAPER_SPACE
 70
     0
 10
0.0
 20
0.0
 30
0.0
  3
$PAPER_SPACE
  1

  0
ENDBLK
  5
1D
 67
     1
  8
0
  0
BLOCK
  8
0
  2
_FILLED
 70
     0
 10
0.0
 20
0.0
 30
0.0
  3
_FILLED
  1

  0
SOLID
  5
B5DB
  8
0
  6
BYBLOCK
 62
     0
 10
0.0
 20
0.0
 30
0.0
 11
-1.0
 21
0.1666666667
 31
0.0
 12
-1.0
 22
-0.1666666667
 32
0.0
 13
-1.0
 23
-0.1666666667
 33
0.0
  0
ENDBLK
  5
B5DC
  8
0
  6
BYBLOCK
 62
     0
  0
ENDSEC
  0
SECTION
  2
ENTITIES
  0
ATTDEF
  5
829
  8
DEFPOINTS
 10
576.1782263200493617
 20
209.8909857974755937
 30
0.0
 40
0.001
  1
K-C73050D-ND
  3

  2
MODELNUMBER
 70
     0
1001
ACDBATTR
1070
     0
1070
     1
  0
ATTDEF
  5
82A
  8
DEFPOINTS
 10
576.1782263200493617
 20
209.8893191308089001
 30
0.0
 40
0.001
  1
COMPOSED
  3

  2
TRADENAME
 70
     0
1001
ACDBATTR
1070
     0
1070
     1
  0
ATTDEF
  5
82B
  8
DEFPOINTS
 10
576.1782263200493617
 20
209.8876524641422066
 30
0.0
 40
0.001
  1
BATHROOM SINK FAUCET
  3

  2
PRODUCT
 70
     0
1001
ACDBATTR
1070
     0
1070
     1
  0
LINE
  5
B608
  8
0
 10
569.5487490291877748
 20
214.1437865232572051
 30
0.0
 11
569.5658059860726325
 21
214.6316844219481936
 31
0.0
  0
LINE
  5
B609
  8
0
 10
575.1735101352051061
 20
210.0304061218060951
 30
0.0
 11
575.1735101352051061
 21
209.8926090629730936
 31
0.0
  0
LINE
  5
B60A
  8
0
 10
575.488496749257024
 20
213.8723902678895001
 30
0.0
 11
575.488496749257024
 21
210.0815878865498121
 31
0.0
  0
LINE
  5
B60B
  8
0
 10
575.1735101352051061
 20
209.8926090629730936
 30
0.0
 11
577.1814101351568524
 21
209.8926090629730936
 31
0.0
  0
LINE
  5
B60C
  8
0
 10
577.1617248410093453
 20
210.0500914159536876
 30
0.0
 11
575.1931954292525688
 21
210.0500914159536876
 31
0.0
  0
LINE
  5
B60D
  8
0
 10
576.8664495052570373
 20
210.0815878865498121
 30
0.0
 11
576.8664495052570373
 21
213.8263935421960866
 31
0.0
  0
LINE
  5
B60E
  8
0
 10
576.8675317615818585
 20
213.8893456428288005
 30
0.0
 11
576.8670623366820109
 21
214.3778456303288067
 31
0.0
  0
LINE
  5
B60F
  8
0
 10
577.1814101351568524
 20
210.0304061218060951
 30
0.0
 11
577.1814101351568524
 21
209.8926090629730936
 31
0.0
  0
LINE
  5
B610
  8
0
 10
569.5791462888093974
 20
214.1112100284844075
 30
0.0
 11
576.8369219003940316
 21
213.8578311162841885
 31
0.0
  0
LINE
  5
B611
  8
0
 10
569.5983824808453164
 20
214.6620624947711065
 30
0.0
 11
576.8374400953035774
 21
214.4092674970331132
 31
0.0
  0
ARC
  5
B612
  8
0
 10
576.8349530346608844
 20
210.0815878865498121
 30
0.0
 40
0.0314964705961094
 50
270.0
 51
0.0
  0
ARC
  5
B613
  8
0
 10
575.5199932198529496
 20
210.0815878865498121
 30
0.0
 40
0.0314964705961094
 50
180.0
 51
270.0
  0
ARC
  5
B614
  8
0
 10
577.1617248410093453
 20
210.0304061218060951
 30
0.0
 40
0.0196852941475687
 50
0.0
 51
90.0
  0
ARC
  5
B615
  8
0
 10
575.1931954292525688
 20
210.0304061218060951
 30
0.0
 40
0.0196852941475687
 50
90.0
 51
180.0
  0
ARC
  5
B616
  8
0
 10
569.5972832698203092
 20
214.6305852110232877
 30
0.0
 40
0.0314964705961094
 50
88.0000000000028422
 51
177.9999999999994884
  0
ARC
  5
B617
  8
0
 10
569.585346593626582
 20
214.1474657087076992
 30
0.0
 40
0.0367820354581137
 50
185.7407077918996947
 51
260.2953814822977279
  0
ARC
  5
B618
  8
0
 10
575.5224887236728364
 20
213.8696436266068019
 30
0.0
 40
0.0341027618092659
 50
91.0202338167286342
 51
175.3803862128355888
  0
ARC
  5
B619
  8
0
 10
576.8352235261429541
 20
213.8266503012982014
 30
0.0
 40
0.0312270347114401
 50
359.5288896685401028
 51
86.8822640584773893
  0
ARC
  5
B61A
  8
0
 10
576.835862966086097
 20
213.8894824984936065
 30
0.0
 40
0.031669091203171
 50
271.9161831290797977
 51
359.7523997026934239
  0
ARC
  5
B61B
  8
0
 10
576.8355365341473089
 20
214.3777991822099978
 30
0.0
 40
0.0315258367515297
 50
0.0844159082133759
 51
86.5383186037587251
  0
CIRCLE
  5
B61C
  8
0
 10
576.1774731273569614
 20
212.8059948588731061
 30
0.0
 40
0.3195317864000007
  0
CIRCLE
  5
B61D
  8
0
 10
576.1774731273569614
 20
212.8059948588731061
 30
0.0
 40
0.5810888271000004
  0
CIRCLE
  5
B61E
  8
0
 10
576.1774731273569614
 20
212.8059948588731061
 30
0.0
 40
0.669291338599999
  0
LINE
  5
B61F
  8
0
 10
569.7483209373173167
 20
214.1053039092124948
 30
0.0
 11
569.7424660711917568
 21
213.937642479520207
 31
0.0
  0
LINE
  5
B620
  8
0
 10
569.7424660711917568
 20
213.937642479520207
 30
0.0
 11
569.7617424805123392
 21
213.925597242119494
 31
0.0
  0
LINE
  5
B621
  8
0
 10
569.7617424805123392
 20
213.925597242119494
 30
0.0
 11
570.6667026782123457
 21
213.8939953356195076
 31
0.0
  0
LINE
  5
B622
  8
0
 10
570.6667026782123457
 20
213.8939953356195076
 30
0.0
 11
570.6867723644123771
 21
213.9046665771194
 31
0.0
  0
LINE
  5
B623
  8
0
 10
570.6867723644123771
 20
213.9046665771194
 30
0.0
 11
570.692627540094918
 21
214.0723368690889004
 31
0.0
  0
LINE
  5
B624
  8
0
 10
570.0797475973123483
 20
213.9258643491193936
 30
0.0
 11
570.083472946635311
 21
214.0325443963220948
 31
0.0
  0
LINE
  5
B625
  8
0
 10
570.083472946635311
 20
214.0325443963220948
 30
0.0
 11
570.3532161874787789
 21
214.0231247548240958
 31
0.0
  0
LINE
  5
B626
  8
0
 10
570.3532161874787789
 20
214.0231247548240958
 30
0.0
 11
570.3494908383122493
 21
213.9164447075195028
 31
0.0
  0
LINE
  5
B627
  8
0
 10
570.3494908383122493
 20
213.9164447075195028
 30
0.0
 11
570.6867723644068064
 21
213.9046665769598121
 31
0.0
  0
LINE
  5
B628
  8
0
 10
570.0797475973123483
 20
213.9258643491193936
 30
0.0
 11
569.7424660711917568
 21
213.937642479520207
 31
0.0
  0
ARC
  5
B629
  8
0
 10
570.2423839097809832
 20
214.7162312937672084
 30
0.0
 40
0.806926562756063
 50
258.3723674167931108
 51
277.6276326531487939
  0
ARC
  5
B62A
  8
0
 10
570.2025436139648491
 20
213.5753544763068987
 30
0.0
 40
0.4724409452711975
 50
71.4021578893757294
 51
104.5978421326255017
  0
ENDSEC
  0
EOF
