  0
SECTION
  2
HEADER
  9
$ACADVER
  1
AC1009
  9
$INSBASE
 10
576.176627420482987
 20
209.8926987050872981
 30
0.0
  9
$EXTMIN
 10
575.1726774204070125
 20
209.8876524641422066
 30
0.0
  9
$EXTMAX
 10
579.045525058432986
 20
214.6621713237873053
 30
0.0
  9
$LIMMIN
 10
0.0
 20
0.0
  9
$LIMMAX
 10
11.6929133858000007
 20
8.2677165353999982
  9
$ORTHOMODE
 70
     0
  9
$REGENMODE
 70
     1
  9
$FILLMODE
 70
     1
  9
$QTEXTMODE
 70
     0
  9
$MIRRTEXT
 70
     0
  9
$DRAGMODE
 70
     2
  9
$LTSCALE
 40
0.6431102362
  9
$OSMODE
 70
  4063
  9
$ATTMODE
 70
     1
  9
$TEXTSIZE
 40
0.2
  9
$TRACEWID
 40
0.05
  9
$TEXTSTYLE
  7
STANDARD
  9
$CLAYER
  8
0
  9
$CELTYPE
  6
BYLAYER
  9
$CECOLOR
 62
   256
  9
$DIMSCALE
 40
1.0
  9
$DIMASZ
 40
0.1875
  9
$DIMEXO
 40
0.0625
  9
$DIMDLI
 40
0.4443307087
  9
$DIMRND
 40
0.0
  9
$DIMDLE
 40
0.0
  9
$DIMEXE
 40
0.125
  9
$DIMTP
 40
0.01
  9
$DIMTM
 40
0.01
  9
$DIMTXT
 40
1.0
  9
$DIMCEN
 40
0.1052362205
  9
$DIMTSZ
 40
0.0
  9
$DIMTOL
 70
     1
  9
$DIMLIM
 70
     0
  9
$DIMTIH
 70
     0
  9
$DIMTOH
 70
     1
  9
$DIMSE1
 70
     0
  9
$DIMSE2
 70
     0
  9
$DIMTAD
 70
     0
  9
$DIMZIN
 70
     0
  9
$DIMBLK
  1

  9
$DIMASO
 70
     1
  9
$DIMSHO
 70
     1
  9
$DIMPOST
  1
\X
  9
$DIMAPOST
  1

  9
$DIMALT
 70
     1
  9
$DIMALTD
 70
     2
  9
$DIMALTF
 40
25.3999999999999986
  9
$DIMLFAC
 40
1.0
  9
$DIMTOFL
 70
     0
  9
$DIMTVP
 40
0.0
  9
$DIMTIX
 70
     0
  9
$DIMSOXD
 70
     0
  9
$DIMSAH
 70
     0
  9
$DIMBLK1
  1

  9
$DIMBLK2
  1

  9
$DIMSTYLE
  2
STANDARD
  9
$DIMCLRD
 70
     0
  9
$DIMCLRE
 70
     0
  9
$DIMCLRT
 70
     0
  9
$DIMTFAC
 40
1.0
  9
$DIMGAP
 40
0.09
  9
$LUNITS
 70
     2
  9
$LUPREC
 70
     4
  9
$SKETCHINC
 40
0.1
  9
$FILLETRAD
 40
0.0
  9
$AUNITS
 70
     0
  9
$AUPREC
 70
     0
  9
$MENU
  1
.
  9
$ELEVATION
 40
0.0
  9
$PELEVATION
 40
0.0
  9
$THICKNESS
 40
0.0
  9
$LIMCHECK
 70
     0
  9
$BLIPMODE
 70
     0
  9
$CHAMFERA
 40
0.0
  9
$CHAMFERB
 40
0.0
  9
$SKPOLY
 70
     0
  9
$TDCREATE
 40
2458172.5207638889551163
  9
$TDUPDATE
 40
2459508.4395486111752689
  9
$TDINDWG
 40
0.6204035764
  9
$TDUSRTIMER
 40
0.6204035764
  9
$USRTIMER
 70
     1
  9
$ANGBASE
 50
0.0
  9
$ANGDIR
 70
     0
  9
$PDMODE
 70
     0
  9
$PDSIZE
 40
0.3125
  9
$PLINEWID
 40
0.0
  9
$COORDS
 70
     1
  9
$SPLFRAME
 70
     0
  9
$SPLINETYPE
 70
     6
  9
$SPLINESEGS
 70
     8
  9
$ATTDIA
 70
     1
  9
$ATTREQ
 70
     1
  9
$HANDLING
 70
     1
  9
$HANDSEED
  5
C0C3
  9
$SURFTAB1
 70
     6
  9
$SURFTAB2
 70
     6
  9
$SURFTYPE
 70
     6
  9
$SURFU
 70
     6
  9
$SURFV
 70
     6
  9
$UCSNAME
  2

  9
$UCSORG
 10
0.0
 20
0.0
 30
0.0
  9
$UCSXDIR
 10
1.0
 20
0.0
 30
0.0
  9
$UCSYDIR
 10
0.0
 20
1.0
 30
0.0
  9
$PUCSNAME
  2

  9
$PUCSORG
 10
0.0
 20
0.0
 30
0.0
  9
$PUCSXDIR
 10
1.0
 20
0.0
 30
0.0
  9
$PUCSYDIR
 10
0.0
 20
1.0
 30
0.0
  9
$USERI1
 70
     0
  9
$USERI2
 70
     0
  9
$USERI3
 70
     0
  9
$USERI4
 70
     0
  9
$USERI5
 70
     0
  9
$USERR1
 40
0.0
  9
$USERR2
 40
0.0
  9
$USERR3
 40
0.0
  9
$USERR4
 40
0.0
  9
$USERR5
 40
0.0
  9
$WORLDVIEW
 70
     1
  9
$SHADEDGE
 70
     3
  9
$SHADEDIF
 70
    70
  9
$TILEMODE
 70
     1
  9
$MAXACTVP
 70
    64
  9
$PLIMCHECK
 70
     0
  9
$PEXTMIN
 10
1.0000000000000000E+20
 20
1.0000000000000000E+20
 30
1.0000000000000000E+20
  9
$PEXTMAX
 10
-1.0000000000000000E+20
 20
-1.0000000000000000E+20
 30
-1.0000000000000000E+20
  9
$PLIMMIN
 10
0.0
 20
0.0
  9
$PLIMMAX
 10
12.0
 20
9.0
  9
$UNITMODE
 70
     0
  9
$VISRETAIN
 70
     1
  9
$PLINEGEN
 70
     0
  9
$PSLTSCALE
 70
     1
  0
ENDSEC
  0
SECTION
  2
TABLES
  0
TABLE
  2
VPORT
 70
     1
  0
VPORT
  2
*ACTIVE
 70
     0
 10
0.0
 20
0.0
 11
1.0
 21
1.0
 12
74.4828760539430732
 22
122.4251655584808987
 13
0.0
 23
0.0
 14
1.0
 24
1.0
 15
0.0
 25
0.0
 16
0.0
 26
0.0
 36
15.0514596368723108
 17
502.6320285006868858
 27
89.8960179397507062
 37
0.0
 40
4.9279771347713979
 41
2.0416141235813359
 42
50.0
 43
0.0
 44
0.0
 50
0.0
 51
0.0
 71
     0
 72
   100
 73
     1
 74
     1
 75
     0
 76
     0
 77
     0
 78
     0
  0
ENDTAB
  0
TABLE
  2
LTYPE
 70
     2
  0
LTYPE
  2
CONTINUOUS
 70
     0
  3
Solid line
 72
    65
 73
     0
 40
0.0
  0
LTYPE
  2
PHANTOM2
 70
     0
  3
___ _ _ ___ _ _ ___ _ _ ___ _ _
 72
    65
 73
     6
 40
1.25
 49
0.625
 49
-0.125
 49
0.125
 49
-0.125
 49
0.125
 49
-0.125
  0
ENDTAB
  0
TABLE
  2
LAYER
 70
     2
  0
LAYER
  2
0
 70
     0
 62
   255
  6
CONTINUOUS
  0
LAYER
  2
DEFPOINTS
 70
     0
 62
     7
  6
CONTINUOUS
  0
ENDTAB
  0
TABLE
  2
STYLE
 70
     1
  0
STYLE
  2
STANDARD
 70
     0
 40
0.0
 41
0.8
 50
0.0
 71
     0
 42
0.2
  3
txt
  4

  0
ENDTAB
  0
TABLE
  2
VIEW
 70
     0
  0
ENDTAB
  0
TABLE
  2
UCS
 70
     0
  0
ENDTAB
  0
TABLE
  2
APPID
 70
    10
  0
APPID
  2
ACAD
 70
     0
  0
APPID
  2
ACAD_MLEADERVER
 70
     0
  0
APPID
  2
ACAD_EXEMPT_FROM_CAD_STANDARDS
 70
     0
  0
APPID
  2
ACAD_DSTYLE_DIMJAG
 70
     0
  0
APPID
  2
ACAD_DSTYLE_DIMTALN
 70
     0
  0
APPID
  2
ACAD_NAV_VCDISPLAY
 70
     0
  0
APPID
  2
ACAECLAYERSTANDARD
 70
     0
  0
APPID
  2
ACCMTRANSPARENCY
 70
     0
  0
APPID
  2
DCO15
 70
     0
  0
APPID
  2
ACDBATTR
 70
     0
  0
ENDTAB
  0
TABLE
  2
DIMSTYLE
 70
     1
  0
DIMSTYLE
  2
STANDARD
 70
     0
  3

  4

  5

  6

  7

 40
1.0
 41
0.1875
 42
0.0625
 43
0.38
 44
0.125
 45
0.0
 46
0.0
 47
0.01
 48
0.01
140
0.15625
141
0.09
142
0.0
143
25.3999999999999986
144
1.0
145
0.0
146
1.0
147
0.09
 71
     1
 72
     0
 73
     1
 74
     1
 75
     0
 76
     0
 77
     0
 78
     4
170
     0
171
     2
172
     0
173
     0
174
     0
175
     0
176
     0
177
     0
178
     0
  0
ENDTAB
  0
ENDSEC
  0
SECTION
  2
BLOCKS
  0
BLOCK
  8
0
  2
$MODEL_SPACE
 70
     0
 10
0.0
 20
0.0
 30
0.0
  3
$MODEL_SPACE
  1

  0
ENDBLK
  5
21
  8
0
  0
BLOCK
 67
     1
  8
0
  2
$PAPER_SPACE
 70
     0
 10
0.0
 20
0.0
 30
0.0
  3
$PAPER_SPACE
  1

  0
ENDBLK
  5
1D
 67
     1
  8
0
  0
ENDSEC
  0
SECTION
  2
ENTITIES
  0
ATTDEF
  5
829
  8
DEFPOINTS
 10
576.1782263200493617
 20
209.8909857974755937
 30
0.0
 40
0.001
  1
K-C73050D-ND
  3

  2
MODELNUMBER
 70
     0
1001
ACDBATTR
1070
     0
1070
     1
  0
ATTDEF
  5
82A
  8
DEFPOINTS
 10
576.1782263200493617
 20
209.8893191308089001
 30
0.0
 40
0.001
  1
COMPOSED
  3

  2
TRADENAME
 70
     0
1001
ACDBATTR
1070
     0
1070
     1
  0
ATTDEF
  5
82B
  8
DEFPOINTS
 10
576.1782263200493617
 20
209.8876524641422066
 30
0.0
 40
0.001
  1
BATHROOM SINK FAUCET
  3

  2
PRODUCT
 70
     0
1001
ACDBATTR
1070
     0
1070
     1
  0
LINE
  5
BC65
  8
0
 10
575.1726774205069432
 20
209.8926987050872981
 30
0.0
 11
577.1805774204590307
 21
209.8926987050872981
 31
0.0
  0
LINE
  5
BC66
  8
0
 10
575.1923627145546334
 20
210.0501810580678068
 30
0.0
 11
577.1608921263114098
 21
210.0501810580678068
 31
0.0
  0
LINE
  5
BC67
  8
0
 10
576.7536294941673987
 20
214.1112996705491867
 30
0.0
 11
575.5996253467984616
 21
214.1112996705491867
 31
0.0
  0
LINE
  5
BC68
  8
0
 10
576.8327746356493435
 20
214.6621713237335882
 30
0.0
 11
575.5204802053166304
 21
214.6621713237335882
 31
0.0
  0
ARC
  5
BC69
  8
0
 10
576.8341051887352933
 20
210.0816797867611001
 30
0.0
 40
0.0314987288142502
 50
269.9949792348361939
 51
358.9772250900231825
  0
ARC
  5
BC6A
  8
0
 10
576.8341249781916531
 20
214.1386828619081086
 30
0.0
 40
0.0315045739938265
 50
269.9776207487835791
 51
357.4723154113823966
  0
ARC
  5
BC6B
  8
0
 10
577.1608921263114098
 20
210.0304957639201859
 30
0.0
 40
0.0196852941475687
 50
0.0
 51
90.0
  0
ARC
  5
BC6C
  8
0
 10
575.1923627145546334
 20
210.0304957639201859
 30
0.0
 40
0.0196852941475687
 50
90.0
 51
180.0
  0
ARC
  5
BC6D
  8
0
 10
576.8276565442012043
 20
213.84583450392239
 30
0.0
 40
0.0381454092866772
 50
5.914465198927835
 51
80.2782143725126645
  0
ARC
  5
BC6E
  8
0
 10
576.5045468876166979
 20
210.7518355178401919
 30
0.0
 40
3.1488888787491049
 50
83.992635282367047
 51
89.3231285635671384
  0
ARC
  5
BC6F
  8
0
 10
576.8306259534861056
 20
213.9146538570373934
 30
0.0
 40
0.0358204706376673
 50
289.6090950793014827
 51
347.5115575326315138
  0
ARC
  5
BC70
  8
0
 10
576.7348100789591854
 20
212.9558833112257901
 30
0.0
 40
1.155569614527451
 50
85.0702705855632644
 51
89.0668491787593837
  0
ARC
  5
BC71
  8
0
 10
576.826273504516621
 20
214.6232463350783917
 30
0.0
 40
0.0394641540133735
 50
4.8061216684323007
 51
80.5181540916740772
  0
LINE
  5
BC72
  8
0
 10
575.1726774204070125
 20
210.0304957639202996
 30
0.0
 11
575.1726774204070125
 21
209.8926987050872981
 31
0.0
  0
LINE
  5
BC73
  8
0
 10
577.1805774205089392
 20
209.8926987050872981
 30
0.0
 11
577.1805774205089392
 21
210.0304957639201859
 31
0.0
  0
ARC
  5
BC74
  8
0
 10
575.5191511693722077
 20
210.0816785654648982
 30
0.0
 40
0.0314975074215656
 50
180.6893801098887025
 51
270.0022611920991835
  0
ARC
  5
BC75
  8
0
 10
575.5191393708150827
 20
214.1386660916002995
 30
0.0
 40
0.0314878014070938
 50
180.9548449836935902
 51
270.0050901666136838
  0
ARC
  5
BC76
  8
0
 10
575.52557942019439
 20
213.8458540367356022
 30
0.0
 40
0.0381246244679582
 50
99.7132958172644237
 51
174.1118103042200005
  0
ARC
  5
BC77
  8
0
 10
575.8487043093200555
 20
210.7517316443037032
 30
0.0
 40
3.148992825986737
 50
90.6768198509058436
 51
96.0072782887738754
  0
ARC
  5
BC78
  8
0
 10
575.5226103239175472
 20
213.9146329420661914
 30
0.0
 40
0.0357978273382286
 50
192.4621842345231073
 51
250.3911310196614863
  0
ARC
  5
BC79
  8
0
 10
575.5269839339830469
 20
214.6232439413282123
 30
0.0
 40
0.0394669430242899
 50
99.4849928633961866
 51
175.1907313901641032
  0
ARC
  5
BC7A
  8
0
 10
575.6184447620065612
 20
212.9558833112257901
 30
0.0
 40
1.155569614527451
 50
90.9331508212406163
 51
94.9297294144302555
  0
LINE
  5
BC7B
  8
0
 10
579.0455250583289626
 20
213.4438797765872948
 30
0.0
 11
579.0455250583289626
 21
212.1682892254872002
 31
0.0
  0
LINE
  5
BC7C
  8
0
 10
577.4561520645523842
 20
213.4753758395872865
 30
0.0
 11
577.0821343290264167
 21
213.4753758395872865
 31
0.0
  0
LINE
  5
BC7D
  8
0
 10
577.6360762395330539
 20
213.4753758395872865
 30
0.0
 11
579.0140289954329091
 21
213.4753758395872865
 31
0.0
  0
LINE
  5
BC7E
  8
0
 10
577.6282022237330693
 20
213.4675018238872894
 30
0.0
 11
577.6282022237330693
 21
212.1446671781868929
 31
0.0
  0
LINE
  5
BC7F
  8
0
 10
577.4758351197330057
 20
213.4655333198872995
 30
0.0
 11
577.4758351197330057
 21
212.1514661219873119
 31
0.0
  0
LINE
  5
BC80
  8
0
 10
577.4881377822468949
 20
213.4655333198872995
 30
0.0
 11
577.4758351197330057
 21
213.4655333198872995
 31
0.0
  0
ARC
  5
BC81
  8
0
 10
577.4517550704199493
 20
213.4505470771433124
 30
0.0
 40
0.0252150947231919
 50
17.2566579327173599
 51
79.9574525361367989
  0
ARC
  5
BC82
  8
0
 10
577.6361477534917412
 20
213.4674303098277051
 30
0.0
 40
0.0079458515847699
 50
90.515678311596389
 51
179.4843209607494998
  0
LINE
  5
BC83
  8
0
 10
577.4881377822468949
 20
213.4655333198872995
 30
0.0
 11
577.4881377822468949
 21
212.1514661219873119
 31
0.0
  0
ARC
  5
BC84
  8
0
 10
579.0104175166605955
 20
213.440268297814896
 30
0.0
 40
0.0352928075991235
 50
5.8733022406995596
 51
84.1266977592874809
  0
LINE
  5
BC85
  8
0
 10
577.4561520645523842
 20
212.1367931624373
 30
0.0
 11
577.0821343323329984
 21
212.1367931623373124
 31
0.0
  0
LINE
  5
BC86
  8
0
 10
577.6360762395330539
 20
212.1367931623873062
 30
0.0
 11
577.8880447439568115
 21
212.1367931623873062
 31
0.0
  0
LINE
  5
BC87
  8
0
 10
578.1557612315729102
 20
212.1367931623873062
 30
0.0
 11
579.0140289954329091
 21
212.1367931623873062
 31
0.0
  0
LINE
  5
BC88
  8
0
 10
577.4881377822468949
 20
212.1514661219873119
 30
0.0
 11
577.4758351197330057
 21
212.1514661219873119
 31
0.0
  0
ARC
  5
BC89
  8
0
 10
577.4517550704199493
 20
212.1616219249312962
 30
0.0
 40
0.0252150947231919
 50
280.0425474638568062
 51
342.7433420672825832
  0
ARC
  5
BC8A
  8
0
 10
577.6361477534917412
 20
212.1447386922469036
 30
0.0
 40
0.0079458515847699
 50
180.5156790392503865
 51
269.484321688403611
  0
ARC
  5
BC8B
  8
0
 10
579.0104175166605955
 20
212.1719007042597127
 30
0.0
 40
0.0352928075991235
 50
275.8733022407124054
 51
354.1266977593004981
  0
ARC
  5
BC8C
  8
0
 10
578.0219029877483763
 20
211.4798271334236119
 30
0.0
 40
0.6704643113421208
 50
78.4835034194742747
 51
101.5164966233297008
  0
ARC
  5
BC8D
  8
0
 10
577.014360156934913
 20
211.9927986197835992
 30
0.0
 40
0.1515452587852868
 50
113.7539250286067016
 51
169.0006185356066908
  0
ARC
  5
BC8E
  8
0
 10
577.1188393866982551
 20
209.6707836261178954
 30
0.0
 40
2.4662826873632402
 50
90.8527499124332252
 51
93.8482645560880968
  0
ARC
  5
BC8F
  8
0
 10
577.014360156934913
 20
213.6193703822906969
 30
0.0
 40
0.1515452587852868
 50
190.9993814643931955
 51
246.2460749713933126
  0
ARC
  5
BC90
  8
0
 10
577.0548215494064834
 20
214.3817671308493971
 30
0.0
 40
0.9068027132769316
 50
263.5729828652903848
 51
271.7260024571758095
  0
ARC
  5
BC91
  8
0
 10
577.3133794489515367
 20
212.8060845010371054
 30
0.0
 40
0.9031864365209457
 50
119.7211083327267005
 51
240.2788916672733137
  0
ARC
  5
BC92
  8
0
 10
576.1761127679369565
 20
226.4801114192534897
 30
0.0
 40
12.5860264519884808
 50
269.3931065880257165
 51
270.0023428696001133
  0
ARC
  5
BC93
  8
0
 10
576.1347279017958272
 20
222.5731823954749018
 30
0.0
 40
8.6788782459449578
 50
268.0671755916097823
 51
269.3931065880257165
  0
ARC
  5
BC94
  8
0
 10
575.9093586259621134
 20
215.8949711107050859
 30
0.0
 40
1.9968652801900459
 50
265.7160650290421131
 51
268.0671755916097823
  0
ARC
  5
BC95
  8
0
 10
575.7872026629781885
 20
214.2642334979497889
 30
0.0
 40
0.3615588132098582
 50
261.1702667867206173
 51
265.7160650290421131
  0
ARC
  5
BC96
  8
0
 10
575.7366598488805494
 20
213.938863703342804
 30
0.0
 40
0.0322867686941901
 50
249.1506991722035025
 51
261.1702667867206173
  0
ARC
  5
BC97
  8
0
 10
575.7260136773533077
 20
213.9109099399840943
 30
0.0
 40
0.0023743322486907
 50
205.5490037547046995
 51
249.1506991722035025
  0
ARC
  5
BC98
  8
0
 10
576.1765836647964534
 20
201.1447027084030026
 30
0.0
 40
12.78098417590558
 50
89.9998038477324798
 51
90.4774101811529334
  0
ARC
  5
BC99
  8
0
 10
576.1582915232987716
 20
203.3399595055296061
 30
0.0
 40
10.5856511697829294
 50
90.4774101522828857
 51
91.1620719684128886
  0
ARC
  5
BC9A
  8
0
 10
576.069150198104694
 20
207.7344561510275014
 30
0.0
 40
6.1902505119191789
 50
91.1620719684128886
 51
92.0468721062654254
  0
ARC
  5
BC9B
  8
0
 10
575.9357294170968089
 20
211.4675644739988911
 30
0.0
 40
2.4547587295907061
 50
92.0468721062654254
 51
94.1942241906751292
  0
ARC
  5
BC9C
  8
0
 10
575.7749846910010092
 20
213.6595162966353882
 30
0.0
 40
0.2569207783925187
 50
94.1942241906751292
 51
100.1425326260346935
  0
ARC
  5
BC9D
  8
0
 10
575.7336528686496422
 20
213.8905582865261863
 30
0.0
 40
0.022210913598555
 50
100.1425326260346935
 51
112.1767566349193004
  0
ARC
  5
BC9E
  8
0
 10
575.7263501023442132
 20
213.9084739410830878
 30
0.0
 40
0.0028640514780039
 50
112.1767566349198972
 51
142.1310914359208084
  0
ARC
  5
BC9F
  8
0
 10
575.7257123839694941
 20
213.9089698357504119
 30
0.0
 40
0.0020562171840948
 50
142.1310914359326034
 51
153.5430926434653998
  0
LINE
  5
BCA0
  8
0
 10
575.7041864756330369
 20
214.090877970587286
 30
0.0
 11
575.7041864756330369
 21
214.0475972654735131
 31
0.0
  0
ARC
  5
BCA1
  8
0
 10
575.8609290420486104
 20
214.1540027553720051
 30
0.0
 40
0.1894475135943951
 50
214.1708217157510035
 51
223.6591866946698133
  0
LINE
  5
BCA2
  8
0
 10
575.7238715150625694
 20
214.0326340384567061
 30
0.0
 11
575.7238715150330108
 21
213.9098859310425098
 31
0.0
  0
ARC
  5
BCA3
  8
0
 10
575.630403241569411
 20
213.9301008634097911
 30
0.0
 40
0.1387420993606744
 50
47.6479945094883703
 51
57.8727550175137466
  0
ARC
  5
BCA4
  8
0
 10
576.156670351994876
 20
204.3432716743791104
 30
0.0
 40
9.7622847413776324
 50
89.8828699812163734
 51
92.1271675211986008
  0
ARC
  5
BCA5
  8
0
 10
575.8273460805270361
 20
213.209625911858609
 30
0.0
 40
0.889816542491372
 50
92.1271675211986008
 51
97.9558565588860546
  0
ARC
  5
BCA6
  8
0
 10
575.7053511900971898
 20
214.0825440122223995
 30
0.0
 40
0.0084149522762218
 50
97.9558565588796171
 51
125.7009166941927987
  0
ARC
  5
BCA7
  8
0
 10
575.7011714914065124
 20
214.0889200723821091
 30
0.0
 40
0.000862264353234
 50
147.9549426368294007
 51
222.8120698525007128
  0
ARC
  5
BCA8
  8
0
 10
575.7051686176262137
 20
214.0933010906551885
 30
0.0
 40
0.0067900696448206
 50
227.013203146608106
 51
261.6833426012893256
  0
ARC
  5
BCA9
  8
0
 10
575.7442222051076897
 20
213.9098770135157963
 30
0.0
 40
0.0006608016796218
 50
133.9625560498683114
 51
190.3331193247830981
  0
ARC
  5
BCAA
  8
0
 10
576.1766043378765971
 20
201.5763974749328895
 30
0.0
 40
12.3486024029662804
 50
89.9998928999480654
 51
90.2528512630556747
  0
ARC
  5
BCAB
  8
0
 10
576.172126308001566
 20
202.5911068485625037
 30
0.0
 40
11.3338831483528306
 50
90.2528512630556747
 51
90.9014471409440006
  0
ARC
  5
BCAC
  8
0
 10
576.1078316965702015
 20
206.6773208391466028
 30
0.0
 40
7.2471633666814261
 50
90.9014471409440006
 51
91.7756354080606656
  0
ARC
  5
BCAD
  8
0
 10
575.9896351441343541
 20
210.4900379047550132
 30
0.0
 40
3.4326146584606589
 50
91.7756354080606656
 51
92.8608342043898745
  0
ARC
  5
BCAE
  8
0
 10
575.8816324729017424
 20
212.6512794941401125
 30
0.0
 40
1.2686761693438111
 50
92.8608342043898745
 51
95.2743752380693536
  0
ARC
  5
BCAF
  8
0
 10
575.7783262228501826
 20
213.7703282627497003
 30
0.0
 40
0.1448691005697437
 50
95.2743752380693536
 51
102.6124260622393933
  0
ARC
  5
BCB0
  8
0
 10
575.7483720239545164
 20
213.9041992611103922
 30
0.0
 40
0.0076878400653705
 50
102.6124260622393933
 51
126.8311109495430031
  0
ARC
  5
BCB1
  8
0
 10
575.7443174372248222
 20
213.9099566484526065
 30
0.0
 40
0.0007712104880504
 50
194.8892397521441922
 51
223.0347757299875866
  0
ARC
  5
BCB2
  8
0
 10
575.745614062147979
 20
213.911167242928002
 30
0.0
 40
0.0025451256988182
 50
223.0347757299863929
 51
248.1308615898095979
  0
ARC
  5
BCB3
  8
0
 10
575.7608840938538606
 20
213.9556163901258969
 30
0.0
 40
0.0495409553652108
 50
250.8909757791356014
 51
263.4916823532516901
  0
ARC
  5
BCB4
  8
0
 10
575.8628080957262227
 20
214.8509249545647037
 30
0.0
 40
0.9506324742094761
 50
263.5045682724722838
 51
267.8407728923194213
  0
ARC
  5
BCB5
  8
0
 10
576.0259609181678115
 20
218.2559558865725933
 30
0.0
 40
4.359531302121078
 50
267.384105210842506
 51
268.5963837804860077
  0
ARC
  5
BCB6
  8
0
 10
576.129733559100373
 20
222.2291168672691981
 30
0.0
 40
8.3340445293986836
 50
268.5522617527395823
 51
269.2508341929435005
  0
ARC
  5
BCB7
  8
0
 10
576.1719495525110233
 20
225.2915282581969905
 30
0.0
 40
11.3967463219321896
 50
269.239918537228391
 51
269.8197981008955253
  0
ARC
  5
BCB8
  8
0
 10
576.1765825715850724
 20
226.2471568964957953
 30
0.0
 40
12.3523849123802503
 50
269.8122493306909178
 51
270.0002080288613229
  0
ARC
  5
BCB9
  8
0
 10
576.1731279022629906
 20
221.1367134809310073
 30
0.0
 40
7.2385193430359589
 50
269.2879995702774067
 51
270.0277000892884871
  0
ARC
  5
BCBA
  8
0
 10
576.2278451981646867
 20
225.5396725412809928
 30
0.0
 40
11.6418183868880796
 50
268.7210477363282735
 51
269.2879995702774067
  0
ARC
  5
BCBB
  8
0
 10
576.0165447264774912
 20
216.0751954605875085
 30
0.0
 40
2.1749828913115898
 50
266.2843422475411899
 51
268.7210477363282735
  0
ARC
  5
BCBC
  8
0
 10
575.9050888594241542
 20
214.3589458800366003
 30
0.0
 40
0.4551180614362453
 50
262.7276226326354731
 51
266.2843422475411899
  0
ARC
  5
BCBD
  8
0
 10
575.8510789304976925
 20
213.9464039001557865
 30
0.0
 40
0.0390812540131121
 50
239.976696498070595
 51
264.7119735830198124
  0
ARC
  5
BCBE
  8
0
 10
575.8383906349788504
 20
213.9254585874905104
 30
0.0
 40
0.0146064848524587
 50
207.461404235494399
 51
241.9610474484549911
  0
ARC
  5
BCBF
  8
0
 10
575.9186849508164414
 20
214.2029127498151126
 30
0.0
 40
0.3036296810093562
 50
255.7425559856393136
 51
256.8900132511583934
  0
ARC
  5
BCC0
  8
0
 10
575.8450744418388467
 20
213.9132284352614874
 30
0.0
 40
0.00473921757782
 50
232.9903117653755942
 51
255.7425559856326061
  0
ARC
  5
BCC1
  8
0
 10
575.8425527324801578
 20
213.909883190962006
 30
0.0
 40
0.0005499840544955
 50
132.4026173610953094
 51
232.9903117653603886
  0
ARC
  5
BCC2
  8
0
 10
576.1765604712321647
 20
204.470469815188693
 30
0.0
 40
9.4510950595250041
 50
89.9995941306827945
 51
90.4531007144615131
  0
ARC
  5
BCC3
  8
0
 10
576.1635868515231778
 20
206.1109840209988135
 30
0.0
 40
7.8105295551110432
 50
90.4531007144615131
 51
91.2450498024273458
  0
ARC
  5
BCC4
  8
0
 10
576.0790686009114552
 20
209.9998058166627004
 30
0.0
 40
3.9207894232876841
 50
91.2450498024273458
 51
92.4458276170427666
  0
ARC
  5
BCC5
  8
0
 10
575.9641599342797917
 20
212.690012604398504
 30
0.0
 40
1.228129667127118
 50
92.4458276170427666
 51
94.6829576772196049
  0
ARC
  5
BCC6
  8
0
 10
575.8776084452416626
 20
213.746607145303102
 30
0.0
 40
0.1679960981254924
 50
94.6829576772196049
 51
101.3968748152153978
  0
ARC
  5
BCC7
  8
0
 10
575.8455030294961716
 20
213.9058771002125923
 30
0.0
 40
0.0055224810147045
 50
101.3968748152153978
 51
126.969595487335198
  0
ARC
  5
BCC8
  8
0
 10
576.1766274205330092
 20
213.6940576643953875
 30
0.0
 40
0.2258971816469994
 50
86.0024813609912258
 51
93.9975186390087885
  0
ARC
  5
BCC9
  8
0
 10
576.1766274205330092
 20
214.1447528507171114
 30
0.0
 40
0.2258971885680134
 50
266.0024814836509108
 51
273.9975185163228844
  0
ARC
  5
BCCA
  8
0
 10
576.1766274205330092
 20
213.6916778336955076
 30
0.0
 40
0.2258971816469994
 50
86.0024813609912258
 51
93.9975186390087885
  0
ARC
  5
BCCB
  8
0
 10
576.1766274205330092
 20
214.1423730200170894
 30
0.0
 40
0.2258971885680134
 50
266.0024814836509108
 51
273.9975185163228844
  0
ARC
  5
BCCC
  8
0
 10
576.1766274205330092
 20
213.6892980028954128
 30
0.0
 40
0.2258971816469994
 50
86.0024813609912258
 51
93.9975186390087885
  0
ARC
  5
BCCD
  8
0
 10
576.1766274205330092
 20
214.1399931892169946
 30
0.0
 40
0.2258971885680134
 50
266.0024814836509108
 51
273.9975185163228844
  0
ARC
  5
BCCE
  8
0
 10
576.1766274205330092
 20
213.6869181720954032
 30
0.0
 40
0.2258971816469994
 50
86.0024813609912258
 51
93.9975186390087885
  0
ARC
  5
BCCF
  8
0
 10
576.1766274205330092
 20
214.1376133584170987
 30
0.0
 40
0.2258971885680134
 50
266.0024814836509108
 51
273.9975185163228844
  0
ARC
  5
BCD0
  8
0
 10
576.1766274205330092
 20
213.6845383413954096
 30
0.0
 40
0.2258971816469994
 50
86.0024813609912258
 51
93.9975186390087885
  0
ARC
  5
BCD1
  8
0
 10
576.1766274205330092
 20
214.1352335277169914
 30
0.0
 40
0.2258971885680134
 50
266.0024814836509108
 51
273.9975185163228844
  0
ARC
  5
BCD2
  8
0
 10
576.1766274205330092
 20
213.6821585105954
 30
0.0
 40
0.2258971816469994
 50
86.0024813609912258
 51
93.9975186390087885
  0
ARC
  5
BCD3
  8
0
 10
576.1766274205330092
 20
214.1328536969170955
 30
0.0
 40
0.2258971885680134
 50
266.0024814836509108
 51
273.9975185163228844
  0
ARC
  5
BCD4
  8
0
 10
576.1766274205330092
 20
213.6797786797953904
 30
0.0
 40
0.2258971816469994
 50
86.0024813609912258
 51
93.9975186390087885
  0
ARC
  5
BCD5
  8
0
 10
576.1766274205330092
 20
214.1304738661170859
 30
0.0
 40
0.2258971885680134
 50
266.0024814836509108
 51
273.9975185163228844
  0
ARC
  5
BCD6
  8
0
 10
576.1766274205330092
 20
213.6773988490955105
 30
0.0
 40
0.2258971816469994
 50
86.0024813609912258
 51
93.9975186390087885
  0
ARC
  5
BCD7
  8
0
 10
576.1766274205330092
 20
214.1280940354170923
 30
0.0
 40
0.2258971885680134
 50
266.0024814836509108
 51
273.9975185163228844
  0
ARC
  5
BCD8
  8
0
 10
576.1766274205330092
 20
213.6750190182953872
 30
0.0
 40
0.2258971816469994
 50
86.0024813609912258
 51
93.9975186390087885
  0
ARC
  5
BCD9
  8
0
 10
576.1766274205330092
 20
214.1257142046171111
 30
0.0
 40
0.2258971885680134
 50
266.0024814836509108
 51
273.9975185163228844
  0
ARC
  5
BCDA
  8
0
 10
576.1569423811330353
 20
213.676208933695392
 30
0.0
 40
0.2258971816469994
 50
86.0024813609912258
 51
93.9975186390087885
  0
ARC
  5
BCDB
  8
0
 10
576.1569423811330353
 20
214.1269041200170875
 30
0.0
 40
0.2258971885680134
 50
266.0024814836509108
 51
273.9975185163228844
  0
ARC
  5
BCDC
  8
0
 10
576.1569423811330353
 20
213.6785887644954016
 30
0.0
 40
0.2258971816469994
 50
86.0024813609912258
 51
93.9975186390087885
  0
ARC
  5
BCDD
  8
0
 10
576.1569423811330353
 20
214.1292839508170971
 30
0.0
 40
0.2258971885680134
 50
266.0024814836509108
 51
273.9975185163228844
  0
ARC
  5
BCDE
  8
0
 10
576.1569423811330353
 20
213.6809685951955089
 30
0.0
 40
0.2258971816469994
 50
86.0024813609912258
 51
93.9975186390087885
  0
ARC
  5
BCDF
  8
0
 10
576.1569423811330353
 20
214.1316637815170907
 30
0.0
 40
0.2258971885680134
 50
266.0024814836509108
 51
273.9975185163228844
  0
ARC
  5
BCE0
  8
0
 10
576.1569423811330353
 20
213.6833484259954901
 30
0.0
 40
0.2258971816469994
 50
86.0024813609912258
 51
93.9975186390087885
  0
ARC
  5
BCE1
  8
0
 10
576.1569423811330353
 20
214.1340436123169866
 30
0.0
 40
0.2258971885680134
 50
266.0024814836509108
 51
273.9975185163228844
  0
ARC
  5
BCE2
  8
0
 10
576.1569423811330353
 20
213.685728256795386
 30
0.0
 40
0.2258971816469994
 50
86.0024813609912258
 51
93.9975186390087885
  0
ARC
  5
BCE3
  8
0
 10
576.1569423811330353
 20
214.1364234431171099
 30
0.0
 40
0.2258971885680134
 50
266.0024814836509108
 51
273.9975185163228844
  0
ARC
  5
BCE4
  8
0
 10
576.1569423811330353
 20
213.688108087495408
 30
0.0
 40
0.2258971816469994
 50
86.0024813609912258
 51
93.9975186390087885
  0
ARC
  5
BCE5
  8
0
 10
576.1569423811330353
 20
214.1388032738169898
 30
0.0
 40
0.2258971885680134
 50
266.0024814836509108
 51
273.9975185163228844
  0
ARC
  5
BCE6
  8
0
 10
576.1569423811330353
 20
213.6904879182953891
 30
0.0
 40
0.2258971816469994
 50
86.0024813609912258
 51
93.9975186390087885
  0
ARC
  5
BCE7
  8
0
 10
576.1569423811330353
 20
214.141183104617113
 30
0.0
 40
0.2258971885680134
 50
266.0024814836509108
 51
273.9975185163228844
  0
ARC
  5
BCE8
  8
0
 10
576.1569423811330353
 20
213.6928677490955124
 30
0.0
 40
0.2258971816469994
 50
86.0024813609912258
 51
93.9975186390087885
  0
ARC
  5
BCE9
  8
0
 10
576.1569423811330353
 20
214.1435629354170089
 30
0.0
 40
0.2258971885680134
 50
266.0024814836509108
 51
273.9975185163228844
  0
ARC
  5
BCEA
  8
0
 10
576.1372573762777165
 20
213.6940588063945938
 30
0.0
 40
0.2258971816469994
 50
86.0024813609912258
 51
93.9975186390087885
  0
ARC
  5
BCEB
  8
0
 10
576.1372573762778302
 20
214.1447539927162893
 30
0.0
 40
0.2258971885680134
 50
266.0024814836509108
 51
273.9975185163228844
  0
ARC
  5
BCEC
  8
0
 10
576.1372573417329477
 20
213.6916778339694076
 30
0.0
 40
0.2258971816469994
 50
86.0024813609912258
 51
93.9975186390087885
  0
ARC
  5
BCED
  8
0
 10
576.1372573417330614
 20
214.1423730202909894
 30
0.0
 40
0.2258971885680134
 50
266.0024814836509108
 51
273.9975185163228844
  0
ARC
  5
BCEE
  8
0
 10
576.1372573417329477
 20
213.6892980028954128
 30
0.0
 40
0.2258971816469994
 50
86.0024813609912258
 51
93.9975186390087885
  0
ARC
  5
BCEF
  8
0
 10
576.1372573417330614
 20
214.1399931892169946
 30
0.0
 40
0.2258971885680134
 50
266.0024814836509108
 51
273.9975185163228844
  0
ARC
  5
BCF0
  8
0
 10
576.1372573417329477
 20
213.6869181720954032
 30
0.0
 40
0.2258971816469994
 50
86.0024813609912258
 51
93.9975186390087885
  0
ARC
  5
BCF1
  8
0
 10
576.1372573417330614
 20
214.1376133584170987
 30
0.0
 40
0.2258971885680134
 50
266.0024814836509108
 51
273.9975185163228844
  0
ARC
  5
BCF2
  8
0
 10
576.1372573417329477
 20
213.6845383413954096
 30
0.0
 40
0.2258971816469994
 50
86.0024813609912258
 51
93.9975186390087885
  0
ARC
  5
BCF3
  8
0
 10
576.1372573417330614
 20
214.1352335277169914
 30
0.0
 40
0.2258971885680134
 50
266.0024814836509108
 51
273.9975185163228844
  0
ARC
  5
BCF4
  8
0
 10
576.1372573417329477
 20
213.6821585105954
 30
0.0
 40
0.2258971816469994
 50
86.0024813609912258
 51
93.9975186390087885
  0
ARC
  5
BCF5
  8
0
 10
576.1372573417330614
 20
214.1328536969170955
 30
0.0
 40
0.2258971885680134
 50
266.0024814836509108
 51
273.9975185163228844
  0
ARC
  5
BCF6
  8
0
 10
576.1372573417329477
 20
213.6797786797953904
 30
0.0
 40
0.2258971816469994
 50
86.0024813609912258
 51
93.9975186390087885
  0
ARC
  5
BCF7
  8
0
 10
576.1372573417330614
 20
214.1304738661170859
 30
0.0
 40
0.2258971885680134
 50
266.0024814836509108
 51
273.9975185163228844
  0
ARC
  5
BCF8
  8
0
 10
576.1372573417329477
 20
213.6773988490955105
 30
0.0
 40
0.2258971816469994
 50
86.0024813609912258
 51
93.9975186390087885
  0
ARC
  5
BCF9
  8
0
 10
576.1372573417330614
 20
214.1280940354170923
 30
0.0
 40
0.2258971885680134
 50
266.0024814836509108
 51
273.9975185163228844
  0
ARC
  5
BCFA
  8
0
 10
576.1372573417329477
 20
213.6750190182953872
 30
0.0
 40
0.2258971816469994
 50
86.0024813609912258
 51
93.9975186390087885
  0
ARC
  5
BCFB
  8
0
 10
576.1372573417330614
 20
214.1257142046171111
 30
0.0
 40
0.2258971885680134
 50
266.0024814836509108
 51
273.9975185163228844
  0
ARC
  5
BCFC
  8
0
 10
576.1175723024329045
 20
213.676208933695392
 30
0.0
 40
0.2258971816469994
 50
86.0024813609912258
 51
93.9975186390087885
  0
ARC
  5
BCFD
  8
0
 10
576.1175723024329045
 20
214.1269041200170875
 30
0.0
 40
0.2258971885680134
 50
266.0024814836509108
 51
273.9975185163228844
  0
ARC
  5
BCFE
  8
0
 10
576.1175723024329045
 20
213.6785887644954016
 30
0.0
 40
0.2258971816469994
 50
86.0024813609912258
 51
93.9975186390087885
  0
ARC
  5
BCFF
  8
0
 10
576.1175723024329045
 20
214.1292839508170971
 30
0.0
 40
0.2258971885680134
 50
266.0024814836509108
 51
273.9975185163228844
  0
ARC
  5
BD00
  8
0
 10
576.1175723024329045
 20
213.6809685951955089
 30
0.0
 40
0.2258971816469994
 50
86.0024813609912258
 51
93.9975186390087885
  0
ARC
  5
BD01
  8
0
 10
576.1175723024329045
 20
214.1316637815170907
 30
0.0
 40
0.2258971885680134
 50
266.0024814836509108
 51
273.9975185163228844
  0
ARC
  5
BD02
  8
0
 10
576.1175723024329045
 20
213.6833484259954901
 30
0.0
 40
0.2258971816469994
 50
86.0024813609912258
 51
93.9975186390087885
  0
ARC
  5
BD03
  8
0
 10
576.1175723024329045
 20
214.1340436123169866
 30
0.0
 40
0.2258971885680134
 50
266.0024814836509108
 51
273.9975185163228844
  0
ARC
  5
BD04
  8
0
 10
576.1175723024329045
 20
213.685728256795386
 30
0.0
 40
0.2258971816469994
 50
86.0024813609912258
 51
93.9975186390087885
  0
ARC
  5
BD05
  8
0
 10
576.1175723024329045
 20
214.1364234431171099
 30
0.0
 40
0.2258971885680134
 50
266.0024814836509108
 51
273.9975185163228844
  0
ARC
  5
BD06
  8
0
 10
576.1175723024329045
 20
213.688108087495408
 30
0.0
 40
0.2258971816469994
 50
86.0024813609912258
 51
93.9975186390087885
  0
ARC
  5
BD07
  8
0
 10
576.1175723024329045
 20
214.1388032738169898
 30
0.0
 40
0.2258971885680134
 50
266.0024814836509108
 51
273.9975185163228844
  0
ARC
  5
BD08
  8
0
 10
576.1175723024329045
 20
213.6904879182953891
 30
0.0
 40
0.2258971816469994
 50
86.0024813609912258
 51
93.9975186390087885
  0
ARC
  5
BD09
  8
0
 10
576.1175723024329045
 20
214.141183104617113
 30
0.0
 40
0.2258971885680134
 50
266.0024814836509108
 51
273.9975185163228844
  0
ARC
  5
BD0A
  8
0
 10
576.1175723024329045
 20
213.6928677490955124
 30
0.0
 40
0.2258971816469994
 50
86.0024813609912258
 51
93.9975186390087885
  0
ARC
  5
BD0B
  8
0
 10
576.1175723024329045
 20
214.1435629354170089
 30
0.0
 40
0.2258971885680134
 50
266.0024814836509108
 51
273.9975185163228844
  0
ARC
  5
BD0C
  8
0
 10
576.0978872975775857
 20
213.6940588063945938
 30
0.0
 40
0.2258971816469994
 50
86.0024813609912258
 51
93.9975186390087885
  0
ARC
  5
BD0D
  8
0
 10
576.0978872975778131
 20
214.1447539927162893
 30
0.0
 40
0.2258971885680134
 50
266.0024814836509108
 51
273.9975185163228844
  0
ARC
  5
BD0E
  8
0
 10
576.0978872630330443
 20
213.6916778339694076
 30
0.0
 40
0.2258971816469994
 50
86.0024813609912258
 51
93.9975186390087885
  0
ARC
  5
BD0F
  8
0
 10
576.0978872630330443
 20
214.1423730202909894
 30
0.0
 40
0.2258971885680134
 50
266.0024814836509108
 51
273.9975185163228844
  0
ARC
  5
BD10
  8
0
 10
576.0978872630330443
 20
213.6892980028954128
 30
0.0
 40
0.2258971816469994
 50
86.0024813609912258
 51
93.9975186390087885
  0
ARC
  5
BD11
  8
0
 10
576.0978872630330443
 20
214.1399931892169946
 30
0.0
 40
0.2258971885680134
 50
266.0024814836509108
 51
273.9975185163228844
  0
ARC
  5
BD12
  8
0
 10
576.0978872630330443
 20
213.6869181720954032
 30
0.0
 40
0.2258971816469994
 50
86.0024813609912258
 51
93.9975186390087885
  0
ARC
  5
BD13
  8
0
 10
576.0978872630330443
 20
214.1376133584170987
 30
0.0
 40
0.2258971885680134
 50
266.0024814836509108
 51
273.9975185163228844
  0
ARC
  5
BD14
  8
0
 10
576.0978872630330443
 20
213.6845383413954096
 30
0.0
 40
0.2258971816469994
 50
86.0024813609912258
 51
93.9975186390087885
  0
ARC
  5
BD15
  8
0
 10
576.0978872630330443
 20
214.1352335277169914
 30
0.0
 40
0.2258971885680134
 50
266.0024814836509108
 51
273.9975185163228844
  0
ARC
  5
BD16
  8
0
 10
576.0978872630330443
 20
213.6821585105954
 30
0.0
 40
0.2258971816469994
 50
86.0024813609912258
 51
93.9975186390087885
  0
ARC
  5
BD17
  8
0
 10
576.0978872630330443
 20
214.1328536969170955
 30
0.0
 40
0.2258971885680134
 50
266.0024814836509108
 51
273.9975185163228844
  0
ARC
  5
BD18
  8
0
 10
576.0978872630330443
 20
213.6797786797953904
 30
0.0
 40
0.2258971816469994
 50
86.0024813609912258
 51
93.9975186390087885
  0
ARC
  5
BD19
  8
0
 10
576.0978872630330443
 20
214.1304738661170859
 30
0.0
 40
0.2258971885680134
 50
266.0024814836509108
 51
273.9975185163228844
  0
ARC
  5
BD1A
  8
0
 10
576.0978872630330443
 20
213.6773988490955105
 30
0.0
 40
0.2258971816469994
 50
86.0024813609912258
 51
93.9975186390087885
  0
ARC
  5
BD1B
  8
0
 10
576.0978872630330443
 20
214.1280940354170923
 30
0.0
 40
0.2258971885680134
 50
266.0024814836509108
 51
273.9975185163228844
  0
ARC
  5
BD1C
  8
0
 10
576.0978872630330443
 20
213.6750190182953872
 30
0.0
 40
0.2258971816469994
 50
86.0024813609912258
 51
93.9975186390087885
  0
ARC
  5
BD1D
  8
0
 10
576.0978872630330443
 20
214.1257142046171111
 30
0.0
 40
0.2258971885680134
 50
266.0024814836509108
 51
273.9975185163228844
  0
ARC
  5
BD1E
  8
0
 10
576.0782022581777255
 20
213.676210075694712
 30
0.0
 40
0.2258971816469994
 50
86.0024813609912258
 51
93.9975186390087885
  0
ARC
  5
BD1F
  8
0
 10
576.0782022581778392
 20
214.1269052620164075
 30
0.0
 40
0.2258971885680134
 50
266.0024814836509108
 51
273.9975185163228844
  0
ARC
  5
BD20
  8
0
 10
576.0782022236329567
 20
213.678588764221189
 30
0.0
 40
0.2258971816469994
 50
86.0024813609912258
 51
93.9975186390087885
  0
ARC
  5
BD21
  8
0
 10
576.0782022236329567
 20
214.1292839505429129
 30
0.0
 40
0.2258971885680134
 50
266.0024814836509108
 51
273.9975185163228844
  0
ARC
  5
BD22
  8
0
 10
576.0782022236329567
 20
213.6809685951955089
 30
0.0
 40
0.2258971816469994
 50
86.0024813609912258
 51
93.9975186390087885
  0
ARC
  5
BD23
  8
0
 10
576.0782022236329567
 20
214.1316637815170907
 30
0.0
 40
0.2258971885680134
 50
266.0024814836509108
 51
273.9975185163228844
  0
ARC
  5
BD24
  8
0
 10
576.0782022236329567
 20
213.6833484259954901
 30
0.0
 40
0.2258971816469994
 50
86.0024813609912258
 51
93.9975186390087885
  0
ARC
  5
BD25
  8
0
 10
576.0782022236329567
 20
214.1340436123169866
 30
0.0
 40
0.2258971885680134
 50
266.0024814836509108
 51
273.9975185163228844
  0
ARC
  5
BD26
  8
0
 10
576.0782022236329567
 20
213.685728256795386
 30
0.0
 40
0.2258971816469994
 50
86.0024813609912258
 51
93.9975186390087885
  0
ARC
  5
BD27
  8
0
 10
576.0782022236329567
 20
214.1364234431171099
 30
0.0
 40
0.2258971885680134
 50
266.0024814836509108
 51
273.9975185163228844
  0
ARC
  5
BD28
  8
0
 10
576.0782022236329567
 20
213.688108087495408
 30
0.0
 40
0.2258971816469994
 50
86.0024813609912258
 51
93.9975186390087885
  0
ARC
  5
BD29
  8
0
 10
576.0782022236329567
 20
214.1388032738169898
 30
0.0
 40
0.2258971885680134
 50
266.0024814836509108
 51
273.9975185163228844
  0
ARC
  5
BD2A
  8
0
 10
576.0782022236329567
 20
213.6904879182953891
 30
0.0
 40
0.2258971816469994
 50
86.0024813609912258
 51
93.9975186390087885
  0
ARC
  5
BD2B
  8
0
 10
576.0782022236329567
 20
214.141183104617113
 30
0.0
 40
0.2258971885680134
 50
266.0024814836509108
 51
273.9975185163228844
  0
ARC
  5
BD2C
  8
0
 10
576.0782022236329567
 20
213.6928677490955124
 30
0.0
 40
0.2258971816469994
 50
86.0024813609912258
 51
93.9975186390087885
  0
ARC
  5
BD2D
  8
0
 10
576.0782022236329567
 20
214.1435629354170089
 30
0.0
 40
0.2258971885680134
 50
266.0024814836509108
 51
273.9975185163228844
  0
ARC
  5
BD2E
  8
0
 10
576.0585171843330272
 20
213.6916778336955076
 30
0.0
 40
0.2258971816469994
 50
86.0024813609912258
 51
93.9975186390087885
  0
ARC
  5
BD2F
  8
0
 10
576.0585171843330272
 20
214.1423730200170894
 30
0.0
 40
0.2258971885680134
 50
266.0024814836509108
 51
273.9975185163228844
  0
ARC
  5
BD30
  8
0
 10
576.0585171843330272
 20
213.6892980028954128
 30
0.0
 40
0.2258971816469994
 50
86.0024813609912258
 51
93.9975186390087885
  0
ARC
  5
BD31
  8
0
 10
576.0585171843330272
 20
214.1399931892169946
 30
0.0
 40
0.2258971885680134
 50
266.0024814836509108
 51
273.9975185163228844
  0
ARC
  5
BD32
  8
0
 10
576.0585171843330272
 20
213.6869181720954032
 30
0.0
 40
0.2258971816469994
 50
86.0024813609912258
 51
93.9975186390087885
  0
ARC
  5
BD33
  8
0
 10
576.0585171843330272
 20
214.1376133584170987
 30
0.0
 40
0.2258971885680134
 50
266.0024814836509108
 51
273.9975185163228844
  0
ARC
  5
BD34
  8
0
 10
576.0585171843330272
 20
213.6845383413954096
 30
0.0
 40
0.2258971816469994
 50
86.0024813609912258
 51
93.9975186390087885
  0
ARC
  5
BD35
  8
0
 10
576.0585171843330272
 20
214.1352335277169914
 30
0.0
 40
0.2258971885680134
 50
266.0024814836509108
 51
273.9975185163228844
  0
ARC
  5
BD36
  8
0
 10
576.0585171843330272
 20
213.6821585105954
 30
0.0
 40
0.2258971816469994
 50
86.0024813609912258
 51
93.9975186390087885
  0
ARC
  5
BD37
  8
0
 10
576.0585171843330272
 20
214.1328536969170955
 30
0.0
 40
0.2258971885680134
 50
266.0024814836509108
 51
273.9975185163228844
  0
ARC
  5
BD38
  8
0
 10
576.0585171843330272
 20
213.6797786797953904
 30
0.0
 40
0.2258971816469994
 50
86.0024813609912258
 51
93.9975186390087885
  0
ARC
  5
BD39
  8
0
 10
576.0585171843330272
 20
214.1304738661170859
 30
0.0
 40
0.2258971885680134
 50
266.0024814836509108
 51
273.9975185163228844
  0
ARC
  5
BD3A
  8
0
 10
576.0588800320705332
 20
213.6775160060028895
 30
0.0
 40
0.2258971816469994
 50
86.0024813609912258
 51
93.9975186390087885
  0
ARC
  5
BD3B
  8
0
 10
576.0588800320706468
 20
214.1282111923244997
 30
0.0
 40
0.2258971885680134
 50
266.0024814836509108
 51
273.9975185163228844
  0
ARC
  5
BD3C
  8
0
 10
576.0388321449329396
 20
213.676208933695392
 30
0.0
 40
0.2258971816469994
 50
86.0024813609912258
 51
93.9975186390087885
  0
ARC
  5
BD3D
  8
0
 10
576.0388321449330533
 20
214.1269041200170875
 30
0.0
 40
0.2258971885680134
 50
266.0024814836509108
 51
273.9975185163228844
  0
ARC
  5
BD3E
  8
0
 10
576.0388321449329396
 20
213.6785887644954016
 30
0.0
 40
0.2258971816469994
 50
86.0024813609912258
 51
93.9975186390087885
  0
ARC
  5
BD3F
  8
0
 10
576.0388321449330533
 20
214.1292839508170971
 30
0.0
 40
0.2258971885680134
 50
266.0024814836509108
 51
273.9975185163228844
  0
ARC
  5
BD40
  8
0
 10
576.0388321449329396
 20
213.6809685951955089
 30
0.0
 40
0.2258971816469994
 50
86.0024813609912258
 51
93.9975186390087885
  0
ARC
  5
BD41
  8
0
 10
576.0388321449330533
 20
214.1316637815170907
 30
0.0
 40
0.2258971885680134
 50
266.0024814836509108
 51
273.9975185163228844
  0
ARC
  5
BD42
  8
0
 10
576.0388321449329396
 20
213.6833484259954901
 30
0.0
 40
0.2258971816469994
 50
86.0024813609912258
 51
93.9975186390087885
  0
ARC
  5
BD43
  8
0
 10
576.0388321449330533
 20
214.1340436123169866
 30
0.0
 40
0.2258971885680134
 50
266.0024814836509108
 51
273.9975185163228844
  0
ARC
  5
BD44
  8
0
 10
576.0388321449329396
 20
213.685728256795386
 30
0.0
 40
0.2258971816469994
 50
86.0024813609912258
 51
93.9975186390087885
  0
ARC
  5
BD45
  8
0
 10
576.0388321449330533
 20
214.1364234431171099
 30
0.0
 40
0.2258971885680134
 50
266.0024814836509108
 51
273.9975185163228844
  0
ARC
  5
BD46
  8
0
 10
576.0391949957902398
 20
213.6879909288784916
 30
0.0
 40
0.2258971816469994
 50
86.0024813609912258
 51
93.9975186390087885
  0
ARC
  5
BD47
  8
0
 10
576.0391949957902398
 20
214.1386861152001018
 30
0.0
 40
0.2258971885680134
 50
266.0024814836509108
 51
273.9975185163228844
  0
ARC
  5
BD48
  8
0
 10
576.038832344288835
 20
213.6904851752871934
 30
0.0
 40
0.2258971816469994
 50
86.0024813609912258
 51
93.9975186390087885
  0
ARC
  5
BD49
  8
0
 10
576.0388323442889487
 20
214.1411803616088037
 30
0.0
 40
0.2258971885680134
 50
266.0024814836509108
 51
273.9975185163228844
  0
ARC
  5
BD4A
  8
0
 10
576.0388321449330533
 20
213.6928677475156064
 30
0.0
 40
0.2258971816469994
 50
86.0024813609912258
 51
93.9975186390087885
  0
ARC
  5
BD4B
  8
0
 10
576.0388321449330533
 20
214.1435629338371882
 30
0.0
 40
0.2258971885680134
 50
266.0024814836509108
 51
273.9975185163228844
  0
ARC
  5
BD4C
  8
0
 10
576.0191471400789851
 20
213.6916766916559993
 30
0.0
 40
0.2258971816469994
 50
86.0024813609912258
 51
93.9975186390087885
  0
ARC
  5
BD4D
  8
0
 10
576.0191471400789851
 20
214.1423718779776095
 30
0.0
 40
0.2258971885680134
 50
266.0024814836509108
 51
273.9975185163228844
  0
ARC
  5
BD4E
  8
0
 10
576.019147105532852
 20
213.6892980031697107
 30
0.0
 40
0.2258971816469994
 50
86.0024813609912258
 51
93.9975186390087885
  0
ARC
  5
BD4F
  8
0
 10
576.0191471055329657
 20
214.1399931894912925
 30
0.0
 40
0.2258971885680134
 50
266.0024814836509108
 51
273.9975185163228844
  0
ARC
  5
BD50
  8
0
 10
576.019147105532852
 20
213.6869181720954032
 30
0.0
 40
0.2258971816469994
 50
86.0024813609912258
 51
93.9975186390087885
  0
ARC
  5
BD51
  8
0
 10
576.0191471055329657
 20
214.1376133584170987
 30
0.0
 40
0.2258971885680134
 50
266.0024814836509108
 51
273.9975185163228844
  0
ARC
  5
BD52
  8
0
 10
576.019147105532852
 20
213.6845383413954096
 30
0.0
 40
0.2258971816469994
 50
86.0024813609912258
 51
93.9975186390087885
  0
ARC
  5
BD53
  8
0
 10
576.0191471055329657
 20
214.1352335277169914
 30
0.0
 40
0.2258971885680134
 50
266.0024814836509108
 51
273.9975185163228844
  0
ARC
  5
BD54
  8
0
 10
576.019147105532852
 20
213.6821585105954
 30
0.0
 40
0.2258971816469994
 50
86.0024813609912258
 51
93.9975186390087885
  0
ARC
  5
BD55
  8
0
 10
576.0191471055329657
 20
214.1328536969170955
 30
0.0
 40
0.2258971885680134
 50
266.0024814836509108
 51
273.9975185163228844
  0
ARC
  5
BD56
  8
0
 10
576.019147105532852
 20
213.6797786797953904
 30
0.0
 40
0.2258971816469994
 50
86.0024813609912258
 51
93.9975186390087885
  0
ARC
  5
BD57
  8
0
 10
576.0191471055329657
 20
214.1304738661170859
 30
0.0
 40
0.2258971885680134
 50
266.0024814836509108
 51
273.9975185163228844
  0
ARC
  5
BD58
  8
0
 10
576.019147105532852
 20
213.6773988490955105
 30
0.0
 40
0.2258971816469994
 50
86.0024813609912258
 51
93.9975186390087885
  0
ARC
  5
BD59
  8
0
 10
576.0191471055329657
 20
214.1280940354170923
 30
0.0
 40
0.2258971885680134
 50
266.0024814836509108
 51
273.9975185163228844
  0
ARC
  5
BD5A
  8
0
 10
575.9994620661329918
 20
213.6785887644954016
 30
0.0
 40
0.2258971816469994
 50
86.0024813609912258
 51
93.9975186390087885
  0
ARC
  5
BD5B
  8
0
 10
575.9994620661329918
 20
214.1292839508170971
 30
0.0
 40
0.2258971885680134
 50
266.0024814836509108
 51
273.9975185163228844
  0
ARC
  5
BD5C
  8
0
 10
575.9994620661329918
 20
213.6809685951955089
 30
0.0
 40
0.2258971816469994
 50
86.0024813609912258
 51
93.9975186390087885
  0
ARC
  5
BD5D
  8
0
 10
575.9994620661329918
 20
214.1316637815170907
 30
0.0
 40
0.2258971885680134
 50
266.0024814836509108
 51
273.9975185163228844
  0
ARC
  5
BD5E
  8
0
 10
575.9994620661329918
 20
213.6833484259954901
 30
0.0
 40
0.2258971816469994
 50
86.0024813609912258
 51
93.9975186390087885
  0
ARC
  5
BD5F
  8
0
 10
575.9994620661329918
 20
214.1340436123169866
 30
0.0
 40
0.2258971885680134
 50
266.0024814836509108
 51
273.9975185163228844
  0
ARC
  5
BD60
  8
0
 10
575.9994620661329918
 20
213.685728256795386
 30
0.0
 40
0.2258971816469994
 50
86.0024813609912258
 51
93.9975186390087885
  0
ARC
  5
BD61
  8
0
 10
575.9994620661329918
 20
214.1364234431171099
 30
0.0
 40
0.2258971885680134
 50
266.0024814836509108
 51
273.9975185163228844
  0
ARC
  5
BD62
  8
0
 10
575.9994620661329918
 20
213.688108087495408
 30
0.0
 40
0.2258971816469994
 50
86.0024813609912258
 51
93.9975186390087885
  0
ARC
  5
BD63
  8
0
 10
575.9994620661329918
 20
214.1388032738169898
 30
0.0
 40
0.2258971885680134
 50
266.0024814836509108
 51
273.9975185163228844
  0
ARC
  5
BD64
  8
0
 10
575.9994620661329918
 20
213.6904879182953891
 30
0.0
 40
0.2258971816469994
 50
86.0024813609912258
 51
93.9975186390087885
  0
ARC
  5
BD65
  8
0
 10
575.9994620661329918
 20
214.141183104617113
 30
0.0
 40
0.2258971885680134
 50
266.0024814836509108
 51
273.9975185163228844
  0
ARC
  5
BD66
  8
0
 10
575.9797770268329486
 20
213.6916778336955076
 30
0.0
 40
0.2258971816469994
 50
86.0024813609912258
 51
93.9975186390087885
  0
ARC
  5
BD67
  8
0
 10
575.9797770268329486
 20
214.1423730200170894
 30
0.0
 40
0.2258971885680134
 50
266.0024814836509108
 51
273.9975185163228844
  0
ARC
  5
BD68
  8
0
 10
575.9797770268329486
 20
213.6892980028954128
 30
0.0
 40
0.2258971816469994
 50
86.0024813609912258
 51
93.9975186390087885
  0
ARC
  5
BD69
  8
0
 10
575.9797770268329486
 20
214.1399931892169946
 30
0.0
 40
0.2258971885680134
 50
266.0024814836509108
 51
273.9975185163228844
  0
ARC
  5
BD6A
  8
0
 10
575.9797770268329486
 20
213.6869181720954032
 30
0.0
 40
0.2258971816469994
 50
86.0024813609912258
 51
93.9975186390087885
  0
ARC
  5
BD6B
  8
0
 10
575.9797770268329486
 20
214.1376133584170987
 30
0.0
 40
0.2258971885680134
 50
266.0024814836509108
 51
273.9975185163228844
  0
ARC
  5
BD6C
  8
0
 10
575.9797770268329486
 20
213.6845383413954096
 30
0.0
 40
0.2258971816469994
 50
86.0024813609912258
 51
93.9975186390087885
  0
ARC
  5
BD6D
  8
0
 10
575.9797770268329486
 20
214.1352335277169914
 30
0.0
 40
0.2258971885680134
 50
266.0024814836509108
 51
273.9975185163228844
  0
ARC
  5
BD6E
  8
0
 10
575.9797770268329486
 20
213.6821585105954
 30
0.0
 40
0.2258971816469994
 50
86.0024813609912258
 51
93.9975186390087885
  0
ARC
  5
BD6F
  8
0
 10
575.9797770268329486
 20
214.1328536969170955
 30
0.0
 40
0.2258971885680134
 50
266.0024814836509108
 51
273.9975185163228844
  0
ARC
  5
BD70
  8
0
 10
575.9797770268329486
 20
213.6797786797953904
 30
0.0
 40
0.2258971816469994
 50
86.0024813609912258
 51
93.9975186390087885
  0
ARC
  5
BD71
  8
0
 10
575.9797770268329486
 20
214.1304738661170859
 30
0.0
 40
0.2258971885680134
 50
266.0024814836509108
 51
273.9975185163228844
  0
ARC
  5
BD72
  8
0
 10
575.9797770268329486
 20
213.6773988490955105
 30
0.0
 40
0.2258971816469994
 50
86.0024813609912258
 51
93.9975186390087885
  0
ARC
  5
BD73
  8
0
 10
575.9797770268329486
 20
214.1280940354170923
 30
0.0
 40
0.2258971885680134
 50
266.0024814836509108
 51
273.9975185163228844
  0
ARC
  5
BD74
  8
0
 10
575.9600919874328611
 20
213.6785887644954016
 30
0.0
 40
0.2258971816469994
 50
86.0024813609912258
 51
93.9975186390087885
  0
ARC
  5
BD75
  8
0
 10
575.9600919874330884
 20
214.1292839508170971
 30
0.0
 40
0.2258971885680134
 50
266.0024814836509108
 51
273.9975185163228844
  0
ARC
  5
BD76
  8
0
 10
575.9600919834098249
 20
213.6809689803243941
 30
0.0
 40
0.2258971816469994
 50
86.0024813609912258
 51
93.9975186390087885
  0
ARC
  5
BD77
  8
0
 10
575.9600919834098249
 20
214.1316641666460043
 30
0.0
 40
0.2258971885680134
 50
266.0024814836509108
 51
273.9975185163228844
  0
ARC
  5
BD78
  8
0
 10
575.9600919874328611
 20
213.6833484259954901
 30
0.0
 40
0.2258971816469994
 50
86.0024813609912258
 51
93.9975186390087885
  0
ARC
  5
BD79
  8
0
 10
575.9600919874330884
 20
214.1340436123169866
 30
0.0
 40
0.2258971885680134
 50
266.0024814836509108
 51
273.9975185163228844
  0
ARC
  5
BD7A
  8
0
 10
575.9604548345918147
 20
213.6856110973484135
 30
0.0
 40
0.2258971816469994
 50
86.0024813609912258
 51
93.9975186390087885
  0
ARC
  5
BD7B
  8
0
 10
575.9604548345918147
 20
214.1363062836699953
 30
0.0
 40
0.2258971885680134
 50
266.0024814836509108
 51
273.9975185163228844
  0
ARC
  5
BD7C
  8
0
 10
575.96009218678455
 20
213.6881053445160035
 30
0.0
 40
0.2258971816469994
 50
86.0024813609912258
 51
93.9975186390087885
  0
ARC
  5
BD7D
  8
0
 10
575.9600921867846637
 20
214.1388005308376137
 30
0.0
 40
0.2258971885680134
 50
266.0024814836509108
 51
273.9975185163228844
  0
ARC
  5
BD7E
  8
0
 10
575.9600919874328611
 20
213.6904879182953891
 30
0.0
 40
0.2258971816469994
 50
86.0024813609912258
 51
93.9975186390087885
  0
ARC
  5
BD7F
  8
0
 10
575.9600919874330884
 20
214.141183104617113
 30
0.0
 40
0.2258971885680134
 50
266.0024814836509108
 51
273.9975185163228844
  0
ARC
  5
BD80
  8
0
 10
575.9404069480328872
 20
213.6892980028954128
 30
0.0
 40
0.2258971816469994
 50
86.0024813609912258
 51
93.9975186390087885
  0
ARC
  5
BD81
  8
0
 10
575.9404069480328872
 20
214.1399931892169946
 30
0.0
 40
0.2258971885680134
 50
266.0024814836509108
 51
273.9975185163228844
  0
ARC
  5
BD82
  8
0
 10
575.9407697964292083
 20
213.6870353291251945
 30
0.0
 40
0.2258971816469994
 50
86.0024813609912258
 51
93.9975186390087885
  0
ARC
  5
BD83
  8
0
 10
575.9407697964294357
 20
214.1377305154468047
 30
0.0
 40
0.2258971885680134
 50
266.0024814836509108
 51
273.9975185163228844
  0
ARC
  5
BD84
  8
0
 10
575.9404069480328872
 20
213.6845383413954096
 30
0.0
 40
0.2258971816469994
 50
86.0024813609912258
 51
93.9975186390087885
  0
ARC
  5
BD85
  8
0
 10
575.9404069480328872
 20
214.1352335277169914
 30
0.0
 40
0.2258971885680134
 50
266.0024814836509108
 51
273.9975185163228844
  0
ARC
  5
BD86
  8
0
 10
575.9404069480328872
 20
213.6821585105954
 30
0.0
 40
0.2258971816469994
 50
86.0024813609912258
 51
93.9975186390087885
  0
ARC
  5
BD87
  8
0
 10
575.9404069480328872
 20
214.1328536969170955
 30
0.0
 40
0.2258971885680134
 50
266.0024814836509108
 51
273.9975185163228844
  0
ARC
  5
BD88
  8
0
 10
575.9404069480328872
 20
213.6797786797953904
 30
0.0
 40
0.2258971816469994
 50
86.0024813609912258
 51
93.9975186390087885
  0
ARC
  5
BD89
  8
0
 10
575.9404069480328872
 20
214.1304738661170859
 30
0.0
 40
0.2258971885680134
 50
266.0024814836509108
 51
273.9975185163228844
  0
ARC
  5
BD8A
  8
0
 10
575.9207219432764759
 20
213.6809697371521963
 30
0.0
 40
0.2258971816469994
 50
86.0024813609912258
 51
93.9975186390087885
  0
ARC
  5
BD8B
  8
0
 10
575.9207219432764759
 20
214.1316649234738065
 30
0.0
 40
0.2258971885680134
 50
266.0024814836509108
 51
273.9975185163228844
  0
ARC
  5
BD8C
  8
0
 10
575.920721908732844
 20
213.6833484259954901
 30
0.0
 40
0.2258971816469994
 50
86.0024813609912258
 51
93.9975186390087885
  0
ARC
  5
BD8D
  8
0
 10
575.9207219087329577
 20
214.1340436123169866
 30
0.0
 40
0.2258971885680134
 50
266.0024814836509108
 51
273.9975185163228844
  0
ARC
  5
BD8E
  8
0
 10
575.920721908732844
 20
213.685728256795386
 30
0.0
 40
0.2258971816469994
 50
86.0024813609912258
 51
93.9975186390087885
  0
ARC
  5
BD8F
  8
0
 10
575.9207219087329577
 20
214.1364234431171099
 30
0.0
 40
0.2258971885680134
 50
266.0024814836509108
 51
273.9975185163228844
  0
ARC
  5
BD90
  8
0
 10
575.920721908732844
 20
213.688108087495408
 30
0.0
 40
0.2258971816469994
 50
86.0024813609912258
 51
93.9975186390087885
  0
ARC
  5
BD91
  8
0
 10
575.9207219087329577
 20
214.1388032738169898
 30
0.0
 40
0.2258971885680134
 50
266.0024814836509108
 51
273.9975185163228844
  0
ARC
  5
BD92
  8
0
 10
575.9010368693329838
 20
213.6869181720954032
 30
0.0
 40
0.2258971816469994
 50
86.0024813609912258
 51
93.9975186390087885
  0
ARC
  5
BD93
  8
0
 10
575.9010368693329838
 20
214.1376133584170987
 30
0.0
 40
0.2258971885680134
 50
266.0024814836509108
 51
273.9975185163228844
  0
ARC
  5
BD94
  8
0
 10
575.9010368693329838
 20
213.6845383413954096
 30
0.0
 40
0.2258971816469994
 50
86.0024813609912258
 51
93.9975186390087885
  0
ARC
  5
BD95
  8
0
 10
575.9010368693329838
 20
214.1352335277169914
 30
0.0
 40
0.2258971885680134
 50
266.0024814836509108
 51
273.9975185163228844
  0
ARC
  5
BD96
  8
0
 10
575.9010368693329838
 20
213.6821585105954
 30
0.0
 40
0.2258971816469994
 50
86.0024813609912258
 51
93.9975186390087885
  0
ARC
  5
BD97
  8
0
 10
575.9010368693329838
 20
214.1328536969170955
 30
0.0
 40
0.2258971885680134
 50
266.0024814836509108
 51
273.9975185163228844
  0
ARC
  5
BD98
  8
0
 10
576.1732691860607929
 20
201.7995552775456076
 30
0.0
 40
12.1381773086452096
 50
89.9841481421346856
 51
91.1887159743021698
  0
ARC
  5
BD99
  8
0
 10
576.0015736819145786
 20
210.0740433861375891
 30
0.0
 40
3.8619080521883289
 50
91.1887159624119761
 51
94.123585040328237
  0
ARC
  5
BD9A
  8
0
 10
576.1771420730290174
 20
226.4801114192534897
 30
0.0
 40
12.5860264519884808
 50
269.9976571303998867
 51
270.6068934119742835
  0
ARC
  5
BD9B
  8
0
 10
576.2185269391701468
 20
222.5731823954749018
 30
0.0
 40
8.6788782459449578
 50
270.6068934119742835
 51
271.9328244083902177
  0
ARC
  5
BD9C
  8
0
 10
576.4438962150037469
 20
215.8949711107050859
 30
0.0
 40
1.9968652801900459
 50
271.9328244083902177
 51
274.2839349709578869
  0
ARC
  5
BD9D
  8
0
 10
576.566052177987558
 20
214.2642334979497889
 30
0.0
 40
0.3615588132098582
 50
274.2839349709578869
 51
278.8297332132793827
  0
ARC
  5
BD9E
  8
0
 10
576.6165949920853109
 20
213.938863703342804
 30
0.0
 40
0.0322867686941901
 50
278.8297332132793827
 51
290.8493008277964122
  0
ARC
  5
BD9F
  8
0
 10
576.6272411636125526
 20
213.9109099399840943
 30
0.0
 40
0.0023743322486907
 50
290.8493008277964122
 51
334.4509962452938225
  0
ARC
  5
BDA0
  8
0
 10
576.1766711761698616
 20
201.1447027084984995
 30
0.0
 40
12.7809841758100102
 50
89.5225898188405722
 51
90.0001961518180451
  0
ARC
  5
BDA1
  8
0
 10
576.1949633176669749
 20
203.3399595055296061
 30
0.0
 40
10.5856511697829294
 50
88.8379280315870972
 51
89.5225898477171569
  0
ARC
  5
BDA2
  8
0
 10
576.2841046428611662
 20
207.7344561510275014
 30
0.0
 40
6.1902505119191789
 50
87.9531278937345604
 51
88.8379280315870972
  0
ARC
  5
BDA3
  8
0
 10
576.4175254238690513
 20
211.4675644739988911
 30
0.0
 40
2.4547587295907061
 50
85.8057758093248708
 51
87.9531278937345604
  0
ARC
  5
BDA4
  8
0
 10
576.5782701499649647
 20
213.6595162966353882
 30
0.0
 40
0.2569207783925187
 50
79.8574673739652781
 51
85.8057758093248708
  0
ARC
  5
BDA5
  8
0
 10
576.6196019723163317
 20
213.8905582865261863
 30
0.0
 40
0.022210913598555
 50
67.8232433650807423
 51
79.8574673739652781
  0
ARC
  5
BDA6
  8
0
 10
576.6269047386216471
 20
213.9084739410830878
 30
0.0
 40
0.0028640514780039
 50
37.8689085640791276
 51
67.8232433650801312
  0
ARC
  5
BDA7
  8
0
 10
576.6275424569962524
 20
213.9089698357504119
 30
0.0
 40
0.0020562171840948
 50
26.4569073565345789
 51
37.8689085640674179
  0
LINE
  5
BDA8
  8
0
 10
576.649068365332937
 20
214.090877970587286
 30
0.0
 11
576.649068365332937
 21
214.0475972654735131
 31
0.0
  0
ARC
  5
BDA9
  8
0
 10
576.4923257989172498
 20
214.1540027553720051
 30
0.0
 40
0.1894475135943951
 50
316.3408133053303004
 51
325.8291782842491102
  0
LINE
  5
BDAA
  8
0
 10
576.6293833259032908
 20
214.0326340384567061
 30
0.0
 11
576.6293833259329631
 21
213.9098859310425098
 31
0.0
  0
ARC
  5
BDAB
  8
0
 10
576.722851599396563
 20
213.9301008634097911
 30
0.0
 40
0.1387420993606744
 50
122.1272449824862036
 51
132.3520054905116012
  0
ARC
  5
BDAC
  8
0
 10
576.1965844889710979
 20
204.3432716743791104
 30
0.0
 40
9.7622847413776324
 50
87.8728324788014135
 51
90.1171300187836266
  0
ARC
  5
BDAD
  8
0
 10
576.5259087604389379
 20
213.209625911858609
 30
0.0
 40
0.889816542491372
 50
82.0441434411203829
 51
87.8728324788014135
  0
ARC
  5
BDAE
  8
0
 10
576.6479036508686704
 20
214.0825440122223995
 30
0.0
 40
0.0084149522762218
 50
54.2990833058071374
 51
82.0441434411203829
  0
ARC
  5
BDAF
  8
0
 10
576.6520833495594616
 20
214.0889200723821091
 30
0.0
 40
0.000862264353234
 50
317.1879301474980934
 51
32.0450573631705566
  0
ARC
  5
BDB0
  8
0
 10
576.6480862233397602
 20
214.0933010906551885
 30
0.0
 40
0.0067900696448206
 50
278.3166573987106744
 51
312.9867968533919793
  0
ARC
  5
BDB1
  8
0
 10
576.6090326358581706
 20
213.9098770135157963
 30
0.0
 40
0.0006608016796218
 50
349.6668806752168734
 51
46.0374439501316601
  0
ARC
  5
BDB2
  8
0
 10
576.1766505030893768
 20
201.5763974749328895
 30
0.0
 40
12.3486024029662804
 50
89.7471487369443111
 51
90.0001071000519488
  0
ARC
  5
BDB3
  8
0
 10
576.1811285329642942
 20
202.5911068485625037
 30
0.0
 40
11.3338831483528306
 50
89.0985528590560136
 51
89.7471487369443111
  0
ARC
  5
BDB4
  8
0
 10
576.2454231443957724
 20
206.6773208391466028
 30
0.0
 40
7.2471633666814261
 50
88.2243645919393487
 51
89.0985528590560136
  0
ARC
  5
BDB5
  8
0
 10
576.3636196968315062
 20
210.4900379047550132
 30
0.0
 40
3.4326146584606589
 50
87.1391657956101255
 51
88.2243645919393487
  0
ARC
  5
BDB6
  8
0
 10
576.4716223680642315
 20
212.6512794941401125
 30
0.0
 40
1.2686761693438111
 50
84.7256247619306464
 51
87.1391657956101255
  0
ARC
  5
BDB7
  8
0
 10
576.5749286181155639
 20
213.7703282627497003
 30
0.0
 40
0.1448691005697437
 50
77.3875739377605925
 51
84.7256247619306464
  0
ARC
  5
BDB8
  8
0
 10
576.6048828170113438
 20
213.9041992611103922
 30
0.0
 40
0.0076878400653705
 50
53.1688890504569613
 51
77.3875739377605925
  0
ARC
  5
BDB9
  8
0
 10
576.6089374037411517
 20
213.9099566484526065
 30
0.0
 40
0.0007712104880504
 50
316.9652242700124134
 51
345.1107602478558078
  0
ARC
  5
BDBA
  8
0
 10
576.6076407788179949
 20
213.911167242928002
 30
0.0
 40
0.0025451256988182
 50
291.8691384101903736
 51
316.9652242700124134
  0
ARC
  5
BDBB
  8
0
 10
576.592370747111886
 20
213.9556163901258969
 30
0.0
 40
0.0495409553652108
 50
276.5083176467483099
 51
289.1090242208643986
  0
ARC
  5
BDBC
  8
0
 10
576.4904467452397512
 20
214.8509249545647037
 30
0.0
 40
0.9506324742094761
 50
272.1592271076805787
 51
276.4954317275277162
  0
ARC
  5
BDBD
  8
0
 10
576.3272939227980487
 20
218.2559558865725933
 30
0.0
 40
4.359531302121078
 50
271.4036162195139923
 51
272.615894789157494
  0
ARC
  5
BDBE
  8
0
 10
576.2235212818653736
 20
222.2291168672691981
 30
0.0
 40
8.3340445293986836
 50
270.7491658070564995
 51
271.4477382472538238
  0
ARC
  5
BDBF
  8
0
 10
576.1813052884549506
 20
225.2915282581969905
 30
0.0
 40
11.3967463219321896
 50
270.1802018991044747
 51
270.7600814627717227
  0
ARC
  5
BDC0
  8
0
 10
576.1766722693806742
 20
226.2471568964957953
 30
0.0
 40
12.3523849123802503
 50
269.9997919711386771
 51
270.1877506693091959
  0
ARC
  5
BDC1
  8
0
 10
576.1801269387029834
 20
221.1367134809310073
 30
0.0
 40
7.2385193430359589
 50
269.9722999107115129
 51
270.7120004297225933
  0
ARC
  5
BDC2
  8
0
 10
576.1254096428012872
 20
225.5396725412809928
 30
0.0
 40
11.6418183868880796
 50
270.7120004297225933
 51
271.2789522636717265
  0
ARC
  5
BDC3
  8
0
 10
576.3367101144884828
 20
216.0751954605875085
 30
0.0
 40
2.1749828913115898
 50
271.2789522636717265
 51
273.7156577524586965
  0
ARC
  5
BDC4
  8
0
 10
576.4481659815417061
 20
214.3589458800366003
 30
0.0
 40
0.4551180614362453
 50
273.7156577524586965
 51
277.2723773673645269
  0
ARC
  5
BDC5
  8
0
 10
576.5021759104682815
 20
213.9464039001557865
 30
0.0
 40
0.0390812540131121
 50
275.2880264169800739
 51
300.0233035019293766
  0
ARC
  5
BDC6
  8
0
 10
576.5148642059870099
 20
213.9254585874905104
 30
0.0
 40
0.0146064848524587
 50
298.0389525515449236
 51
332.538595764505601
  0
ARC
  5
BDC7
  8
0
 10
576.4345698901495325
 20
214.2029127498151126
 30
0.0
 40
0.3036296810093562
 50
283.109986748841493
 51
284.2574440143607148
  0
ARC
  5
BDC8
  8
0
 10
576.5081803991271272
 20
213.9132284352614874
 30
0.0
 40
0.00473921757782
 50
284.2574440143674224
 51
307.0096882346243774
  0
ARC
  5
BDC9
  8
0
 10
576.5107021084855887
 20
213.909883190962006
 30
0.0
 40
0.0005499840544955
 50
307.0096882346397251
 51
47.5973826389047332
  0
ARC
  5
BDCA
  8
0
 10
576.1766943697335819
 20
204.470469815188693
 30
0.0
 40
9.4510950595250041
 50
89.5468992855384869
 51
90.000405869317234
  0
ARC
  5
BDCB
  8
0
 10
576.1896679894426825
 20
206.1109840209988135
 30
0.0
 40
7.8105295551110432
 50
88.7549501975726542
 51
89.5468992855384869
  0
ARC
  5
BDCC
  8
0
 10
576.2741862400544051
 20
209.9998058166627004
 30
0.0
 40
3.9207894232876841
 50
87.5541723829572192
 51
88.7549501975726542
  0
ARC
  5
BDCD
  8
0
 10
576.3890949066859548
 20
212.690012604398504
 30
0.0
 40
1.228129667127118
 50
85.3170423227803809
 51
87.5541723829572192
  0
ARC
  5
BDCE
  8
0
 10
576.475646395724084
 20
213.746607145303102
 30
0.0
 40
0.1679960981254924
 50
78.6031251847845454
 51
85.3170423227803809
  0
ARC
  5
BDCF
  8
0
 10
576.5077518114695749
 20
213.9058771002125923
 30
0.0
 40
0.0055224810147045
 50
53.0304045126638002
 51
78.6031251847845454
  0
ARC
  5
BDD0
  8
0
 10
576.1963124598329387
 20
213.676208933695392
 30
0.0
 40
0.2258971816469994
 50
86.0024813609912258
 51
93.9975186390087885
  0
ARC
  5
BDD1
  8
0
 10
576.1963124598329387
 20
214.1269041200170875
 30
0.0
 40
0.2258971885680134
 50
266.002481483677002
 51
273.9975185163490892
  0
ARC
  5
BDD2
  8
0
 10
576.1963124598329387
 20
213.6785887644954016
 30
0.0
 40
0.2258971816469994
 50
86.0024813609912258
 51
93.9975186390087885
  0
ARC
  5
BDD3
  8
0
 10
576.1963124598329387
 20
214.1292839508170971
 30
0.0
 40
0.2258971885680134
 50
266.002481483677002
 51
273.9975185163490892
  0
ARC
  5
BDD4
  8
0
 10
576.1963124598329387
 20
213.6809685951955089
 30
0.0
 40
0.2258971816469994
 50
86.0024813609912258
 51
93.9975186390087885
  0
ARC
  5
BDD5
  8
0
 10
576.1963124598329387
 20
214.1316637815170907
 30
0.0
 40
0.2258971885680134
 50
266.002481483677002
 51
273.9975185163490892
  0
ARC
  5
BDD6
  8
0
 10
576.1963124598329387
 20
213.6833484259954901
 30
0.0
 40
0.2258971816469994
 50
86.0024813609912258
 51
93.9975186390087885
  0
ARC
  5
BDD7
  8
0
 10
576.1963124598329387
 20
214.1340436123169866
 30
0.0
 40
0.2258971885680134
 50
266.002481483677002
 51
273.9975185163490892
  0
ARC
  5
BDD8
  8
0
 10
576.1963124598329387
 20
213.685728256795386
 30
0.0
 40
0.2258971816469994
 50
86.0024813609912258
 51
93.9975186390087885
  0
ARC
  5
BDD9
  8
0
 10
576.1963124598329387
 20
214.1364234431171099
 30
0.0
 40
0.2258971885680134
 50
266.002481483677002
 51
273.9975185163490892
  0
ARC
  5
BDDA
  8
0
 10
576.1963124598329387
 20
213.688108087495408
 30
0.0
 40
0.2258971816469994
 50
86.0024813609912258
 51
93.9975186390087885
  0
ARC
  5
BDDB
  8
0
 10
576.1963124598329387
 20
214.1388032738169898
 30
0.0
 40
0.2258971885680134
 50
266.002481483677002
 51
273.9975185163490892
  0
ARC
  5
BDDC
  8
0
 10
576.1963124598329387
 20
213.6904879182953891
 30
0.0
 40
0.2258971816469994
 50
86.0024813609912258
 51
93.9975186390087885
  0
ARC
  5
BDDD
  8
0
 10
576.1963124598329387
 20
214.141183104617113
 30
0.0
 40
0.2258971885680134
 50
266.002481483677002
 51
273.9975185163490892
  0
ARC
  5
BDDE
  8
0
 10
576.1963124598329387
 20
213.6928677490955124
 30
0.0
 40
0.2258971816469994
 50
86.0024813609912258
 51
93.9975186390087885
  0
ARC
  5
BDDF
  8
0
 10
576.1963124598329387
 20
214.1435629354170089
 30
0.0
 40
0.2258971885680134
 50
266.002481483677002
 51
273.9975185163490892
  0
ARC
  5
BDE0
  8
0
 10
576.2159974646881437
 20
213.6940588063945938
 30
0.0
 40
0.2258971816469994
 50
86.0024813609912258
 51
93.9975186390087885
  0
ARC
  5
BDE1
  8
0
 10
576.2159974646881437
 20
214.1447539927162893
 30
0.0
 40
0.2258971885680134
 50
266.002481483677002
 51
273.9975185163490892
  0
ARC
  5
BDE2
  8
0
 10
576.2159974992330262
 20
213.6916778339694076
 30
0.0
 40
0.2258971816469994
 50
86.0024813609912258
 51
93.9975186390087885
  0
ARC
  5
BDE3
  8
0
 10
576.2159974992329126
 20
214.1423730202909894
 30
0.0
 40
0.2258971885680134
 50
266.002481483677002
 51
273.9975185163490892
  0
ARC
  5
BDE4
  8
0
 10
576.2159974992330262
 20
213.6892980028954128
 30
0.0
 40
0.2258971816469994
 50
86.0024813609912258
 51
93.9975186390087885
  0
ARC
  5
BDE5
  8
0
 10
576.2159974992329126
 20
214.1399931892169946
 30
0.0
 40
0.2258971885680134
 50
266.002481483677002
 51
273.9975185163490892
  0
ARC
  5
BDE6
  8
0
 10
576.2159974992330262
 20
213.6869181720954032
 30
0.0
 40
0.2258971816469994
 50
86.0024813609912258
 51
93.9975186390087885
  0
ARC
  5
BDE7
  8
0
 10
576.2159974992329126
 20
214.1376133584170987
 30
0.0
 40
0.2258971885680134
 50
266.002481483677002
 51
273.9975185163490892
  0
ARC
  5
BDE8
  8
0
 10
576.2159974992330262
 20
213.6845383413954096
 30
0.0
 40
0.2258971816469994
 50
86.0024813609912258
 51
93.9975186390087885
  0
ARC
  5
BDE9
  8
0
 10
576.2159974992329126
 20
214.1352335277169914
 30
0.0
 40
0.2258971885680134
 50
266.002481483677002
 51
273.9975185163490892
  0
ARC
  5
BDEA
  8
0
 10
576.2159974992330262
 20
213.6821585105954
 30
0.0
 40
0.2258971816469994
 50
86.0024813609912258
 51
93.9975186390087885
  0
ARC
  5
BDEB
  8
0
 10
576.2159974992329126
 20
214.1328536969170955
 30
0.0
 40
0.2258971885680134
 50
266.002481483677002
 51
273.9975185163490892
  0
ARC
  5
BDEC
  8
0
 10
576.2159974992330262
 20
213.6797786797953904
 30
0.0
 40
0.2258971816469994
 50
86.0024813609912258
 51
93.9975186390087885
  0
ARC
  5
BDED
  8
0
 10
576.2159974992329126
 20
214.1304738661170859
 30
0.0
 40
0.2258971885680134
 50
266.002481483677002
 51
273.9975185163490892
  0
ARC
  5
BDEE
  8
0
 10
576.2159974992330262
 20
213.6773988490955105
 30
0.0
 40
0.2258971816469994
 50
86.0024813609912258
 51
93.9975186390087885
  0
ARC
  5
BDEF
  8
0
 10
576.2159974992329126
 20
214.1280940354170923
 30
0.0
 40
0.2258971885680134
 50
266.002481483677002
 51
273.9975185163490892
  0
ARC
  5
BDF0
  8
0
 10
576.2159974992330262
 20
213.6750190182953872
 30
0.0
 40
0.2258971816469994
 50
86.0024813609912258
 51
93.9975186390087885
  0
ARC
  5
BDF1
  8
0
 10
576.2159974992329126
 20
214.1257142046171111
 30
0.0
 40
0.2258971885680134
 50
266.002481483677002
 51
273.9975185163490892
  0
ARC
  5
BDF2
  8
0
 10
576.2356825385329557
 20
213.676208933695392
 30
0.0
 40
0.2258971816469994
 50
86.0024813609912258
 51
93.9975186390087885
  0
ARC
  5
BDF3
  8
0
 10
576.2356825385329557
 20
214.1269041200170875
 30
0.0
 40
0.2258971885680134
 50
266.002481483677002
 51
273.9975185163490892
  0
ARC
  5
BDF4
  8
0
 10
576.2356825385329557
 20
213.6785887644954016
 30
0.0
 40
0.2258971816469994
 50
86.0024813609912258
 51
93.9975186390087885
  0
ARC
  5
BDF5
  8
0
 10
576.2356825385329557
 20
214.1292839508170971
 30
0.0
 40
0.2258971885680134
 50
266.002481483677002
 51
273.9975185163490892
  0
ARC
  5
BDF6
  8
0
 10
576.2356825385329557
 20
213.6809685951955089
 30
0.0
 40
0.2258971816469994
 50
86.0024813609912258
 51
93.9975186390087885
  0
ARC
  5
BDF7
  8
0
 10
576.2356825385329557
 20
214.1316637815170907
 30
0.0
 40
0.2258971885680134
 50
266.002481483677002
 51
273.9975185163490892
  0
ARC
  5
BDF8
  8
0
 10
576.2356825385329557
 20
213.6833484259954901
 30
0.0
 40
0.2258971816469994
 50
86.0024813609912258
 51
93.9975186390087885
  0
ARC
  5
BDF9
  8
0
 10
576.2356825385329557
 20
214.1340436123169866
 30
0.0
 40
0.2258971885680134
 50
266.002481483677002
 51
273.9975185163490892
  0
ARC
  5
BDFA
  8
0
 10
576.2356825385329557
 20
213.685728256795386
 30
0.0
 40
0.2258971816469994
 50
86.0024813609912258
 51
93.9975186390087885
  0
ARC
  5
BDFB
  8
0
 10
576.2356825385329557
 20
214.1364234431171099
 30
0.0
 40
0.2258971885680134
 50
266.002481483677002
 51
273.9975185163490892
  0
ARC
  5
BDFC
  8
0
 10
576.2356825385329557
 20
213.688108087495408
 30
0.0
 40
0.2258971816469994
 50
86.0024813609912258
 51
93.9975186390087885
  0
ARC
  5
BDFD
  8
0
 10
576.2356825385329557
 20
214.1388032738169898
 30
0.0
 40
0.2258971885680134
 50
266.002481483677002
 51
273.9975185163490892
  0
ARC
  5
BDFE
  8
0
 10
576.2356825385329557
 20
213.6904879182953891
 30
0.0
 40
0.2258971816469994
 50
86.0024813609912258
 51
93.9975186390087885
  0
ARC
  5
BDFF
  8
0
 10
576.2356825385329557
 20
214.141183104617113
 30
0.0
 40
0.2258971885680134
 50
266.002481483677002
 51
273.9975185163490892
  0
ARC
  5
BE00
  8
0
 10
576.2356825385329557
 20
213.6928677490955124
 30
0.0
 40
0.2258971816469994
 50
86.0024813609912258
 51
93.9975186390087885
  0
ARC
  5
BE01
  8
0
 10
576.2356825385329557
 20
214.1435629354170089
 30
0.0
 40
0.2258971885680134
 50
266.002481483677002
 51
273.9975185163490892
  0
ARC
  5
BE02
  8
0
 10
576.2553675433881608
 20
213.6940588063945938
 30
0.0
 40
0.2258971816469994
 50
86.0024813609912258
 51
93.9975186390087885
  0
ARC
  5
BE03
  8
0
 10
576.2553675433880471
 20
214.1447539927162893
 30
0.0
 40
0.2258971885680134
 50
266.002481483677002
 51
273.9975185163490892
  0
ARC
  5
BE04
  8
0
 10
576.2553675779328159
 20
213.6916778339694076
 30
0.0
 40
0.2258971816469994
 50
86.0024813609912258
 51
93.9975186390087885
  0
ARC
  5
BE05
  8
0
 10
576.2553675779328159
 20
214.1423730202909894
 30
0.0
 40
0.2258971885680134
 50
266.002481483677002
 51
273.9975185163490892
  0
ARC
  5
BE06
  8
0
 10
576.2553675779328159
 20
213.6892980028954128
 30
0.0
 40
0.2258971816469994
 50
86.0024813609912258
 51
93.9975186390087885
  0
ARC
  5
BE07
  8
0
 10
576.2553675779328159
 20
214.1399931892169946
 30
0.0
 40
0.2258971885680134
 50
266.002481483677002
 51
273.9975185163490892
  0
ARC
  5
BE08
  8
0
 10
576.2553675779328159
 20
213.6869181720954032
 30
0.0
 40
0.2258971816469994
 50
86.0024813609912258
 51
93.9975186390087885
  0
ARC
  5
BE09
  8
0
 10
576.2553675779328159
 20
214.1376133584170987
 30
0.0
 40
0.2258971885680134
 50
266.002481483677002
 51
273.9975185163490892
  0
ARC
  5
BE0A
  8
0
 10
576.2553675779328159
 20
213.6845383413954096
 30
0.0
 40
0.2258971816469994
 50
86.0024813609912258
 51
93.9975186390087885
  0
ARC
  5
BE0B
  8
0
 10
576.2553675779328159
 20
214.1352335277169914
 30
0.0
 40
0.2258971885680134
 50
266.002481483677002
 51
273.9975185163490892
  0
ARC
  5
BE0C
  8
0
 10
576.2553675779328159
 20
213.6821585105954
 30
0.0
 40
0.2258971816469994
 50
86.0024813609912258
 51
93.9975186390087885
  0
ARC
  5
BE0D
  8
0
 10
576.2553675779328159
 20
214.1328536969170955
 30
0.0
 40
0.2258971885680134
 50
266.002481483677002
 51
273.9975185163490892
  0
ARC
  5
BE0E
  8
0
 10
576.2553675779328159
 20
213.6797786797953904
 30
0.0
 40
0.2258971816469994
 50
86.0024813609912258
 51
93.9975186390087885
  0
ARC
  5
BE0F
  8
0
 10
576.2553675779328159
 20
214.1304738661170859
 30
0.0
 40
0.2258971885680134
 50
266.002481483677002
 51
273.9975185163490892
  0
ARC
  5
BE10
  8
0
 10
576.2553675779328159
 20
213.6773988490955105
 30
0.0
 40
0.2258971816469994
 50
86.0024813609912258
 51
93.9975186390087885
  0
ARC
  5
BE11
  8
0
 10
576.2553675779328159
 20
214.1280940354170923
 30
0.0
 40
0.2258971885680134
 50
266.002481483677002
 51
273.9975185163490892
  0
ARC
  5
BE12
  8
0
 10
576.2553675779328159
 20
213.6750190182953872
 30
0.0
 40
0.2258971816469994
 50
86.0024813609912258
 51
93.9975186390087885
  0
ARC
  5
BE13
  8
0
 10
576.2553675779328159
 20
214.1257142046171111
 30
0.0
 40
0.2258971885680134
 50
266.002481483677002
 51
273.9975185163490892
  0
ARC
  5
BE14
  8
0
 10
576.2750525827882484
 20
213.676210075694712
 30
0.0
 40
0.2258971816469994
 50
86.0024813609912258
 51
93.9975186390087885
  0
ARC
  5
BE15
  8
0
 10
576.2750525827881347
 20
214.1269052620164075
 30
0.0
 40
0.2258971885680134
 50
266.002481483677002
 51
273.9975185163490892
  0
ARC
  5
BE16
  8
0
 10
576.2750526173330172
 20
213.678588764221189
 30
0.0
 40
0.2258971816469994
 50
86.0024813609912258
 51
93.9975186390087885
  0
ARC
  5
BE17
  8
0
 10
576.2750526173329035
 20
214.1292839505429129
 30
0.0
 40
0.2258971885680134
 50
266.002481483677002
 51
273.9975185163490892
  0
ARC
  5
BE18
  8
0
 10
576.2750526173330172
 20
213.6809685951955089
 30
0.0
 40
0.2258971816469994
 50
86.0024813609912258
 51
93.9975186390087885
  0
ARC
  5
BE19
  8
0
 10
576.2750526173329035
 20
214.1316637815170907
 30
0.0
 40
0.2258971885680134
 50
266.002481483677002
 51
273.9975185163490892
  0
ARC
  5
BE1A
  8
0
 10
576.2750526173330172
 20
213.6833484259954901
 30
0.0
 40
0.2258971816469994
 50
86.0024813609912258
 51
93.9975186390087885
  0
ARC
  5
BE1B
  8
0
 10
576.2750526173329035
 20
214.1340436123169866
 30
0.0
 40
0.2258971885680134
 50
266.002481483677002
 51
273.9975185163490892
  0
ARC
  5
BE1C
  8
0
 10
576.2750526173330172
 20
213.685728256795386
 30
0.0
 40
0.2258971816469994
 50
86.0024813609912258
 51
93.9975186390087885
  0
ARC
  5
BE1D
  8
0
 10
576.2750526173329035
 20
214.1364234431171099
 30
0.0
 40
0.2258971885680134
 50
266.002481483677002
 51
273.9975185163490892
  0
ARC
  5
BE1E
  8
0
 10
576.2750526173330172
 20
213.688108087495408
 30
0.0
 40
0.2258971816469994
 50
86.0024813609912258
 51
93.9975186390087885
  0
ARC
  5
BE1F
  8
0
 10
576.2750526173329035
 20
214.1388032738169898
 30
0.0
 40
0.2258971885680134
 50
266.002481483677002
 51
273.9975185163490892
  0
ARC
  5
BE20
  8
0
 10
576.2750526173330172
 20
213.6904879182953891
 30
0.0
 40
0.2258971816469994
 50
86.0024813609912258
 51
93.9975186390087885
  0
ARC
  5
BE21
  8
0
 10
576.2750526173329035
 20
214.141183104617113
 30
0.0
 40
0.2258971885680134
 50
266.002481483677002
 51
273.9975185163490892
  0
ARC
  5
BE22
  8
0
 10
576.2750526173330172
 20
213.6928677490955124
 30
0.0
 40
0.2258971816469994
 50
86.0024813609912258
 51
93.9975186390087885
  0
ARC
  5
BE23
  8
0
 10
576.2750526173329035
 20
214.1435629354170089
 30
0.0
 40
0.2258971885680134
 50
266.002481483677002
 51
273.9975185163490892
  0
ARC
  5
BE24
  8
0
 10
576.2947376566329467
 20
213.6916778336955076
 30
0.0
 40
0.2258971816469994
 50
86.0024813609912258
 51
93.9975186390087885
  0
ARC
  5
BE25
  8
0
 10
576.2947376566329467
 20
214.1423730200170894
 30
0.0
 40
0.2258971885680134
 50
266.002481483677002
 51
273.9975185163490892
  0
ARC
  5
BE26
  8
0
 10
576.2947376566329467
 20
213.6892980028954128
 30
0.0
 40
0.2258971816469994
 50
86.0024813609912258
 51
93.9975186390087885
  0
ARC
  5
BE27
  8
0
 10
576.2947376566329467
 20
214.1399931892169946
 30
0.0
 40
0.2258971885680134
 50
266.002481483677002
 51
273.9975185163490892
  0
ARC
  5
BE28
  8
0
 10
576.2947376566329467
 20
213.6869181720954032
 30
0.0
 40
0.2258971816469994
 50
86.0024813609912258
 51
93.9975186390087885
  0
ARC
  5
BE29
  8
0
 10
576.2947376566329467
 20
214.1376133584170987
 30
0.0
 40
0.2258971885680134
 50
266.002481483677002
 51
273.9975185163490892
  0
ARC
  5
BE2A
  8
0
 10
576.2947376566329467
 20
213.6845383413954096
 30
0.0
 40
0.2258971816469994
 50
86.0024813609912258
 51
93.9975186390087885
  0
ARC
  5
BE2B
  8
0
 10
576.2947376566329467
 20
214.1352335277169914
 30
0.0
 40
0.2258971885680134
 50
266.002481483677002
 51
273.9975185163490892
  0
ARC
  5
BE2C
  8
0
 10
576.2947376566329467
 20
213.6821585105954
 30
0.0
 40
0.2258971816469994
 50
86.0024813609912258
 51
93.9975186390087885
  0
ARC
  5
BE2D
  8
0
 10
576.2947376566329467
 20
214.1328536969170955
 30
0.0
 40
0.2258971885680134
 50
266.002481483677002
 51
273.9975185163490892
  0
ARC
  5
BE2E
  8
0
 10
576.2947376566329467
 20
213.6797786797953904
 30
0.0
 40
0.2258971816469994
 50
86.0024813609912258
 51
93.9975186390087885
  0
ARC
  5
BE2F
  8
0
 10
576.2947376566329467
 20
214.1304738661170859
 30
0.0
 40
0.2258971885680134
 50
266.002481483677002
 51
273.9975185163490892
  0
ARC
  5
BE30
  8
0
 10
576.2943748088954408
 20
213.6775160060028895
 30
0.0
 40
0.2258971816469994
 50
86.0024813609912258
 51
93.9975186390087885
  0
ARC
  5
BE31
  8
0
 10
576.2943748088953271
 20
214.1282111923244997
 30
0.0
 40
0.2258971885680134
 50
266.002481483677002
 51
273.9975185163490892
  0
ARC
  5
BE32
  8
0
 10
576.3144226960330343
 20
213.676208933695392
 30
0.0
 40
0.2258971816469994
 50
86.0024813609912258
 51
93.9975186390087885
  0
ARC
  5
BE33
  8
0
 10
576.3144226960329206
 20
214.1269041200170875
 30
0.0
 40
0.2258971885680134
 50
266.002481483677002
 51
273.9975185163490892
  0
ARC
  5
BE34
  8
0
 10
576.3144226960330343
 20
213.6785887644954016
 30
0.0
 40
0.2258971816469994
 50
86.0024813609912258
 51
93.9975186390087885
  0
ARC
  5
BE35
  8
0
 10
576.3144226960329206
 20
214.1292839508170971
 30
0.0
 40
0.2258971885680134
 50
266.002481483677002
 51
273.9975185163490892
  0
ARC
  5
BE36
  8
0
 10
576.3144226960330343
 20
213.6809685951955089
 30
0.0
 40
0.2258971816469994
 50
86.0024813609912258
 51
93.9975186390087885
  0
ARC
  5
BE37
  8
0
 10
576.3144226960329206
 20
214.1316637815170907
 30
0.0
 40
0.2258971885680134
 50
266.002481483677002
 51
273.9975185163490892
  0
ARC
  5
BE38
  8
0
 10
576.3144226960330343
 20
213.6833484259954901
 30
0.0
 40
0.2258971816469994
 50
86.0024813609912258
 51
93.9975186390087885
  0
ARC
  5
BE39
  8
0
 10
576.3144226960329206
 20
214.1340436123169866
 30
0.0
 40
0.2258971885680134
 50
266.002481483677002
 51
273.9975185163490892
  0
ARC
  5
BE3A
  8
0
 10
576.3144226960330343
 20
213.685728256795386
 30
0.0
 40
0.2258971816469994
 50
86.0024813609912258
 51
93.9975186390087885
  0
ARC
  5
BE3B
  8
0
 10
576.3144226960329206
 20
214.1364234431171099
 30
0.0
 40
0.2258971885680134
 50
266.002481483677002
 51
273.9975185163490892
  0
ARC
  5
BE3C
  8
0
 10
576.3140598451757342
 20
213.6879909288784916
 30
0.0
 40
0.2258971816469994
 50
86.0024813609912258
 51
93.9975186390087885
  0
ARC
  5
BE3D
  8
0
 10
576.3140598451757342
 20
214.1386861152001018
 30
0.0
 40
0.2258971885680134
 50
266.002481483677002
 51
273.9975185163490892
  0
ARC
  5
BE3E
  8
0
 10
576.314422496677139
 20
213.6904851752871934
 30
0.0
 40
0.2258971816469994
 50
86.0024813609912258
 51
93.9975186390087885
  0
ARC
  5
BE3F
  8
0
 10
576.3144224966770253
 20
214.1411803616088037
 30
0.0
 40
0.2258971885680134
 50
266.002481483677002
 51
273.9975185163490892
  0
ARC
  5
BE40
  8
0
 10
576.3144226960329206
 20
213.6928677475156064
 30
0.0
 40
0.2258971816469994
 50
86.0024813609912258
 51
93.9975186390087885
  0
ARC
  5
BE41
  8
0
 10
576.3144226960328069
 20
214.1435629338371882
 30
0.0
 40
0.2258971885680134
 50
266.002481483677002
 51
273.9975185163490892
  0
ARC
  5
BE42
  8
0
 10
576.3341077008868751
 20
213.6916766916559993
 30
0.0
 40
0.2258971816469994
 50
86.0024813609912258
 51
93.9975186390087885
  0
ARC
  5
BE43
  8
0
 10
576.3341077008868751
 20
214.1423718779776095
 30
0.0
 40
0.2258971885680134
 50
266.002481483677002
 51
273.9975185163490892
  0
ARC
  5
BE44
  8
0
 10
576.3341077354330082
 20
213.6892980031697107
 30
0.0
 40
0.2258971816469994
 50
86.0024813609912258
 51
93.9975186390087885
  0
ARC
  5
BE45
  8
0
 10
576.3341077354327808
 20
214.1399931894912925
 30
0.0
 40
0.2258971885680134
 50
266.002481483677002
 51
273.9975185163490892
  0
ARC
  5
BE46
  8
0
 10
576.3341077354330082
 20
213.6869181720954032
 30
0.0
 40
0.2258971816469994
 50
86.0024813609912258
 51
93.9975186390087885
  0
ARC
  5
BE47
  8
0
 10
576.3341077354327808
 20
214.1376133584170987
 30
0.0
 40
0.2258971885680134
 50
266.002481483677002
 51
273.9975185163490892
  0
ARC
  5
BE48
  8
0
 10
576.3341077354330082
 20
213.6845383413954096
 30
0.0
 40
0.2258971816469994
 50
86.0024813609912258
 51
93.9975186390087885
  0
ARC
  5
BE49
  8
0
 10
576.3341077354327808
 20
214.1352335277169914
 30
0.0
 40
0.2258971885680134
 50
266.002481483677002
 51
273.9975185163490892
  0
ARC
  5
BE4A
  8
0
 10
576.3341077354330082
 20
213.6821585105954
 30
0.0
 40
0.2258971816469994
 50
86.0024813609912258
 51
93.9975186390087885
  0
ARC
  5
BE4B
  8
0
 10
576.3341077354327808
 20
214.1328536969170955
 30
0.0
 40
0.2258971885680134
 50
266.002481483677002
 51
273.9975185163490892
  0
ARC
  5
BE4C
  8
0
 10
576.3341077354330082
 20
213.6797786797953904
 30
0.0
 40
0.2258971816469994
 50
86.0024813609912258
 51
93.9975186390087885
  0
ARC
  5
BE4D
  8
0
 10
576.3341077354327808
 20
214.1304738661170859
 30
0.0
 40
0.2258971885680134
 50
266.002481483677002
 51
273.9975185163490892
  0
ARC
  5
BE4E
  8
0
 10
576.3341077354330082
 20
213.6773988490955105
 30
0.0
 40
0.2258971816469994
 50
86.0024813609912258
 51
93.9975186390087885
  0
ARC
  5
BE4F
  8
0
 10
576.3341077354327808
 20
214.1280940354170923
 30
0.0
 40
0.2258971885680134
 50
266.002481483677002
 51
273.9975185163490892
  0
ARC
  5
BE50
  8
0
 10
576.3537927748329821
 20
213.6785887644954016
 30
0.0
 40
0.2258971816469994
 50
86.0024813609912258
 51
93.9975186390087885
  0
ARC
  5
BE51
  8
0
 10
576.3537927748329821
 20
214.1292839508170971
 30
0.0
 40
0.2258971885680134
 50
266.002481483677002
 51
273.9975185163490892
  0
ARC
  5
BE52
  8
0
 10
576.3537927748329821
 20
213.6809685951955089
 30
0.0
 40
0.2258971816469994
 50
86.0024813609912258
 51
93.9975186390087885
  0
ARC
  5
BE53
  8
0
 10
576.3537927748329821
 20
214.1316637815170907
 30
0.0
 40
0.2258971885680134
 50
266.002481483677002
 51
273.9975185163490892
  0
ARC
  5
BE54
  8
0
 10
576.3537927748329821
 20
213.6833484259954901
 30
0.0
 40
0.2258971816469994
 50
86.0024813609912258
 51
93.9975186390087885
  0
ARC
  5
BE55
  8
0
 10
576.3537927748329821
 20
214.1340436123169866
 30
0.0
 40
0.2258971885680134
 50
266.002481483677002
 51
273.9975185163490892
  0
ARC
  5
BE56
  8
0
 10
576.3537927748329821
 20
213.685728256795386
 30
0.0
 40
0.2258971816469994
 50
86.0024813609912258
 51
93.9975186390087885
  0
ARC
  5
BE57
  8
0
 10
576.3537927748329821
 20
214.1364234431171099
 30
0.0
 40
0.2258971885680134
 50
266.002481483677002
 51
273.9975185163490892
  0
ARC
  5
BE58
  8
0
 10
576.3537927748329821
 20
213.688108087495408
 30
0.0
 40
0.2258971816469994
 50
86.0024813609912258
 51
93.9975186390087885
  0
ARC
  5
BE59
  8
0
 10
576.3537927748329821
 20
214.1388032738169898
 30
0.0
 40
0.2258971885680134
 50
266.002481483677002
 51
273.9975185163490892
  0
ARC
  5
BE5A
  8
0
 10
576.3537927748329821
 20
213.6904879182953891
 30
0.0
 40
0.2258971816469994
 50
86.0024813609912258
 51
93.9975186390087885
  0
ARC
  5
BE5B
  8
0
 10
576.3537927748329821
 20
214.141183104617113
 30
0.0
 40
0.2258971885680134
 50
266.002481483677002
 51
273.9975185163490892
  0
ARC
  5
BE5C
  8
0
 10
576.3734778141330253
 20
213.6916778336955076
 30
0.0
 40
0.2258971816469994
 50
86.0024813609912258
 51
93.9975186390087885
  0
ARC
  5
BE5D
  8
0
 10
576.3734778141329116
 20
214.1423730200170894
 30
0.0
 40
0.2258971885680134
 50
266.002481483677002
 51
273.9975185163490892
  0
ARC
  5
BE5E
  8
0
 10
576.3734778141330253
 20
213.6892980028954128
 30
0.0
 40
0.2258971816469994
 50
86.0024813609912258
 51
93.9975186390087885
  0
ARC
  5
BE5F
  8
0
 10
576.3734778141329116
 20
214.1399931892169946
 30
0.0
 40
0.2258971885680134
 50
266.002481483677002
 51
273.9975185163490892
  0
ARC
  5
BE60
  8
0
 10
576.3734778141330253
 20
213.6869181720954032
 30
0.0
 40
0.2258971816469994
 50
86.0024813609912258
 51
93.9975186390087885
  0
ARC
  5
BE61
  8
0
 10
576.3734778141329116
 20
214.1376133584170987
 30
0.0
 40
0.2258971885680134
 50
266.002481483677002
 51
273.9975185163490892
  0
ARC
  5
BE62
  8
0
 10
576.3734778141330253
 20
213.6845383413954096
 30
0.0
 40
0.2258971816469994
 50
86.0024813609912258
 51
93.9975186390087885
  0
ARC
  5
BE63
  8
0
 10
576.3734778141329116
 20
214.1352335277169914
 30
0.0
 40
0.2258971885680134
 50
266.002481483677002
 51
273.9975185163490892
  0
ARC
  5
BE64
  8
0
 10
576.3734778141330253
 20
213.6821585105954
 30
0.0
 40
0.2258971816469994
 50
86.0024813609912258
 51
93.9975186390087885
  0
ARC
  5
BE65
  8
0
 10
576.3734778141329116
 20
214.1328536969170955
 30
0.0
 40
0.2258971885680134
 50
266.002481483677002
 51
273.9975185163490892
  0
ARC
  5
BE66
  8
0
 10
576.3734778141330253
 20
213.6797786797953904
 30
0.0
 40
0.2258971816469994
 50
86.0024813609912258
 51
93.9975186390087885
  0
ARC
  5
BE67
  8
0
 10
576.3734778141329116
 20
214.1304738661170859
 30
0.0
 40
0.2258971885680134
 50
266.002481483677002
 51
273.9975185163490892
  0
ARC
  5
BE68
  8
0
 10
576.3734778141330253
 20
213.6773988490955105
 30
0.0
 40
0.2258971816469994
 50
86.0024813609912258
 51
93.9975186390087885
  0
ARC
  5
BE69
  8
0
 10
576.3734778141329116
 20
214.1280940354170923
 30
0.0
 40
0.2258971885680134
 50
266.002481483677002
 51
273.9975185163490892
  0
ARC
  5
BE6A
  8
0
 10
576.3931628535328855
 20
213.6785887644954016
 30
0.0
 40
0.2258971816469994
 50
86.0024813609912258
 51
93.9975186390087885
  0
ARC
  5
BE6B
  8
0
 10
576.3931628535328855
 20
214.1292839508170971
 30
0.0
 40
0.2258971885680134
 50
266.002481483677002
 51
273.9975185163490892
  0
ARC
  5
BE6C
  8
0
 10
576.393162857556149
 20
213.6809689803243941
 30
0.0
 40
0.2258971816469994
 50
86.0024813609912258
 51
93.9975186390087885
  0
ARC
  5
BE6D
  8
0
 10
576.393162857556149
 20
214.1316641666460043
 30
0.0
 40
0.2258971885680134
 50
266.002481483677002
 51
273.9975185163490892
  0
ARC
  5
BE6E
  8
0
 10
576.3931628535328855
 20
213.6833484259954901
 30
0.0
 40
0.2258971816469994
 50
86.0024813609912258
 51
93.9975186390087885
  0
ARC
  5
BE6F
  8
0
 10
576.3931628535328855
 20
214.1340436123169866
 30
0.0
 40
0.2258971885680134
 50
266.002481483677002
 51
273.9975185163490892
  0
ARC
  5
BE70
  8
0
 10
576.3928000063740456
 20
213.6856110973484135
 30
0.0
 40
0.2258971816469994
 50
86.0024813609912258
 51
93.9975186390087885
  0
ARC
  5
BE71
  8
0
 10
576.3928000063740456
 20
214.1363062836699953
 30
0.0
 40
0.2258971885680134
 50
266.002481483677002
 51
273.9975185163490892
  0
ARC
  5
BE72
  8
0
 10
576.3931626541813102
 20
213.6881053445160035
 30
0.0
 40
0.2258971816469994
 50
86.0024813609912258
 51
93.9975186390087885
  0
ARC
  5
BE73
  8
0
 10
576.3931626541810829
 20
214.1388005308376137
 30
0.0
 40
0.2258971885680134
 50
266.002481483677002
 51
273.9975185163490892
  0
ARC
  5
BE74
  8
0
 10
576.3931628535328855
 20
213.6904879182953891
 30
0.0
 40
0.2258971816469994
 50
86.0024813609912258
 51
93.9975186390087885
  0
ARC
  5
BE75
  8
0
 10
576.3931628535328855
 20
214.141183104617113
 30
0.0
 40
0.2258971885680134
 50
266.002481483677002
 51
273.9975185163490892
  0
ARC
  5
BE76
  8
0
 10
576.4128478929328594
 20
213.6892980028954128
 30
0.0
 40
0.2258971816469994
 50
86.0024813609912258
 51
93.9975186390087885
  0
ARC
  5
BE77
  8
0
 10
576.4128478929328594
 20
214.1399931892169946
 30
0.0
 40
0.2258971885680134
 50
266.002481483677002
 51
273.9975185163490892
  0
ARC
  5
BE78
  8
0
 10
576.4124850445366519
 20
213.6870353291251945
 30
0.0
 40
0.2258971816469994
 50
86.0024813609912258
 51
93.9975186390087885
  0
ARC
  5
BE79
  8
0
 10
576.4124850445365382
 20
214.1377305154468047
 30
0.0
 40
0.2258971885680134
 50
266.002481483677002
 51
273.9975185163490892
  0
ARC
  5
BE7A
  8
0
 10
576.4128478929328594
 20
213.6845383413954096
 30
0.0
 40
0.2258971816469994
 50
86.0024813609912258
 51
93.9975186390087885
  0
ARC
  5
BE7B
  8
0
 10
576.4128478929328594
 20
214.1352335277169914
 30
0.0
 40
0.2258971885680134
 50
266.002481483677002
 51
273.9975185163490892
  0
ARC
  5
BE7C
  8
0
 10
576.4128478929328594
 20
213.6821585105954
 30
0.0
 40
0.2258971816469994
 50
86.0024813609912258
 51
93.9975186390087885
  0
ARC
  5
BE7D
  8
0
 10
576.4128478929328594
 20
214.1328536969170955
 30
0.0
 40
0.2258971885680134
 50
266.002481483677002
 51
273.9975185163490892
  0
ARC
  5
BE7E
  8
0
 10
576.4128478929328594
 20
213.6797786797953904
 30
0.0
 40
0.2258971816469994
 50
86.0024813609912258
 51
93.9975186390087885
  0
ARC
  5
BE7F
  8
0
 10
576.4128478929328594
 20
214.1304738661170859
 30
0.0
 40
0.2258971885680134
 50
266.002481483677002
 51
273.9975185163490892
  0
ARC
  5
BE80
  8
0
 10
576.4325328976893843
 20
213.6809697371521963
 30
0.0
 40
0.2258971816469994
 50
86.0024813609912258
 51
93.9975186390087885
  0
ARC
  5
BE81
  8
0
 10
576.4325328976893843
 20
214.1316649234738065
 30
0.0
 40
0.2258971885680134
 50
266.002481483677002
 51
273.9975185163490892
  0
ARC
  5
BE82
  8
0
 10
576.4325329322330163
 20
213.6833484259954901
 30
0.0
 40
0.2258971816469994
 50
86.0024813609912258
 51
93.9975186390087885
  0
ARC
  5
BE83
  8
0
 10
576.4325329322327889
 20
214.1340436123169866
 30
0.0
 40
0.2258971885680134
 50
266.002481483677002
 51
273.9975185163490892
  0
ARC
  5
BE84
  8
0
 10
576.4325329322330163
 20
213.685728256795386
 30
0.0
 40
0.2258971816469994
 50
86.0024813609912258
 51
93.9975186390087885
  0
ARC
  5
BE85
  8
0
 10
576.4325329322327889
 20
214.1364234431171099
 30
0.0
 40
0.2258971885680134
 50
266.002481483677002
 51
273.9975185163490892
  0
ARC
  5
BE86
  8
0
 10
576.4325329322330163
 20
213.688108087495408
 30
0.0
 40
0.2258971816469994
 50
86.0024813609912258
 51
93.9975186390087885
  0
ARC
  5
BE87
  8
0
 10
576.4325329322327889
 20
214.1388032738169898
 30
0.0
 40
0.2258971885680134
 50
266.002481483677002
 51
273.9975185163490892
  0
ARC
  5
BE88
  8
0
 10
576.4522179716329902
 20
213.6869181720954032
 30
0.0
 40
0.2258971816469994
 50
86.0024813609912258
 51
93.9975186390087885
  0
ARC
  5
BE89
  8
0
 10
576.4522179716329902
 20
214.1376133584170987
 30
0.0
 40
0.2258971885680134
 50
266.002481483677002
 51
273.9975185163490892
  0
ARC
  5
BE8A
  8
0
 10
576.4522179716329902
 20
213.6845383413954096
 30
0.0
 40
0.2258971816469994
 50
86.0024813609912258
 51
93.9975186390087885
  0
ARC
  5
BE8B
  8
0
 10
576.4522179716329902
 20
214.1352335277169914
 30
0.0
 40
0.2258971885680134
 50
266.002481483677002
 51
273.9975185163490892
  0
ARC
  5
BE8C
  8
0
 10
576.4522179716329902
 20
213.6821585105954
 30
0.0
 40
0.2258971816469994
 50
86.0024813609912258
 51
93.9975186390087885
  0
ARC
  5
BE8D
  8
0
 10
576.4522179716329902
 20
214.1328536969170955
 30
0.0
 40
0.2258971885680134
 50
266.002481483677002
 51
273.9975185163490892
  0
ARC
  5
BE8E
  8
0
 10
576.1799856549050673
 20
201.7995552775373937
 30
0.0
 40
12.1381773086534004
 50
88.8112840256978444
 51
90.0158518578653144
  0
ARC
  5
BE8F
  8
0
 10
576.3516811590512816
 20
210.0740433861375891
 30
0.0
 40
3.8619080521883289
 50
85.876414959671763
 51
88.8112840375880666
  0
ARC
  5
BE90
  8
0
 10
577.3576128540804575
 20
213.478500452563793
 30
0.0
 40
0.0876433929762886
 50
255.4222420680409016
 51
287.4174788721531968
  0
ARC
  5
BE91
  8
0
 10
577.3469519293673784
 20
213.4375073010876065
 30
0.0
 40
0.0452866487235759
 50
224.4276901371584074
 51
255.4222420680409016
  0
ARC
  5
BE92
  8
0
 10
577.3217969296872525
 20
213.4113279785622979
 30
0.0
 40
0.0090622557603613
 50
135.7975498438349859
 51
217.5395948305325078
  0
ARC
  5
BE93
  8
0
 10
577.3579807846446101
 20
213.315591314077011
 30
0.0
 40
0.1136491454271077
 50
81.8748381739685556
 51
103.2024968929662947
  0
ARC
  5
BE94
  8
0
 10
577.3409078208652545
 20
213.3883680006674979
 30
0.0
 40
0.038896672536248
 50
103.2024968929662947
 51
131.1738109077381012
  0
ARC
  5
BE95
  8
0
 10
577.3650145477270144
 20
213.3599041171704016
 30
0.0
 40
0.0687906076071877
 50
65.0924748666883488
 51
82.4580139149433649
  0
ARC
  5
BE96
  8
0
 10
577.3863563574933551
 20
213.4058653030957942
 30
0.0
 40
0.0181161223529218
 50
33.9768020935850927
 51
65.0924748666883488
  0
ARC
  5
BE97
  8
0
 10
577.393781463221103
 20
213.4112947511318907
 30
0.0
 40
0.0089314375409365
 50
322.1983585624711282
 51
31.7125178472038591
  0
ARC
  5
BE98
  8
0
 10
577.3746059640972135
 20
213.4278836267995985
 30
0.0
 40
0.0342772951196708
 50
285.640800986421425
 51
319.934074316095689
  0
ARC
  5
BE99
  8
0
 10
577.3326723134945269
 20
213.3911241495486877
 30
0.0
 40
0.0232759351371198
 50
108.7973178486511046
 51
140.8919397381584986
  0
ARC
  5
BE9A
  8
0
 10
577.3574515336362083
 20
213.3179131354362994
 30
0.0
 40
0.1005666737271249
 50
92.8371436234972549
 51
108.7218003295305948
  0
ARC
  5
BE9B
  8
0
 10
577.3578921335210907
 20
213.3090225465948038
 30
0.0
 40
0.1094681734999732
 50
77.4459520240784229
 51
92.8371436234972549
  0
ARC
  5
BE9C
  8
0
 10
577.371195688869193
 20
213.3687642551676049
 30
0.0
 40
0.0482631383468662
 50
57.7538016967765984
 51
77.4459520240784229
  0
ARC
  5
BE9D
  8
0
 10
577.3898795656566563
 20
213.398380761898494
 30
0.0
 40
0.0132456466783667
 50
34.1711780155957925
 51
57.7538016931116687
  0
ARC
  5
BE9E
  8
0
 10
577.2397990280644535
 20
212.8064188925148983
 30
0.0
 40
0.7043464809305839
 50
56.5342995508629826
 51
69.3547754884841652
  0
ARC
  5
BE9F
  8
0
 10
577.2396415157363663
 20
212.8060501058228908
 30
0.0
 40
0.7046836017779301
 50
292.3986513748599805
 51
303.4629335698813861
  0
LINE
  5
BEA0
  8
0
 10
577.508160225733036
 20
212.1545313562872934
 30
0.0
 11
577.5079931077328865
 21
212.1593169906873015
 31
0.0
  0
ARC
  5
BEA1
  8
0
 10
577.2418718712393684
 20
212.8033207204364885
 30
0.0
 40
0.6968222990430601
 50
290.6961991037676967
 51
292.4518498765290815
  0
LINE
  5
BEA2
  8
0
 10
575.4876559418329407
 20
214.6265528120478052
 30
0.0
 11
575.4876559418329407
 21
213.9069079426814142
 31
0.0
  0
LINE
  5
BEA3
  8
0
 10
575.4876559418329407
 20
213.8497651465648062
 30
0.0
 11
575.4876559418329407
 21
210.0812995980888047
 31
0.0
  0
LINE
  5
BEA4
  8
0
 10
576.8655988991329195
 20
214.6265528120478052
 30
0.0
 11
576.8655988991329195
 21
213.9069079426814994
 31
0.0
  0
LINE
  5
BEA5
  8
0
 10
576.8655988991329195
 20
213.8497651465648062
 30
0.0
 11
576.8655988991329195
 21
213.59045578960081
 31
0.0
  0
LINE
  5
BEA6
  8
0
 10
576.8655988991329195
 20
212.0217132124734007
 30
0.0
 11
576.8655988991329195
 21
210.0811175394389068
 31
0.0
  0
ENDSEC
  0
EOF
