  0
SECTION
  2
HEADER
  9
$ACADVER
  1
AC1009
  9
$INSBASE
 10
3947.3935871455928464
 20
68.0498533207504295
 30
0.0
  9
$EXTMIN
 10
3943.6178205720739243
 20
63.4393277374808306
 30
-0.0000000000000058
  9
$EXTMAX
 10
3951.1538138080868521
 20
68.0606118339744341
 30
0.0000000000000104
  9
$LIMMIN
 10
0.0
 20
0.0
  9
$LIMMAX
 10
11.6929133858000007
 20
8.2677165353999982
  9
$ORTHOMODE
 70
     0
  9
$REGENMODE
 70
     1
  9
$FILLMODE
 70
     1
  9
$QTEXTMODE
 70
     0
  9
$MIRRTEXT
 70
     0
  9
$DRAGMODE
 70
     2
  9
$LTSCALE
 40
0.6431102362
  9
$OSMODE
 70
  4095
  9
$ATTMODE
 70
     1
  9
$TEXTSIZE
 40
0.2
  9
$TRACEWID
 40
0.05
  9
$TEXTSTYLE
  7
STANDARD
  9
$CLAYER
  8
0
  9
$CELTYPE
  6
BYLAYER
  9
$CECOLOR
 62
   256
  9
$DIMSCALE
 40
1.0
  9
$DIMASZ
 40
0.1875
  9
$DIMEXO
 40
0.0625
  9
$DIMDLI
 40
0.4443307087
  9
$DIMRND
 40
0.0
  9
$DIMDLE
 40
0.0
  9
$DIMEXE
 40
0.125
  9
$DIMTP
 40
0.01
  9
$DIMTM
 40
0.01
  9
$DIMTXT
 40
2.0
  9
$DIMCEN
 40
0.1052362205
  9
$DIMTSZ
 40
0.0
  9
$DIMTOL
 70
     1
  9
$DIMLIM
 70
     0
  9
$DIMTIH
 70
     1
  9
$DIMTOH
 70
     1
  9
$DIMSE1
 70
     0
  9
$DIMSE2
 70
     0
  9
$DIMTAD
 70
     0
  9
$DIMZIN
 70
     0
  9
$DIMBLK
  1

  9
$DIMASO
 70
     1
  9
$DIMSHO
 70
     1
  9
$DIMPOST
  1
\X
  9
$DIMAPOST
  1

  9
$DIMALT
 70
     1
  9
$DIMALTD
 70
     2
  9
$DIMALTF
 40
25.3999999999999986
  9
$DIMLFAC
 40
1.0
  9
$DIMTOFL
 70
     0
  9
$DIMTVP
 40
0.0
  9
$DIMTIX
 70
     0
  9
$DIMSOXD
 70
     0
  9
$DIMSAH
 70
     0
  9
$DIMBLK1
  1

  9
$DIMBLK2
  1

  9
$DIMSTYLE
  2
STANDARD
  9
$DIMCLRD
 70
     0
  9
$DIMCLRE
 70
     0
  9
$DIMCLRT
 70
     0
  9
$DIMTFAC
 40
1.0
  9
$DIMGAP
 40
0.09
  9
$LUNITS
 70
     2
  9
$LUPREC
 70
     4
  9
$SKETCHINC
 40
0.1
  9
$FILLETRAD
 40
0.0
  9
$AUNITS
 70
     0
  9
$AUPREC
 70
     0
  9
$MENU
  1
.
  9
$ELEVATION
 40
0.0
  9
$PELEVATION
 40
0.0
  9
$THICKNESS
 40
0.0
  9
$LIMCHECK
 70
     0
  9
$BLIPMODE
 70
     0
  9
$CHAMFERA
 40
0.0
  9
$CHAMFERB
 40
0.0
  9
$SKPOLY
 70
     0
  9
$TDCREATE
 40
2458060.468368056230247
  9
$TDUPDATE
 40
2459390.8343171300366521
  9
$TDINDWG
 40
0.414358912
  9
$TDUSRTIMER
 40
0.414358912
  9
$USRTIMER
 70
     1
  9
$ANGBASE
 50
0.0
  9
$ANGDIR
 70
     0
  9
$PDMODE
 70
     0
  9
$PDSIZE
 40
0.3125
  9
$PLINEWID
 40
0.0
  9
$COORDS
 70
     1
  9
$SPLFRAME
 70
     0
  9
$SPLINETYPE
 70
     6
  9
$SPLINESEGS
 70
     8
  9
$ATTDIA
 70
     1
  9
$ATTREQ
 70
     1
  9
$HANDLING
 70
     1
  9
$HANDSEED
  5
78F3
  9
$SURFTAB1
 70
     6
  9
$SURFTAB2
 70
     6
  9
$SURFTYPE
 70
     6
  9
$SURFU
 70
     6
  9
$SURFV
 70
     6
  9
$UCSNAME
  2

  9
$UCSORG
 10
0.0
 20
0.0
 30
0.0
  9
$UCSXDIR
 10
1.0
 20
0.0
 30
0.0
  9
$UCSYDIR
 10
0.0
 20
1.0
 30
0.0
  9
$PUCSNAME
  2

  9
$PUCSORG
 10
0.0
 20
0.0
 30
0.0
  9
$PUCSXDIR
 10
1.0
 20
0.0
 30
0.0
  9
$PUCSYDIR
 10
0.0
 20
1.0
 30
0.0
  9
$USERI1
 70
     0
  9
$USERI2
 70
     0
  9
$USERI3
 70
     0
  9
$USERI4
 70
     0
  9
$USERI5
 70
     0
  9
$USERR1
 40
0.0
  9
$USERR2
 40
0.0
  9
$USERR3
 40
0.0
  9
$USERR4
 40
0.0
  9
$USERR5
 40
0.0
  9
$WORLDVIEW
 70
     1
  9
$SHADEDGE
 70
     3
  9
$SHADEDIF
 70
    70
  9
$TILEMODE
 70
     1
  9
$MAXACTVP
 70
    64
  9
$PLIMCHECK
 70
     0
  9
$PEXTMIN
 10
1.0000000000000000E+20
 20
1.0000000000000000E+20
 30
1.0000000000000000E+20
  9
$PEXTMAX
 10
-1.0000000000000000E+20
 20
-1.0000000000000000E+20
 30
-1.0000000000000000E+20
  9
$PLIMMIN
 10
0.0
 20
0.0
  9
$PLIMMAX
 10
12.0
 20
9.0
  9
$UNITMODE
 70
     0
  9
$VISRETAIN
 70
     1
  9
$PLINEGEN
 70
     0
  9
$PSLTSCALE
 70
     1
  0
ENDSEC
  0
SECTION
  2
TABLES
  0
TABLE
  2
VPORT
 70
     1
  0
VPORT
  2
*ACTIVE
 70
     0
 10
0.0
 20
0.0
 11
1.0
 21
1.0
 12
155.027907033830104
 22
-54.4306866473778399
 13
0.0
 23
0.0
 14
1.0
 24
1.0
 15
0.0
 25
0.0
 16
0.0
 26
0.0
 36
5.1040778033513332
 17
3792.35791015625
 27
120.1806564331053977
 37
0.0
 40
4.6592672534510911
 41
2.6159122085048012
 42
50.0
 43
0.0
 44
0.0
 50
0.0
 51
0.0
 71
     0
 72
   100
 73
     1
 74
     1
 75
     0
 76
     0
 77
     0
 78
     0
  0
ENDTAB
  0
TABLE
  2
LTYPE
 70
     2
  0
LTYPE
  2
CONTINUOUS
 70
     0
  3
Solid line
 72
    65
 73
     0
 40
0.0
  0
LTYPE
  2
PHANTOM2
 70
     0
  3
___ _ _ ___ _ _ ___ _ _ ___ _ _
 72
    65
 73
     6
 40
1.25
 49
0.625
 49
-0.125
 49
0.125
 49
-0.125
 49
0.125
 49
-0.125
  0
ENDTAB
  0
TABLE
  2
LAYER
 70
     2
  0
LAYER
  2
0
 70
     0
 62
   255
  6
CONTINUOUS
  0
LAYER
  2
DEFPOINTS
 70
     0
 62
     7
  6
CONTINUOUS
  0
ENDTAB
  0
TABLE
  2
STYLE
 70
     1
  0
STYLE
  2
STANDARD
 70
     0
 40
0.0
 41
0.8
 50
0.0
 71
     0
 42
0.2
  3
txt
  4

  0
ENDTAB
  0
TABLE
  2
VIEW
 70
     0
  0
ENDTAB
  0
TABLE
  2
UCS
 70
     0
  0
ENDTAB
  0
TABLE
  2
APPID
 70
     9
  0
APPID
  2
ACAD
 70
     0
  0
APPID
  2
ACAD_MLEADERVER
 70
     0
  0
APPID
  2
ACAD_EXEMPT_FROM_CAD_STANDARDS
 70
     0
  0
APPID
  2
ACAD_NAV_VCDISPLAY
 70
     0
  0
APPID
  2
ACAECLAYERSTANDARD
 70
     0
  0
APPID
  2
ACCMTRANSPARENCY
 70
     0
  0
APPID
  2
ACAD_DSTYLE_DIMJAG
 70
     0
  0
APPID
  2
ACAD_DSTYLE_DIMTALN
 70
     0
  0
APPID
  2
ACDBATTR
 70
     0
  0
ENDTAB
  0
TABLE
  2
DIMSTYLE
 70
     1
  0
DIMSTYLE
  2
STANDARD
 70
     0
  3

  4

  5

  6

  7

 40
1.0
 41
0.1875
 42
0.0625
 43
0.38
 44
0.125
 45
0.0
 46
0.0
 47
0.01
 48
0.01
140
0.15625
141
0.09
142
0.0
143
25.3999999999999986
144
1.0
145
0.0
146
1.0
147
0.09
 71
     1
 72
     0
 73
     1
 74
     1
 75
     0
 76
     0
 77
     0
 78
     4
170
     0
171
     2
172
     0
173
     0
174
     0
175
     0
176
     0
177
     0
178
     0
  0
ENDTAB
  0
ENDSEC
  0
SECTION
  2
BLOCKS
  0
BLOCK
  8
0
  2
$MODEL_SPACE
 70
     0
 10
0.0
 20
0.0
 30
0.0
  3
$MODEL_SPACE
  1

  0
ENDBLK
  5
21
  8
0
  0
BLOCK
 67
     1
  8
0
  2
$PAPER_SPACE
 70
     0
 10
0.0
 20
0.0
 30
0.0
  3
$PAPER_SPACE
  1

  0
ENDBLK
  5
1D
 67
     1
  8
0
  0
ENDSEC
  0
SECTION
  2
ENTITIES
  0
ATTDEF
  5
3930
  8
DEFPOINTS
 10
3947.390796604580828
 20
68.0549258195704994
 30
0.0
 40
0.001
  1
K-C72819W-4
  3

  2
MODELNUMBER
 70
     0
1001
ACDBATTR
1070
     0
1070
     1
  0
ATTDEF
  5
3931
  8
DEFPOINTS
 10
3947.390796604580828
 20
68.0532591529038342
 30
0.0
 40
0.001
  1
MODULO
  3

  2
TRADENAME
 70
     0
1001
ACDBATTR
1070
     0
1070
     1
  0
ATTDEF
  5
3932
  8
DEFPOINTS
 10
3947.390796604580828
 20
68.0515924862371548
 30
0.0
 40
0.001
  1
VALVE TRIM
  3

  2
PRODUCT
 70
     0
1001
ACDBATTR
1070
     0
1070
     1
  0
LINE
  5
7672
  8
0
 10
3943.8502800590417792
 20
68.0498533207504295
 30
0.0
 11
3950.9368942321439135
 21
68.0498533207504295
 31
0.0
  0
LINE
  5
7673
  8
0
 10
3950.9368942321439135
 20
68.0498533207504295
 30
0.0
 11
3950.9271279719441736
 21
67.7701407818504293
 31
0.0
  0
ARC
  5
7674
  8
0
 10
3950.8090896851690559
 20
67.7742627697285798
 30
0.0
 40
0.118110236378147
 50
270.0000000851480877
 51
357.9999999650856921
  0
ARC
  5
7675
  8
0
 10
3950.7628406307130717
 20
67.5577273367651543
 30
0.0
 40
0.098425196585275
 50
89.9999998651908868
 51
141.9321667499239936
  0
ARC
  5
7676
  8
0
 10
3950.7628406309449929
 20
67.5577273365504141
 30
0.0
 40
0.0984251968999702
 50
141.9321667346262927
 51
174.7840908006452025
  0
ARC
  5
7677
  8
0
 10
3950.5472018287791798
 20
67.5774123759997849
 30
0.0
 40
0.1181102362805954
 50
312.3920457220551157
 51
354.7840913603632202
  0
ARC
  5
7678
  8
0
 10
3950.5472018284481237
 20
67.5774123765895212
 30
0.0
 40
0.1181102369390921
 50
270.0000002027347819
 51
312.3920456476516847
  0
LINE
  5
7679
  8
0
 10
3950.5472018288451181
 20
67.4593021397504344
 30
0.0
 11
3944.2399756159220487
 21
67.4593021396504327
 31
0.0
  0
LINE
  5
767A
  8
0
 10
3943.8502800590417792
 20
68.0498533207504295
 30
0.0
 11
3943.8600493529438609
 21
67.7701407818504293
 31
0.0
  0
ARC
  5
767B
  8
0
 10
3943.9780876397599059
 20
67.7742627691345092
 30
0.0
 40
0.1181102363624626
 50
181.999999747406406
 51
270.0000265319122832
  0
LINE
  5
767C
  8
0
 10
3943.9780876944528245
 20
67.6561525328720563
 30
0.0
 11
3950.8090896853441336
 21
67.6561525333504363
 31
0.0
  0
ARC
  5
767D
  8
0
 10
3944.0243366939389489
 20
67.5577273357992709
 30
0.0
 40
0.0984251970806122
 50
38.0678529073231928
 51
89.9999999584942145
  0
ARC
  5
767E
  8
0
 10
3944.0243366954828161
 20
67.5577273368150486
 30
0.0
 40
0.0984251952394869
 50
5.2159084614982696
 51
38.0678529956418927
  0
ARC
  5
767F
  8
0
 10
3944.2399754963757914
 20
67.577412375606599
 30
0.0
 40
0.1181102365106005
 50
185.2159084379260037
 51
227.607954266761908
  0
ARC
  5
7680
  8
0
 10
3944.2399754965199463
 20
67.5774123760558894
 30
0.0
 40
0.1181102369395396
 50
227.6079543620857919
 51
270.0000579115330765
  0
ARC
  5
7681
  8
0
 10
3946.546932484448007
 20
66.7107890682186024
 30
0.0
 40
0.0192045063974999
 50
178.5630908130457897
 51
270.5969820480215731
  0
ARC
  5
7682
  8
0
 10
3946.5372379948730668
 20
66.6348294212760237
 30
0.0
 40
0.0095130919813007
 50
89.1677751474787641
 51
182.5082414547096903
  0
ARC
  5
7683
  8
0
 10
3946.732171324059891
 20
66.6364674906759831
 30
0.0
 40
0.0078740238466256
 50
89.9369191304691356
 51
179.9999754456684116
  0
ARC
  5
7684
  8
0
 10
3946.7636670662018332
 20
65.1225256191787452
 30
0.0
 40
0.039369483517234
 50
180.0000106904074926
 51
261.7928808777559198
  0
ARC
  5
7685
  8
0
 10
3946.5809051607129732
 20
65.0301682814504147
 30
0.0
 40
0.0393700786999976
 50
180.4856902728311923
 51
269.9999999712351837
  0
ARC
  5
7686
  8
0
 10
3946.8234373093259819
 20
65.0137567608172162
 30
0.0
 40
0.0590431586905746
 50
6.8481953526289638
 51
81.8071984875155636
  0
ARC
  5
7687
  8
0
 10
3946.9206855692300451
 20
65.0250362829587942
 30
0.0
 40
0.0388582757307158
 50
186.2631799530155945
 51
263.6295856874697279
  0
ARC
  5
7688
  8
0
 10
3946.6263847585310032
 20
64.9317419615778988
 30
0.0
 40
0.0590562410743299
 50
359.4989199556458175
 51
89.9995514978626545
  0
ARC
  5
7689
  8
0
 10
3946.725113491553202
 20
64.9123679004356831
 30
0.0
 40
0.0396801307084194
 50
179.0564575919202071
 51
270.1874717369046834
  0
ARC
  5
768A
  8
0
 10
3947.0794878927331411
 20
64.8370576565208694
 30
0.0
 40
0.1324710376918712
 50
45.9722718171012801
 51
85.5774003150279441
  0
ARC
  5
768B
  8
0
 10
3947.0882503785110202
 20
64.8445777995237336
 30
0.0
 40
0.1209788092578388
 50
13.4502422306236902
 51
46.4807897757055812
  0
ARC
  5
768C
  8
0
 10
3947.0832177540341945
 20
64.8354938134884975
 30
0.0
 40
0.1284603763885408
 50
341.1124273595544878
 51
6.5444370755736108
  0
ARC
  5
768D
  8
0
 10
3947.0744615797020742
 20
64.8401889669901266
 30
0.0
 40
0.1382743067239605
 50
315.1482448492420758
 51
340.4461722143448128
  0
ARC
  5
768E
  8
0
 10
3947.3935870980931213
 20
64.5183582988688329
 30
0.0
 40
0.3149588067059774
 50
134.5869408162197089
 51
180.0001893952145906
  0
ARC
  5
768F
  8
0
 10
3947.393588439073028
 20
64.5183567755357643
 30
0.0
 40
0.3149601476854112
 50
179.9999122782199095
 51
270.0000363355620721
  0
LINE
  5
7690
  8
0
 10
3946.7242975826879956
 20
67.4593021396898109
 30
0.0
 11
3946.7242973002130384
 21
66.7112706436504226
 31
0.0
  0
LINE
  5
7691
  8
0
 10
3946.7242973002130384
 20
66.7112706436504226
 30
0.0
 11
3946.7439823396130123
 21
66.6915856042504203
 31
0.0
  0
LINE
  5
7692
  8
0
 10
3946.6160295837130434
 20
66.6915856042504203
 30
0.0
 11
3946.6160295837130434
 21
66.6443415097504328
 31
0.0
  0
LINE
  5
7693
  8
0
 10
3946.8128799774131039
 20
66.6915856042504203
 30
0.0
 11
3946.8128799774131039
 21
66.6443415097504328
 31
0.0
  0
LINE
  5
7694
  8
0
 10
3946.7242973002130384
 20
66.6364674906759831
 30
0.0
 11
3946.7242975826879956
 21
65.1225256118330833
 31
0.0
  0
LINE
  5
7695
  8
0
 10
3946.5277340170327989
 20
66.6344130989704553
 30
0.0
 11
3946.5415364965269873
 21
65.0298345494474432
 31
0.0
  0
LINE
  5
7696
  8
0
 10
3946.9163740194121601
 20
64.986417943650423
 30
0.0
 11
3947.0897030389410247
 21
64.9691342502652134
 31
0.0
  0
LINE
  5
7697
  8
0
 10
3946.6854387411981406
 20
64.9312254920066039
 30
0.0
 11
3946.6854387411981406
 21
64.9130213201846971
 31
0.0
  0
LINE
  5
7698
  8
0
 10
3946.5277340170327989
 20
67.4593021396504327
 30
0.0
 11
3946.5277340170327989
 21
66.7112706436392955
 31
0.0
  0
ARC
  5
7699
  8
0
 10
3948.2401650550650629
 20
66.7109814117143713
 30
0.0
 40
0.0193963652694614
 50
269.6444731604426011
 51
0.8538491615534523
  0
ARC
  5
769A
  8
0
 10
3948.2498601018251065
 20
66.6346398665280049
 30
0.0
 40
0.0097018197138669
 50
358.6595488534368883
 51
90.3455986143736709
  0
ARC
  5
769B
  8
0
 10
3948.0550057338168699
 20
66.6364668441248824
 30
0.0
 40
0.0078745260877404
 50
0.0036680702065067
 51
90.0615535359168433
  0
ARC
  5
769C
  8
0
 10
3948.0235088705121598
 20
65.1225272496614167
 30
0.0
 40
0.0393713893951835
 50
279.2975986379670985
 51
0.0
  0
ARC
  5
769D
  8
0
 10
3948.206272057033857
 20
65.0301679769383014
 30
0.0
 40
0.0393697754530415
 50
269.9860606348555052
 51
359.5030027166488935
  0
ARC
  5
769E
  8
0
 10
3947.9637396021771565
 20
65.0137566368651107
 30
0.0
 40
0.0590431581418813
 50
98.1941057978313836
 51
173.1517923522195872
  0
ARC
  5
769F
  8
0
 10
3947.8664913452530527
 20
65.025036179941111
 30
0.0
 40
0.0388582757307158
 50
276.3704018311483992
 51
353.7368075571342274
  0
ARC
  5
76A0
  8
0
 10
3948.1607938383181136
 20
64.9317376582937129
 30
0.0
 40
0.0590603772675164
 50
90.0020878058760445
 51
180.5050701545823983
  0
ARC
  5
76A1
  8
0
 10
3948.0620651160620582
 20
64.9123635816671651
 30
0.0
 40
0.0396759522101421
 50
269.7631387146881252
 51
0.9376269646546804
  0
ARC
  5
76A2
  8
0
 10
3947.7076889808008673
 20
64.8370575880968545
 30
0.0
 40
0.1324710376918712
 50
94.422587203603527
 51
134.0277157015484022
  0
ARC
  5
76A3
  8
0
 10
3947.7111205936339502
 20
64.8349923849591647
 30
0.0
 40
0.1363448245357286
 50
134.4613996706052035
 51
163.9372614231203045
  0
ARC
  5
76A4
  8
0
 10
3947.71371069486122
 20
64.8372075294775954
 30
0.0
 40
0.1382501813297405
 50
165.1165454948410911
 51
198.2513073939063872
  0
ARC
  5
76A5
  8
0
 10
3947.7127152945140551
 20
64.8401888974711795
 30
0.0
 40
0.1382743067239604
 50
199.5538153042830061
 51
224.8517426693879884
  0
ARC
  5
76A6
  8
0
 10
3947.3935840451249533
 20
64.518354471957224
 30
0.0
 40
0.3149655060745964
 50
0.0004942860422695
 51
45.4128020045710201
  0
ARC
  5
76A7
  8
0
 10
3947.393587630725051
 20
64.51835854831603
 30
0.0
 40
0.3149619204658834
 50
270.0000847640013717
 51
359.9997527475690049
  0
LINE
  5
76A8
  8
0
 10
3948.062880144553219
 20
67.4593019938906338
 30
0.0
 11
3948.0628799816008723
 21
66.7112704978512596
 31
0.0
  0
LINE
  5
76A9
  8
0
 10
3948.0628799816008723
 20
66.7112704978512596
 30
0.0
 11
3948.0431949379130856
 21
66.6915854627394822
 31
0.0
  0
LINE
  5
76AA
  8
0
 10
3948.1711476938130545
 20
66.6915854348661128
 30
0.0
 11
3948.171147683522122
 21
66.6443413403661111
 31
0.0
  0
LINE
  5
76AB
  8
0
 10
3947.9742973001120845
 20
66.6915854777482195
 30
0.0
 11
3947.9742972898211519
 21
66.6443413832482037
 31
0.0
  0
LINE
  5
76AC
  8
0
 10
3948.0628802598880611
 20
66.6364673448768201
 30
0.0
 11
3948.0628802598880611
 21
65.1225272496614167
 31
0.0
  0
LINE
  5
76AD
  8
0
 10
3948.2595592665647928
 20
66.6344129103863878
 30
0.0
 11
3948.2456403513087935
 21
65.0298264783808975
 31
0.0
  0
LINE
  5
76AE
  8
0
 10
3947.8708028866572022
 20
64.9864178396935159
 30
0.0
 11
3947.697473863363939
 21
64.9691341840664762
 31
0.0
  0
LINE
  5
76AF
  8
0
 10
3948.101735755727077
 20
64.9312170397105746
 30
0.0
 11
3948.101735755727077
 21
64.9130128368574617
 31
0.0
  0
LINE
  5
76B0
  8
0
 10
3948.2595592665520599
 20
67.4593021397141683
 30
0.0
 11
3948.2595592665638833
 21
66.7112704549451223
 31
0.0
  0
LINE
  5
76B1
  8
0
 10
3946.7580469970598642
 20
65.0835593381748794
 30
0.0
 11
3946.8318512298428686
 21
65.0721973334504185
 31
0.0
  0
LINE
  5
76B2
  8
0
 10
3946.9163740194121601
 20
64.986417943650423
 30
0.0
 11
3947.8708028866572022
 21
64.9864178396935017
 31
0.0
  0
LINE
  5
76B3
  8
0
 10
3946.5809051606929643
 20
64.9907982027504261
 30
0.0
 11
3946.9023084245841346
 21
64.9907982025890902
 31
0.0
  0
LINE
  5
76B4
  8
0
 10
3946.7252433246708279
 20
64.8726879821344369
 30
0.0
 11
3947.2059110156210409
 21
64.872717571452597
 31
0.0
  0
LINE
  5
76B5
  8
0
 10
3946.5471325783842076
 20
66.6915856042504203
 30
0.0
 11
3948.2400446991809986
 21
66.6915854198575033
 31
0.0
  0
LINE
  5
76B6
  8
0
 10
3946.7242973002130384
 20
66.7112706436504226
 30
0.0
 11
3948.0628799816008723
 21
66.7112703520521109
 31
0.0
  0
LINE
  5
76B7
  8
0
 10
3946.5373761682808436
 20
66.6443415097504328
 30
0.0
 11
3948.2498015824171489
 21
66.6443415097504186
 31
0.0
  0
LINE
  5
76B8
  8
0
 10
3947.9553243513960297
 20
65.0721970174049744
 30
0.0
 11
3948.0298698090441576
 21
65.0836731023422033
 31
0.0
  0
LINE
  5
76B9
  8
0
 10
3947.8848682051548167
 20
64.9907979467375441
 30
0.0
 11
3948.2062624788468383
 21
64.9907982026504243
 31
0.0
  0
LINE
  5
76BA
  8
0
 10
3948.0619010957730097
 20
64.87268796848835
 30
0.0
 11
3947.580091792749954
 21
64.8726913516573234
 31
0.0
  0
CIRCLE
  5
76BB
  8
0
 10
3947.3935886388130712
 20
64.5183572577504236
 30
0.0
 40
0.1771653542999996
  0
ARC
  5
76BC
  8
0
 10
3947.0622353637859305
 20
64.8295221571604969
 30
0.0
 40
0.1500284531216054
 50
7.8969836929363524
 51
16.733160131621819
  0
ARC
  5
76BD
  8
0
 10
3947.3935886387130267
 20
64.1029619035504368
 30
0.0
 40
0.3857999999999997
 50
115.202911229286201
 51
115.4168155324539953
  0
ARC
  5
76BE
  8
0
 10
3947.3935886387130267
 20
64.1029619035504368
 30
0.0
 40
0.3857999999999997
 50
64.5831844675459905
 51
64.7970887431267215
  0
LINE
  5
76BF
  8
0
 10
3946.8318512298428686
 20
65.0721973334504327
 30
0.0
 11
3947.9553243513960297
 21
65.0721970174049744
 31
0.0
  0
LINE
  5
76C0
  8
0
 10
3947.0862222215378097
 20
63.5617024588917374
 30
0.0
 11
3947.700952069647883
 21
63.5617024588917374
 31
0.0
  0
LINE
  5
76C1
  8
0
 10
3947.7079929836040719
 20
63.6932560542917372
 30
0.0
 11
3947.079181307581166
 21
63.6932560542917372
 31
0.0
  0
LINE
  5
76C2
  8
0
 10
3947.0355538496701229
 20
63.8124426135917417
 30
0.0
 11
3947.7516630071459076
 21
63.8124426135917417
 31
0.0
  0
LINE
  5
76C3
  8
0
 10
3947.0685871456430505
 20
64.515795494791746
 30
0.0
 11
3947.0786387058278706
 21
64.515795494791746
 31
0.0
  0
LINE
  5
76C4
  8
0
 10
3947.70853912238681
 20
64.515795494791746
 30
0.0
 11
3947.7185871456431414
 21
64.515795494791746
 31
0.0
  0
LINE
  5
76C5
  8
0
 10
3947.7021173293360334
 20
64.7674977694917402
 30
0.0
 11
3947.5950896858521446
 21
64.7674977694917402
 31
0.0
  0
LINE
  5
76C6
  8
0
 10
3947.1920871454008193
 20
64.7674977694917402
 30
0.0
 11
3947.085056961850114
 21
64.7674977694917402
 31
0.0
  0
LINE
  5
76C7
  8
0
 10
3947.7185871456431414
 20
64.515795494791746
 30
0.0
 11
3947.7185871456431414
 21
64.7407221438917446
 31
0.0
  0
LINE
  5
76C8
  8
0
 10
3947.6691776967431906
 20
64.8530056084917419
 30
0.0
 11
3947.6691776967431906
 21
64.8210490207917331
 31
0.0
  0
LINE
  5
76C9
  8
0
 10
3947.1179965944420474
 20
64.8530056084917419
 30
0.0
 11
3947.1179965944420474
 21
64.8210490207917331
 31
0.0
  0
LINE
  5
76CA
  8
0
 10
3947.0685871456430505
 20
64.515795494791746
 30
0.0
 11
3947.0685871456430505
 21
64.7407221438917446
 31
0.0
  0
ARC
  5
76CB
  8
0
 10
3947.3935871456101268
 20
63.8571150436837911
 30
0.0
 40
0.4135257229333566
 50
226.6648802028242073
 51
269.9999999976549816
  0
ARC
  5
76CC
  8
0
 10
3947.3935871456101268
 20
63.8571150436837982
 30
0.0
 40
0.4135257229333665
 50
269.9999999976549816
 51
313.3347630956586727
  0
ARC
  5
76CD
  8
0
 10
3947.6222478795430106
 20
63.6267297233917404
 30
0.0
 40
0.116146728500011
 50
336.0085664235514855
 51
25.946643893343051
  0
ARC
  5
76CE
  8
0
 10
3947.1649264116431368
 20
63.6267297233917333
 30
0.0
 40
0.1161467285
 50
154.0533500346988944
 51
203.9914335764574105
  0
ARC
  5
76CF
  8
0
 10
3947.0874630969028658
 20
63.6644218600071881
 30
0.0
 40
0.0299999799068429
 50
106.0251830008571972
 51
154.053350034697786
  0
ARC
  5
76D0
  8
0
 10
3947.0862222215378097
 20
63.5917024592129394
 30
0.0
 40
0.0300000003212002
 50
203.9914335764584905
 51
269.9999998182917125
  0
ARC
  5
76D1
  8
0
 10
3947.700952069647883
 20
63.5917024592129678
 30
0.0
 40
0.0300000003212215
 50
270.0
 51
336.0085664235530203
  0
ARC
  5
76D2
  8
0
 10
3947.6997111798518745
 20
63.6644218428322191
 30
0.0
 40
0.0300000003983855
 50
25.9466438933434098
 51
73.9747993014199636
  0
ARC
  5
76D3
  8
0
 10
3947.0962909098429918
 20
63.5420174194917422
 30
0.0
 40
0.0196850394
 50
46.6682898539650921
 51
90.0
  0
ARC
  5
76D4
  8
0
 10
3947.6908833813431556
 20
63.5420174194917422
 30
0.0
 40
0.0196850394
 50
90.0
 51
133.3392033413551871
  0
ARC
  5
76D5
  8
0
 10
3947.3935871456428686
 20
64.1443119823917414
 30
0.0
 40
0.475
 50
136.0236248148034974
 51
208.6105597037943937
  0
ARC
  5
76D6
  8
0
 10
3947.7785871456430868
 20
64.515795494791746
 30
0.0
 40
0.06
 50
180.0
 51
223.9775407058878898
  0
ARC
  5
76D7
  8
0
 10
3947.0085871456421955
 20
64.515795494791746
 30
0.0
 40
0.06
 50
316.0236248148037816
 51
0.0
  0
ARC
  5
76D8
  8
0
 10
3947.0579965944430114
 20
64.8210490207917331
 30
0.0
 40
0.06
 50
296.8082541782994781
 51
0.0
  0
ARC
  5
76D9
  8
0
 10
3947.729177696743136
 20
64.8210490207917331
 30
0.0
 40
0.06
 50
180.0
 51
243.1917458216103967
  0
ARC
  5
76DA
  8
0
 10
3947.0985871456427958
 20
64.7407221438917446
 30
0.0
 40
0.03
 50
116.8082541783896033
 51
180.0
  0
ARC
  5
76DB
  8
0
 10
3947.6885871456429413
 20
64.7407221438917446
 30
0.0
 40
0.03
 50
0.0
 51
63.1917458216103824
  0
ARC
  5
76DC
  8
0
 10
3947.1377204791879194
 20
64.8529895181814169
 30
0.0
 40
0.0197238914084754
 50
90.1128459701606346
 51
179.9532593768674076
  0
ARC
  5
76DD
  8
0
 10
3947.6494922879401201
 20
64.8530054554389039
 30
0.0
 40
0.0196854089028483
 50
0.0004454711560814
 51
89.9989245330363872
  0
ARC
  5
76DE
  8
0
 10
3947.7523324976241383
 20
63.8375226202119421
 30
0.0
 40
0.0250744426735474
 50
268.742385615857188
 51
356.2369492602401806
  0
ARC
  5
76DF
  8
0
 10
3947.7617780584378124
 20
63.7091866744642772
 30
0.0
 40
0.1037501962780532
 50
95.5287797882185714
 51
127.9010738110413001
  0
ARC
  5
76E0
  8
0
 10
3947.7452402934309248
 20
63.7391117430799881
 30
0.0
 40
0.0701809513472323
 50
132.259526839140193
 51
168.2505228530201009
  0
ARC
  5
76E1
  8
0
 10
3947.7275902647479597
 20
63.7418102075084079
 30
0.0
 40
0.0523599008907524
 50
167.2085024156658051
 51
248.020160142816394
  0
ARC
  5
76E2
  8
0
 10
3947.0665588040710645
 20
63.7341560169988668
 30
0.0
 40
0.0428034407886329
 50
287.1512171267265785
 51
337.7674790640791116
  0
ARC
  5
76E3
  8
0
 10
3947.0466153369711719
 20
63.7423080032899207
 30
0.0
 40
0.0643486667205134
 50
337.7674790640787137
 51
52.6637907889169128
  0
ARC
  5
76E4
  8
0
 10
3947.028761074304839
 20
63.7189016342278194
 30
0.0
 40
0.0937872945420592
 50
52.6637907889169128
 51
85.9456315017907002
  0
ARC
  5
76E5
  8
0
 10
3947.0348074586768234
 20
63.83745499448262
 30
0.0
 40
0.0250076124479439
 50
183.9678515546258097
 51
271.3396618432826131
  0
ARC
  5
76E6
  8
0
 10
3946.711064077464016
 20
63.7605754484010703
 30
0.0
 40
0.3081010619892475
 50
14.1174600569718898
 51
30.4801318116949496
  0
ARC
  5
76E7
  8
0
 10
3947.3935871456428686
 20
64.1443119823917414
 30
0.0
 40
0.475
 50
331.3894402962023946
 51
43.9762279598268506
  0
ARC
  5
76E8
  8
0
 10
3948.0761102138221759
 20
63.7605754484010703
 30
0.0
 40
0.3081010619892475
 50
149.5198681883099994
 51
165.8533097695930962
  0
ENDSEC
  0
EOF
