  0
SECTION
  2
HEADER
  9
$ACADVER
  1
AC1009
  9
$INSBASE
 10
3703.1422321171949079
 20
133.996690919019187
 30
0.0
  9
$EXTMIN
 10
3698.6802310946918624
 20
130.7006631805095083
 30
0.0
  9
$EXTMAX
 10
3703.1531156089909018
 20
136.2466927496192
 30
0.0
  9
$LIMMIN
 10
0.0
 20
0.0
  9
$LIMMAX
 10
11.6929133858000007
 20
8.2677165353999982
  9
$ORTHOMODE
 70
     1
  9
$REGENMODE
 70
     1
  9
$FILLMODE
 70
     1
  9
$QTEXTMODE
 70
     0
  9
$MIRRTEXT
 70
     0
  9
$DRAGMODE
 70
     2
  9
$LTSCALE
 40
0.6431102362
  9
$OSMODE
 70
   575
  9
$ATTMODE
 70
     1
  9
$TEXTSIZE
 40
0.2
  9
$TRACEWID
 40
0.05
  9
$TEXTSTYLE
  7
STANDARD
  9
$CLAYER
  8
0
  9
$CELTYPE
  6
BYLAYER
  9
$CECOLOR
 62
   256
  9
$DIMSCALE
 40
1.0
  9
$DIMASZ
 40
0.1875
  9
$DIMEXO
 40
0.0625
  9
$DIMDLI
 40
0.4443307087
  9
$DIMRND
 40
0.0
  9
$DIMDLE
 40
0.0
  9
$DIMEXE
 40
0.125
  9
$DIMTP
 40
0.01
  9
$DIMTM
 40
0.01
  9
$DIMTXT
 40
2.0
  9
$DIMCEN
 40
0.1052362205
  9
$DIMTSZ
 40
0.0
  9
$DIMTOL
 70
     1
  9
$DIMLIM
 70
     0
  9
$DIMTIH
 70
     1
  9
$DIMTOH
 70
     1
  9
$DIMSE1
 70
     0
  9
$DIMSE2
 70
     0
  9
$DIMTAD
 70
     0
  9
$DIMZIN
 70
     0
  9
$DIMBLK
  1

  9
$DIMASO
 70
     1
  9
$DIMSHO
 70
     1
  9
$DIMPOST
  1
\X
  9
$DIMAPOST
  1

  9
$DIMALT
 70
     1
  9
$DIMALTD
 70
     2
  9
$DIMALTF
 40
25.3999999999999986
  9
$DIMLFAC
 40
1.0
  9
$DIMTOFL
 70
     0
  9
$DIMTVP
 40
0.0
  9
$DIMTIX
 70
     0
  9
$DIMSOXD
 70
     0
  9
$DIMSAH
 70
     0
  9
$DIMBLK1
  1

  9
$DIMBLK2
  1

  9
$DIMSTYLE
  2
STANDARD
  9
$DIMCLRD
 70
     0
  9
$DIMCLRE
 70
     0
  9
$DIMCLRT
 70
     0
  9
$DIMTFAC
 40
1.0
  9
$DIMGAP
 40
0.09
  9
$LUNITS
 70
     2
  9
$LUPREC
 70
     4
  9
$SKETCHINC
 40
0.1
  9
$FILLETRAD
 40
0.0
  9
$AUNITS
 70
     0
  9
$AUPREC
 70
     0
  9
$MENU
  1
.
  9
$ELEVATION
 40
0.0
  9
$PELEVATION
 40
0.0
  9
$THICKNESS
 40
0.0
  9
$LIMCHECK
 70
     0
  9
$BLIPMODE
 70
     0
  9
$CHAMFERA
 40
0.0
  9
$CHAMFERB
 40
0.0
  9
$SKPOLY
 70
     0
  9
$TDCREATE
 40
2458060.468368056230247
  9
$TDUPDATE
 40
2459395.8019097219221294
  9
$TDINDWG
 40
0.3398913194
  9
$TDUSRTIMER
 40
0.3398913194
  9
$USRTIMER
 70
     1
  9
$ANGBASE
 50
0.0
  9
$ANGDIR
 70
     0
  9
$PDMODE
 70
     0
  9
$PDSIZE
 40
0.3125
  9
$PLINEWID
 40
0.0
  9
$COORDS
 70
     2
  9
$SPLFRAME
 70
     0
  9
$SPLINETYPE
 70
     6
  9
$SPLINESEGS
 70
     8
  9
$ATTDIA
 70
     1
  9
$ATTREQ
 70
     1
  9
$HANDLING
 70
     1
  9
$HANDSEED
  5
15F32
  9
$SURFTAB1
 70
     6
  9
$SURFTAB2
 70
     6
  9
$SURFTYPE
 70
     6
  9
$SURFU
 70
     6
  9
$SURFV
 70
     6
  9
$UCSNAME
  2

  9
$UCSORG
 10
0.0
 20
0.0
 30
0.0
  9
$UCSXDIR
 10
1.0
 20
0.0
 30
0.0
  9
$UCSYDIR
 10
0.0
 20
1.0
 30
0.0
  9
$PUCSNAME
  2

  9
$PUCSORG
 10
0.0
 20
0.0
 30
0.0
  9
$PUCSXDIR
 10
1.0
 20
0.0
 30
0.0
  9
$PUCSYDIR
 10
0.0
 20
1.0
 30
0.0
  9
$USERI1
 70
     0
  9
$USERI2
 70
     0
  9
$USERI3
 70
     0
  9
$USERI4
 70
     0
  9
$USERI5
 70
     0
  9
$USERR1
 40
0.0
  9
$USERR2
 40
0.0
  9
$USERR3
 40
0.0
  9
$USERR4
 40
0.0
  9
$USERR5
 40
0.0
  9
$WORLDVIEW
 70
     1
  9
$SHADEDGE
 70
     3
  9
$SHADEDIF
 70
    70
  9
$TILEMODE
 70
     1
  9
$MAXACTVP
 70
    64
  9
$PLIMCHECK
 70
     0
  9
$PEXTMIN
 10
1.0000000000000000E+20
 20
1.0000000000000000E+20
 30
1.0000000000000000E+20
  9
$PEXTMAX
 10
-1.0000000000000000E+20
 20
-1.0000000000000000E+20
 30
-1.0000000000000000E+20
  9
$PLIMMIN
 10
0.0
 20
0.0
  9
$PLIMMAX
 10
12.0
 20
9.0
  9
$UNITMODE
 70
     0
  9
$VISRETAIN
 70
     1
  9
$PLINEGEN
 70
     0
  9
$PSLTSCALE
 70
     1
  0
ENDSEC
  0
SECTION
  2
TABLES
  0
TABLE
  2
VPORT
 70
     1
  0
VPORT
  2
*ACTIVE
 70
     0
 10
0.0
 20
0.0
 11
1.0
 21
1.0
 12
-101.7861853779669019
 22
6.5305750257176802
 13
0.0
 23
0.0
 14
1.0
 24
1.0
 15
0.0
 25
0.0
 16
0.0
 26
0.0
 36
17.1152628219792007
 17
3803.5440673828129547
 27
125.9952621967499056
 37
0.0
 40
8.0566463069702632
 41
2.3500000000000001
 42
50.0
 43
0.0
 44
0.0
 50
0.0
 51
0.0
 71
     0
 72
   100
 73
     1
 74
     1
 75
     0
 76
     0
 77
     0
 78
     1
  0
ENDTAB
  0
TABLE
  2
LTYPE
 70
     2
  0
LTYPE
  2
CONTINUOUS
 70
     0
  3
Solid line
 72
    65
 73
     0
 40
0.0
  0
LTYPE
  2
PHANTOM2
 70
     0
  3
___ _ _ ___ _ _ ___ _ _ ___ _ _
 72
    65
 73
     6
 40
1.25
 49
0.625
 49
-0.125
 49
0.125
 49
-0.125
 49
0.125
 49
-0.125
  0
ENDTAB
  0
TABLE
  2
LAYER
 70
     2
  0
LAYER
  2
0
 70
     0
 62
   255
  6
CONTINUOUS
  0
LAYER
  2
DEFPOINTS
 70
     0
 62
     7
  6
CONTINUOUS
  0
ENDTAB
  0
TABLE
  2
STYLE
 70
     1
  0
STYLE
  2
STANDARD
 70
     0
 40
0.0
 41
0.8
 50
0.0
 71
     0
 42
0.2
  3
txt
  4

  0
ENDTAB
  0
TABLE
  2
VIEW
 70
     1
  0
ENDTAB
  0
TABLE
  2
UCS
 70
     0
  0
ENDTAB
  0
TABLE
  2
APPID
 70
     9
  0
APPID
  2
ACAD
 70
     0
  0
APPID
  2
ACAD_MLEADERVER
 70
     0
  0
APPID
  2
ACAD_EXEMPT_FROM_CAD_STANDARDS
 70
     0
  0
APPID
  2
ACAD_NAV_VCDISPLAY
 70
     0
  0
APPID
  2
ACAECLAYERSTANDARD
 70
     0
  0
APPID
  2
ACCMTRANSPARENCY
 70
     0
  0
APPID
  2
ACAD_DSTYLE_DIMJAG
 70
     0
  0
APPID
  2
ACAD_DSTYLE_DIMTALN
 70
     0
  0
APPID
  2
ACDBATTR
 70
     0
  0
ENDTAB
  0
TABLE
  2
DIMSTYLE
 70
     1
  0
DIMSTYLE
  2
STANDARD
 70
     0
  3

  4

  5

  6

  7

 40
1.0
 41
0.1875
 42
0.0625
 43
0.38
 44
0.125
 45
0.0
 46
0.0
 47
0.01
 48
0.01
140
0.15625
141
0.09
142
0.0
143
25.3999999999999986
144
1.0
145
0.0
146
1.0
147
0.09
 71
     1
 72
     0
 73
     1
 74
     1
 75
     0
 76
     0
 77
     0
 78
     4
170
     0
171
     2
172
     0
173
     0
174
     0
175
     0
176
     0
177
     0
178
     0
  0
ENDTAB
  0
ENDSEC
  0
SECTION
  2
BLOCKS
  0
BLOCK
  8
0
  2
$MODEL_SPACE
 70
     0
 10
0.0
 20
0.0
 30
0.0
  3
$MODEL_SPACE
  1

  0
ENDBLK
  5
21
  8
0
  0
BLOCK
 67
     1
  8
0
  2
$PAPER_SPACE
 70
     0
 10
0.0
 20
0.0
 30
0.0
  3
$PAPER_SPACE
  1

  0
ENDBLK
  5
1D
 67
     1
  8
0
  0
BLOCK
  8
0
  2
_FILLED
 70
     0
 10
0.0
 20
0.0
 30
0.0
  3
_FILLED
  1

  0
SOLID
  5
D1BB
  8
0
  6
BYBLOCK
 62
     0
 10
0.0
 20
0.0
 30
0.0
 11
-1.0
 21
0.1666666667
 31
0.0
 12
-1.0
 22
-0.1666666667
 32
0.0
 13
-1.0
 23
-0.1666666667
 33
0.0
  0
ENDBLK
  5
D1BC
  8
0
  6
BYBLOCK
 62
     0
  0
ENDSEC
  0
SECTION
  2
ENTITIES
  0
LINE
  5
15D6C
  8
0
 10
3703.1422321035538516
 20
136.2466927496192
 30
0.0
 11
3703.1422321308359642
 21
131.7466890884192026
 31
0.0
  0
LINE
  5
15D6D
  8
0
 10
3702.5642338061052214
 20
132.8823472253486955
 30
0.0
 11
3702.5642321035538771
 21
135.110584136019213
 31
0.0
  0
ARC
  5
15D6E
  8
0
 10
3702.624239307156131
 20
135.1105825837504995
 30
0.0
 40
0.0600072036220663
 50
117.4001752038620054
 51
179.9985178705528881
  0
ARC
  5
15D6F
  8
0
 10
3702.5749725950167885
 20
135.2056269951075933
 30
0.0
 40
0.0470472173755383
 50
297.400175203861977
 51
339.1047535108280044
  0
ARC
  5
15D70
  8
0
 10
3702.5105549435370449
 20
135.2186921257979009
 30
0.0
 40
0.1124052825064625
 50
344.6025885402506219
 51
358.219972616981579
  0
ARC
  5
15D71
  8
0
 10
3719.1914748324002176
 20
135.0214238937332141
 30
0.0
 40
16.5697019602950917
 50
177.2398097752661101
 51
179.3299313440477079
  0
ARC
  5
15D72
  8
0
 10
3702.6889942563170735
 20
135.8126228323114901
 30
0.0
 40
0.0484670760366587
 50
96.5128500968004772
 51
172.0207678838640959
  0
ARC
  5
15D73
  8
0
 10
3702.7001556365557917
 20
135.7095741235658011
 30
0.0
 40
0.1521179247595666
 50
90.2207768677982784
 51
96.2872121268531345
  0
LINE
  5
15D74
  8
0
 10
3702.6995694845541038
 20
135.8616909190191961
 30
0.0
 11
3702.7280675159540806
 21
135.8616909190191961
 31
0.0
  0
ARC
  5
15D75
  8
0
 10
3702.7308586097637999
 20
135.958828128704198
 30
0.0
 40
0.0971773003846523
 50
268.3541435091008225
 51
279.0541960301973745
  0
ARC
  5
15D76
  8
0
 10
3702.7374154584172175
 20
135.9105670434701096
 30
0.0
 40
0.048498634905107
 50
280.3770349713158794
 51
312.5367724247490173
  0
ARC
  5
15D77
  8
0
 10
3702.7347529966518778
 20
135.9117217786667027
 30
0.0
 40
0.0511631223643672
 50
313.8596113658530271
 51
346.2468750132019863
  0
ARC
  5
15D78
  8
0
 10
3693.0086663781680727
 20
138.2922422772514039
 30
0.0
 40
10.0643363833466601
 50
346.2468750132019863
 51
346.5013054944694773
  0
ARC
  5
15D79
  8
0
 10
3703.2307752836450163
 20
135.8516919902980078
 30
0.0
 40
0.4452585535286817
 50
133.3408306054980983
 51
168.1675300979343888
  0
ARC
  5
15D7A
  8
0
 10
3703.1197044904870381
 20
135.9393251145619104
 30
0.0
 40
0.3059889422985613
 50
95.0980960440362537
 51
129.4741948197396084
  0
ARC
  5
15D7B
  8
0
 10
3703.1618594439291883
 20
135.3911572784842008
 30
0.0
 40
0.8557605826750293
 50
91.314225505125421
 51
94.6479887405417344
  0
LINE
  5
15D7C
  8
0
 10
3702.7866642719841366
 20
135.9086265310228896
 30
0.0
 11
3702.7866133369220734
 21
132.0849642416168876
 31
0.0
  0
LINE
  5
15D7D
  8
0
 10
3702.6229059906700058
 20
135.2152010591736939
 30
0.0
 11
3702.6229059906700058
 21
132.778180778864396
 31
0.0
  0
LINE
  5
15D7E
  8
0
 10
3702.5642321035538771
 20
135.0606909190190947
 30
0.0
 11
3702.4767826709539804
 21
135.0606627690191885
 31
0.0
  0
ARC
  5
15D7F
  8
0
 10
3700.5277752660249462
 20
134.1775602382672901
 30
0.0
 40
0.4084344727611196
 50
150.7540231890235134
 51
170.2567062520064098
  0
ARC
  5
15D80
  8
0
 10
3700.3299223739618355
 20
134.2883449324407081
 30
0.0
 40
0.181676859083842
 50
106.3794911511538999
 51
150.7540231890235134
  0
ARC
  5
15D81
  8
0
 10
3700.3438134527241345
 20
134.2410846455223066
 30
0.0
 40
0.2309363433361025
 50
94.1055276178565521
 51
106.3794911511538999
  0
ARC
  5
15D82
  8
0
 10
3700.3249581391792162
 20
134.516252552592988
 30
0.0
 40
0.0448825882449803
 50
272.9634889131356204
 51
287.9355695206426731
  0
ARC
  5
15D83
  8
0
 10
3700.3305650143111052
 20
134.4945019780759026
 30
0.0
 40
0.0225037483978064
 50
291.4095767965404207
 51
325.7801515866779027
  0
ARC
  5
15D84
  8
0
 10
3700.3106977459287918
 20
134.5047331643291955
 30
0.0
 40
0.044767686965142
 50
329.2541588625934992
 51
346.977564427501477
  0
ARC
  5
15D85
  8
0
 10
3700.759623058635043
 20
134.4009054154219029
 30
0.0
 40
0.4160078959721671
 50
162.7117881095059886
 51
166.9775644275015054
  0
ARC
  5
15D86
  8
0
 10
3700.3914236335631358
 20
134.5166458959297131
 30
0.0
 40
0.0300672104603449
 50
119.0139254728786966
 51
164.79052660143401
  0
ARC
  5
15D87
  8
0
 10
3700.3916854110811983
 20
134.5154548744492899
 30
0.0
 40
0.0312376756701169
 50
90.5854824142255382
 51
118.3742446814011942
  0
LINE
  5
15D88
  8
0
 10
3700.3913662114541694
 20
134.546690919219202
 30
0.0
 11
3700.5428513053539064
 21
134.546690919219202
 31
0.0
  0
ARC
  5
15D89
  8
0
 10
3700.5427228648509299
 20
134.5163143556360978
 30
0.0
 40
0.0303768351228174
 50
32.1648006094863703
 51
89.757739058604983
  0
ARC
  5
15D8A
  8
0
 10
3700.5939346499221756
 20
134.5479151741349142
 30
0.0
 40
0.0298022814060706
 50
211.1800693599543877
 51
326.2314106360454957
  0
ARC
  5
15D8B
  8
0
 10
3700.7892775236791749
 20
134.4140435419600976
 30
0.0
 40
0.2070130621978602
 50
115.7008920270287007
 51
145.4822512323283945
  0
ARC
  5
15D8C
  8
0
 10
3700.9857358419590128
 20
133.9379692892441938
 30
0.0
 40
0.7217886631876077
 50
93.129893934790914
 51
113.3634589343786985
  0
ARC
  5
15D8D
  8
0
 10
3700.4610009367870589
 20
145.3600441172141018
 30
0.0
 40
10.7123623651970394
 50
272.5966838445663143
 51
275.3363012601615196
  0
ARC
  5
15D8E
  8
0
 10
3701.2684361328651903
 20
136.148242657767014
 30
0.0
 40
1.466342473473744
 50
277.3988746811472765
 51
293.3098365628529791
  0
ARC
  5
15D8F
  8
0
 10
3701.6629999987230804
 20
135.278948122778786
 30
0.0
 40
0.5122006744247544
 50
291.2537807986540201
 51
330.5264725528239751
  0
ARC
  5
15D90
  8
0
 10
3702.1322962139620358
 20
135.0187937166828078
 30
0.0
 40
0.0247595231541236
 50
99.5451553838840795
 51
160.8045454554153935
  0
ARC
  5
15D91
  8
0
 10
3702.1356989457381133
 20
134.9847923590496066
 30
0.0
 40
0.0588986462179475
 50
89.9019470947083192
 51
97.3240705570995601
  0
LINE
  5
15D92
  8
0
 10
3702.1357997416539547
 20
135.0436909190190988
 30
0.0
 11
3702.190839701654113
 21
135.0436665370191918
 31
0.0
  0
ARC
  5
15D93
  8
0
 10
3702.1932784133841778
 20
135.0749396087196033
 30
0.0
 40
0.0313680144172952
 50
265.5410300510505976
 51
297.6696116959291771
  0
ARC
  5
15D94
  8
0
 10
3702.193939454250085
 20
135.0693409801262987
 30
0.0
 40
0.0261802883765545
 50
302.0825138714154718
 51
353.7502313240611898
  0
ARC
  5
15D95
  8
0
 10
3702.330483315039146
 20
135.0289455908682896
 30
0.0
 40
0.1288213954631662
 50
23.3923113758909196
 51
87.3849171775276261
  0
ARC
  5
15D96
  8
0
 10
3702.3416651721181552
 20
135.0309630479885925
 30
0.0
 40
0.126780791323384
 50
92.3978418089916715
 51
163.7260253842858901
  0
ARC
  5
15D97
  8
0
 10
3702.4751662900771407
 20
135.0868676633295138
 30
0.0
 40
0.0273040370977243
 50
194.3708723395805862
 51
233.5340128304952998
  0
ARC
  5
15D98
  8
0
 10
3702.4742727891198228
 20
135.0897311201441084
 30
0.0
 40
0.0291763811911856
 50
238.2926853287600863
 51
274.9322377167413833
  0
LINE
  5
15D99
  8
0
 10
3702.4487166109538521
 20
135.080090870866087
 30
0.0
 11
3702.4487166109538521
 21
132.9132909671722018
 31
0.0
  0
LINE
  5
15D9A
  8
0
 10
3702.2199641473530392
 20
135.0664909192429093
 30
0.0
 11
3702.2199641473530392
 21
132.9268909190190868
 31
0.0
  0
LINE
  5
15D9B
  8
0
 10
3702.1089132595020601
 20
135.0269344431144987
 30
0.0
 11
3702.1089132595020601
 21
132.9664473949349031
 31
0.0
  0
LINE
  5
15D9C
  8
0
 10
3700.1252321035540263
 20
134.2466812979191957
 30
0.0
 11
3700.1252321035540263
 21
133.7467005401192068
 31
0.0
  0
LINE
  5
15D9D
  8
0
 10
3700.1252321035540263
 20
134.2366909190191961
 30
0.0
 11
3700.1072321035539971
 21
134.2366909190191961
 31
0.0
  0
LINE
  5
15D9E
  8
0
 10
3700.1072321035539971
 20
133.7566556138191913
 30
0.0
 11
3700.1072321035539971
 21
134.2366909190191961
 31
0.0
  0
LINE
  5
15D9F
  8
0
 10
3700.3540043902539765
 20
134.4935021266192052
 30
0.0
 11
3700.3540043902539765
 21
133.4999924100185922
 31
0.0
  0
LINE
  5
15DA0
  8
0
 10
3700.6196812921739365
 20
134.5328121462250976
 30
0.0
 11
3700.6196812921739365
 21
133.4606305617911914
 31
0.0
  0
ARC
  5
15DA1
  8
0
 10
3700.4030446608630882
 20
134.516794869658014
 30
0.0
 40
0.0298961464754949
 50
90.1458894915322162
 51
166.178493880361998
  0
ARC
  5
15DA2
  8
0
 10
3701.395817227551106
 20
134.3695101958574867
 30
0.0
 40
1.0334065665900849
 50
171.4058318658364044
 51
188.5941680599646872
  0
ARC
  5
15DA3
  8
0
 10
3702.4232358498679787
 20
133.9966909212064934
 30
0.0
 40
2.060826237013178
 50
173.9167569032925087
 51
179.9247319603304902
  0
ARC
  5
15DA4
  8
0
 10
3698.683423161526207
 20
133.9971388640952057
 30
0.0
 40
1.885010878174382
 50
359.9764126669546727
 51
6.6393739199543802
  0
ARC
  5
15DA5
  8
0
 10
3699.6095603556009337
 20
134.3702745185653953
 30
0.0
 40
0.9588739115335778
 50
350.6858654130493278
 51
9.3525143528194654
  0
ARC
  5
15DA6
  8
0
 10
3700.5273975705767953
 20
134.516961150722409
 30
0.0
 40
0.0297298556112197
 50
17.9012662463798904
 51
89.8612968106896943
  0
LINE
  5
15DA7
  8
0
 10
3700.5684338799669604
 20
134.5324913706201073
 30
0.0
 11
3700.5684338799669604
 21
133.4608904674182099
 31
0.0
  0
LINE
  5
15DA8
  8
0
 10
3700.3740141667540229
 20
134.2150833950190929
 30
0.0
 11
3700.5557923004189433
 21
134.2150833950190929
 31
0.0
  0
ARC
  5
15DA9
  8
0
 10
3702.624239307156131
 20
132.8827992542877894
 30
0.0
 40
0.0600072036220723
 50
180.4316081039551136
 51
242.5998247961379946
  0
ARC
  5
15DAA
  8
0
 10
3702.5749725950167885
 20
132.7877548429308092
 30
0.0
 40
0.0470472173755383
 50
20.8952464891719991
 51
62.5998247961380017
  0
ARC
  5
15DAB
  8
0
 10
3702.5105556225621513
 20
132.7746898564857077
 30
0.0
 40
0.112404589555028
 50
1.7797074553329071
 51
15.3974324715731594
  0
ARC
  5
15DAC
  8
0
 10
3719.1914748324061293
 20
132.9719579443053021
 30
0.0
 40
16.5697019603011384
 50
180.6700704009801939
 51
182.7601902247338046
  0
ARC
  5
15DAD
  8
0
 10
3702.6889942563170735
 20
132.1807590057267987
 30
0.0
 40
0.0484670760366587
 50
187.9792321161359041
 51
263.4871499031995086
  0
ARC
  5
15DAE
  8
0
 10
3702.7001556365557917
 20
132.2838077144724878
 30
0.0
 40
0.1521179247595666
 50
263.7127878731467945
 51
269.7792231322017074
  0
LINE
  5
15DAF
  8
0
 10
3702.6995694845541038
 20
132.1316909190192064
 30
0.0
 11
3702.7280675159540806
 21
132.1316909190192064
 31
0.0
  0
ARC
  5
15DB0
  8
0
 10
3702.7308586097637999
 20
132.0345537093340909
 30
0.0
 40
0.0971773003846523
 50
80.9458039698025829
 51
91.6458564908992059
  0
ARC
  5
15DB1
  8
0
 10
3702.7374154584172175
 20
132.0828147945682076
 30
0.0
 40
0.048498634905107
 50
47.4632275752510822
 51
79.622965028684078
  0
ARC
  5
15DB2
  8
0
 10
3702.7347529966518778
 20
132.0816600593716998
 30
0.0
 40
0.0511631223643672
 50
13.7531249867979692
 51
46.1403886341469587
  0
ARC
  5
15DB3
  8
0
 10
3693.0086663781680727
 20
129.7011395607869986
 30
0.0
 40
10.0643363833466601
 50
13.4986945055304499
 51
13.7531249867979692
  0
ARC
  5
15DB4
  8
0
 10
3703.2307752836450163
 20
132.1416898477403947
 30
0.0
 40
0.4452585535286817
 50
191.8324699020656112
 51
226.659169394501788
  0
ARC
  5
15DB5
  8
0
 10
3703.1197044904870381
 20
132.0540567234764922
 30
0.0
 40
0.3059889422985613
 50
230.5258051802605053
 51
264.9019039559636894
  0
ARC
  5
15DB6
  8
0
 10
3703.2127141803980521
 20
133.5787524305806926
 30
0.0
 40
1.8334186125929961
 50
266.2409516183819278
 51
267.7968374017910946
  0
LINE
  5
15DB7
  8
0
 10
3702.5642321035538771
 20
132.9326909190191941
 30
0.0
 11
3702.4767826709539804
 21
132.932719069019214
 31
0.0
  0
ARC
  5
15DB8
  8
0
 10
3700.5277752660249462
 20
133.8158215997709988
 30
0.0
 40
0.4084344727611196
 50
189.7432937479935902
 51
209.2459768109750939
  0
ARC
  5
15DB9
  8
0
 10
3700.3299223739618355
 20
133.7050369055976944
 30
0.0
 40
0.181676859083842
 50
209.2459768109750939
 51
253.6205088488459864
  0
ARC
  5
15DBA
  8
0
 10
3700.3438134527241345
 20
133.7522971925160959
 30
0.0
 40
0.2309363433361025
 50
253.6205088488459864
 51
265.8944723821434764
  0
ARC
  5
15DBB
  8
0
 10
3700.3249581391792162
 20
133.4771292854453861
 30
0.0
 40
0.0448825882449803
 50
72.0644304793573127
 51
87.0365110868643654
  0
ARC
  5
15DBC
  8
0
 10
3700.3305650143111052
 20
133.4988798599624999
 30
0.0
 40
0.0225037483978064
 50
34.2198484133221186
 51
68.590423203460162
  0
ARC
  5
15DBD
  8
0
 10
3700.3106977459287918
 20
133.4886486737092071
 30
0.0
 40
0.044767686965142
 50
13.0224355724984697
 51
30.7458411374065008
  0
ARC
  5
15DBE
  8
0
 10
3700.759623058635043
 20
133.5924764226163859
 30
0.0
 40
0.4160078959721671
 50
193.0224355724984093
 51
197.2882118904940114
  0
ARC
  5
15DBF
  8
0
 10
3700.3914236335631358
 20
133.4767359421086894
 30
0.0
 40
0.0300672104603449
 50
195.2094733985659047
 51
240.9860745271213034
  0
ARC
  5
15DC0
  8
0
 10
3700.3916854110811983
 20
133.4779269635891126
 30
0.0
 40
0.0312376756701169
 50
241.6257553185986922
 51
269.4145175857744903
  0
LINE
  5
15DC1
  8
0
 10
3700.3913662114541694
 20
133.4466909188192005
 30
0.0
 11
3700.5428513053539064
 21
133.4466909188192005
 31
0.0
  0
ARC
  5
15DC2
  8
0
 10
3700.5427228648509299
 20
133.4770674824023047
 30
0.0
 40
0.0303768351228174
 50
270.2422609413949885
 51
327.8351993905137078
  0
ARC
  5
15DC3
  8
0
 10
3700.5939346499221756
 20
133.4454666639034883
 30
0.0
 40
0.0298022814060706
 50
33.7685893639544972
 51
148.8199306400456123
  0
ARC
  5
15DC4
  8
0
 10
3700.7892775236791749
 20
133.5793382960783049
 30
0.0
 40
0.2070130621978602
 50
214.5177487676716055
 51
244.2991079729713135
  0
ARC
  5
15DC5
  8
0
 10
3700.9857358419590128
 20
134.0554125487942088
 30
0.0
 40
0.7217886631876077
 50
246.6365410656212873
 51
266.870106065209086
  0
ARC
  5
15DC6
  8
0
 10
3700.4610009367870589
 20
122.6333377208242013
 30
0.0
 40
10.7123623651970394
 50
84.6636987398384946
 51
87.4033161554336573
  0
ARC
  5
15DC7
  8
0
 10
3701.2684361328651903
 20
131.8451391802713886
 30
0.0
 40
1.466342473473744
 50
66.6901634371469356
 51
82.6011253188526666
  0
ARC
  5
15DC8
  8
0
 10
3701.6629999987230804
 20
132.7144337152595881
 30
0.0
 40
0.5122006744247544
 50
29.473527447176
 51
68.7462192013459799
  0
ARC
  5
15DC9
  8
0
 10
3702.1322962139620358
 20
132.9745881213555947
 30
0.0
 40
0.0247595231541236
 50
199.1954545445844929
 51
260.45484461611602
  0
ARC
  5
15DCA
  8
0
 10
3702.1356989457381133
 20
133.0085894789887107
 30
0.0
 40
0.0588986462179475
 50
262.6759294429004967
 51
270.098052905291695
  0
LINE
  5
15DCB
  8
0
 10
3702.1357997416539547
 20
132.94969091901919
 30
0.0
 11
3702.190839701654113
 21
132.9497153010192108
 31
0.0
  0
ARC
  5
15DCC
  8
0
 10
3702.1932784133841778
 20
132.918442229318714
 30
0.0
 40
0.0313680144172952
 50
62.3303883040708087
 51
94.4589699489494876
  0
ARC
  5
15DCD
  8
0
 10
3702.193939454250085
 20
132.9240408579121038
 30
0.0
 40
0.0261802883765545
 50
6.2497686759387507
 51
57.9174861285845211
  0
ARC
  5
15DCE
  8
0
 10
3702.3364568938800403
 20
132.955690918981702
 30
0.0
 40
0.1199999999624766
 50
193.8865403485972081
 51
339.308691830798125
  0
ARC
  5
15DCF
  8
0
 10
3702.4751662900771407
 20
132.9065141747088887
 30
0.0
 40
0.0273040370977243
 50
126.4659871695047002
 51
165.6291276604193001
  0
ARC
  5
15DD0
  8
0
 10
3702.4742727891198228
 20
132.9036507178942088
 30
0.0
 40
0.0291763811911856
 50
85.067762283258574
 51
121.7073146712398994
  0
LINE
  5
15DD1
  8
0
 10
3700.1252321035540263
 20
133.7566909190192064
 30
0.0
 11
3700.1072321035539971
 21
133.7566909190192064
 31
0.0
  0
ARC
  5
15DD2
  8
0
 10
3700.4030446608630882
 20
133.4765869683803885
 30
0.0
 40
0.0298961464754949
 50
193.8215061196378883
 51
269.8541105084677838
  0
ARC
  5
15DD3
  8
0
 10
3701.395817227551106
 20
133.6238716421808022
 30
0.0
 40
1.0334065665900849
 50
171.4058319400353128
 51
188.5941681341635956
  0
ARC
  5
15DD4
  8
0
 10
3702.4232358518038382
 20
133.9966909169870064
 30
0.0
 40
2.060826238955336
 50
179.9247318430905125
 51
186.0832430952885943
  0
ARC
  5
15DD5
  8
0
 10
3698.6829372042197974
 20
133.9962697979146924
 30
0.0
 40
1.8854966780422191
 50
353.3615237974256047
 51
0.0028276083443739
  0
ARC
  5
15DD6
  8
0
 10
3699.6095603556009337
 20
133.6231073194730072
 30
0.0
 40
0.9588739115335778
 50
350.6474856471804742
 51
9.3141345869507237
  0
ARC
  5
15DD7
  8
0
 10
3700.5273975705767953
 20
133.4764206873159083
 30
0.0
 40
0.0297298556112197
 50
270.1387031893103199
 51
342.0987337536200812
  0
LINE
  5
15DD8
  8
0
 10
3700.3740141667540229
 20
133.7782984430191959
 30
0.0
 11
3700.5557923004189433
 21
133.7782984430191959
 31
0.0
  0
ARC
  5
15DD9
  8
0
 10
3700.0972314786331481
 20
134.2366549241340863
 30
0.0
 40
0.0100006896985589
 50
0.2062217220569277
 51
89.9970241408187945
  0
LINE
  5
15DDA
  8
0
 10
3700.0972319980542125
 20
134.2466556138192004
 30
0.0
 11
3700.0694781928900738
 21
134.2466570553112888
 31
0.0
  0
ARC
  5
15DDB
  8
0
 10
3700.0694813094228266
 20
134.3066612991904947
 30
0.0
 40
0.0600042439600956
 50
193.00653745428761
 51
269.9970241408187803
  0
ARC
  5
15DDC
  8
0
 10
3699.9780708267649061
 20
134.2855465402570019
 30
0.0
 40
0.0338131818447767
 50
13.0065374542876206
 51
65.0746727054366403
  0
ARC
  5
15DDD
  8
0
 10
3699.9632509971647778
 20
134.2414337623229983
 30
0.0
 40
0.0802283653509207
 50
68.7560265691345904
 51
90.7277252936276852
  0
LINE
  5
15DDE
  8
0
 10
3699.9622320278540428
 20
134.3216556565191979
 30
0.0
 11
3699.7449875423508274
 21
134.3216556138191891
 31
0.0
  0
ARC
  5
15DDF
  8
0
 10
3699.7449875364541185
 20
134.3516556138191902
 30
0.0
 40
0.0299999999999866
 50
224.6657998928220934
 51
270.0000112616411911
  0
ARC
  5
15DE0
  8
0
 10
3699.3790017289729803
 20
133.9803872667314977
 30
0.0
 40
0.4913334829313688
 50
45.4559965201977292
 51
89.3686314287817254
  0
ARC
  5
15DE1
  8
0
 10
3699.3932043326331041
 20
133.9682253643875072
 30
0.0
 40
0.5035422545734529
 50
91.0000522706195767
 51
117.816331603565601
  0
ARC
  5
15DE2
  8
0
 10
3699.0013886935121263
 20
134.6804287466223968
 30
0.0
 40
0.3095268095699373
 50
284.1720001381103771
 51
300.4455706477688182
  0
ARC
  5
15DE3
  8
0
 10
3699.0834821647490571
 20
134.3509936540216927
 30
0.0
 40
0.0299999999944765
 50
102.1436621422582931
 51
171.8631561493085087
  0
ARC
  5
15DE4
  8
0
 10
3698.9307148126990796
 20
134.3697776372908095
 30
0.0
 40
0.1239251416004773
 50
333.1817596766784959
 51
353.2647522593845792
  0
ARC
  5
15DE5
  8
0
 10
3698.9866825377921487
 20
134.3427912345046877
 30
0.0
 40
0.061812960524236
 50
294.6586026671985223
 51
332.1002678301720721
  0
ARC
  5
15DE6
  8
0
 10
3698.9842679928028701
 20
134.3467277056849127
 30
0.0
 40
0.0664001326793525
 50
253.6279018535560965
 51
295.1349430710635033
  0
ARC
  5
15DE7
  8
0
 10
3698.9799908380027773
 20
134.3321690084592888
 30
0.0
 40
0.0512261510630498
 50
202.6127360842465066
 51
253.6279018535560965
  0
ARC
  5
15DE8
  8
0
 10
3698.9016793847808913
 20
134.2995506709802953
 30
0.0
 40
0.0336068592912561
 50
22.6127360842464711
 51
60.29288612171068
  0
ARC
  5
15DE9
  8
0
 10
3698.8609544369469404
 20
134.2088754806767099
 30
0.0
 40
0.132891066742575
 50
64.4195777648900787
 51
88.3841320479474319
  0
ARC
  5
15DEA
  8
0
 10
3698.8710383572179126
 20
134.1999953954550051
 30
0.0
 40
0.1418598991020751
 50
92.560138298176355
 51
111.9684128343004943
  0
ARC
  5
15DEB
  8
0
 10
3698.8303159891861469
 20
134.3040802195108085
 30
0.0
 40
0.0301214142982592
 50
114.1985470879188966
 51
182.8563747965285131
  0
LINE
  5
15DEC
  8
0
 10
3698.800231998054187
 20
134.3025791942191915
 30
0.0
 11
3698.800231998054187
 21
133.6907320335191969
 31
0.0
  0
ARC
  5
15DED
  8
0
 10
3698.7702319980539869
 20
134.3025791942191915
 30
0.0
 40
0.0300000000000011
 50
306.1173315352997975
 51
359.9999999999968168
  0
ARC
  5
15DEE
  8
0
 10
3698.938934101634004
 20
134.0833281954126051
 30
0.0
 40
0.2466540013581147
 50
127.7538309055548069
 51
164.0858801153424906
  0
ARC
  5
15DEF
  8
0
 10
3699.1306914266720014
 20
134.016868433584591
 30
0.0
 40
0.4494279298644863
 50
162.640867188406105
 51
174.7831752161613963
  0
ARC
  5
15DF0
  8
0
 10
3699.3039655197640059
 20
133.9977171761433965
 30
0.0
 40
0.6237344250710254
 50
174.4784786191922876
 51
180.0942712572530127
  0
LINE
  5
15DF1
  8
0
 10
3700.0110164026468738
 20
134.293157078944887
 30
0.0
 11
3700.0110164026468738
 21
133.7001541487933878
 31
0.0
  0
LINE
  5
15DF2
  8
0
 10
3699.7449875364541185
 20
134.3216556138191891
 30
0.0
 11
3699.7449875364541185
 21
133.6716556138192118
 31
0.0
  0
LINE
  5
15DF3
  8
0
 10
3699.0537841793538973
 20
134.3552397891066903
 30
0.0
 11
3699.0537841793538973
 21
133.6380714386316981
 31
0.0
  0
LINE
  5
15DF4
  8
0
 10
3698.9327027090539559
 20
134.3124725263153039
 30
0.0
 11
3698.9327027090539559
 21
133.6808387014229993
 31
0.0
  0
ARC
  5
15DF5
  8
0
 10
3700.0972314786331481
 20
133.7567269139042878
 30
0.0
 40
0.0100006896985589
 50
270.0029758591812197
 51
359.7937782779430904
  0
LINE
  5
15DF6
  8
0
 10
3700.0972319980542125
 20
133.7467262242190884
 30
0.0
 11
3700.0694781928900738
 21
133.7467247827271137
 31
0.0
  0
ARC
  5
15DF7
  8
0
 10
3700.0694813094228266
 20
133.6867205388479078
 30
0.0
 40
0.0600042439600956
 50
90.0029758591811913
 51
166.99346254571239
  0
ARC
  5
15DF8
  8
0
 10
3699.9780708267649061
 20
133.707835297781287
 30
0.0
 40
0.0338131818447767
 50
294.9253272945633171
 51
346.9934625457124184
  0
ARC
  5
15DF9
  8
0
 10
3699.9632509971647778
 20
133.7519480757154042
 30
0.0
 40
0.0802283653509207
 50
269.2722747063724
 51
291.2439734308654238
  0
LINE
  5
15DFA
  8
0
 10
3699.9622320278540428
 20
133.6717261815192046
 30
0.0
 11
3699.7449875423508274
 21
133.6717262242192135
 31
0.0
  0
ARC
  5
15DFB
  8
0
 10
3699.7449875364541185
 20
133.6417262242192123
 30
0.0
 40
0.0299999999999866
 50
89.9999887383587662
 51
135.3342001071777929
  0
ARC
  5
15DFC
  8
0
 10
3699.3836872884521654
 20
133.9991511868163059
 30
0.0
 40
0.4782228608064801
 50
299.5126147409869191
 51
315.3073441091526092
  0
ARC
  5
15DFD
  8
0
 10
3699.083664975109059
 20
133.642475641531405
 30
0.0
 40
0.0301934095416248
 50
188.2520345014808072
 51
257.5520407626685255
  0
ARC
  5
15DFE
  8
0
 10
3698.9307148126990796
 20
133.623604200747593
 30
0.0
 40
0.1239251416004773
 50
6.7352477406154296
 51
26.8182403233215112
  0
ARC
  5
15DFF
  8
0
 10
3698.9866825377921487
 20
133.6505906035336011
 30
0.0
 40
0.061812960524236
 50
27.8997321698279492
 51
65.3413973328014919
  0
ARC
  5
15E00
  8
0
 10
3698.9842679928028701
 20
133.6466541323534045
 30
0.0
 40
0.0664001326793525
 50
64.8650569289365535
 51
106.3720981464439035
  0
ARC
  5
15E01
  8
0
 10
3698.9799908380027773
 20
133.6612128295790001
 30
0.0
 40
0.0512261510630498
 50
106.3720981464439035
 51
157.3872639157534934
  0
ARC
  5
15E02
  8
0
 10
3698.9016793847808913
 20
133.6938311670581072
 30
0.0
 40
0.0336068592912561
 50
299.7071138782893058
 51
337.3872639157535218
  0
ARC
  5
15E03
  8
0
 10
3698.8698650740197991
 20
133.7882850399898018
 30
0.0
 40
0.1366924498086449
 50
247.6877412369537126
 51
268.0950247249526228
  0
ARC
  5
15E04
  8
0
 10
3698.8628304572589514
 20
133.7766465911763021
 30
0.0
 40
0.1250032715907737
 50
271.1416943621022142
 51
296.3603533540990043
  0
ARC
  5
15E05
  8
0
 10
3698.8303159891861469
 20
133.6893016185275087
 30
0.0
 40
0.0301214142982592
 50
177.1436252034714869
 51
245.8014529120810892
  0
ARC
  5
15E06
  8
0
 10
3698.7702319980539869
 20
133.690802643819211
 30
0.0
 40
0.0300000000000011
 50
0.0000000000032569
 51
53.8826684647002523
  0
ARC
  5
15E07
  8
0
 10
3698.938934101634004
 20
133.9100536426257975
 30
0.0
 40
0.2466540013581147
 50
195.9141198846573957
 51
232.2461690944452073
  0
ARC
  5
15E08
  8
0
 10
3699.1306914266720014
 20
133.9765134044538115
 30
0.0
 40
0.4494279298644863
 50
185.2168247838370121
 51
197.359132811593895
  0
ARC
  5
15E09
  8
0
 10
3699.3039655197640059
 20
133.995664661895006
 30
0.0
 40
0.6237344250710254
 50
179.9057287427469873
 51
185.5215213808060071
  0
ARC
  5
15E0A
  8
0
 10
3699.2838375691781039
 20
130.7410421135004128
 30
0.0
 40
0.0403787916235743
 50
247.9876437476227977
 51
270.1972046235704852
  0
ARC
  5
15E0B
  8
0
 10
3699.2801227569048024
 20
130.7259514213538125
 30
0.0
 40
0.0250935200930107
 50
190.5081400594588956
 51
242.9302677443697007
  0
ARC
  5
15E0C
  8
0
 10
3699.1571048644041184
 20
130.6959561382101072
 30
0.0
 40
0.1015770605226449
 50
14.4918330901301697
 51
82.892922222471654
  0
ARC
  5
15E0D
  8
0
 10
3699.1707239897750696
 20
130.821359931908006
 30
0.0
 40
0.024629644120836
 50
190.1788804710809018
 51
267.5529279540639891
  0
ARC
  5
15E0E
  8
0
 10
3699.1925728750161397
 20
130.824957085013807
 30
0.0
 40
0.0467714407180437
 50
178.3076034201856999
 51
189.7860872649285966
  0
LINE
  5
15E0F
  8
0
 10
3699.1458218365542052
 20
130.8263384139191885
 30
0.0
 11
3699.1458170248552051
 21
130.8489424537191894
 31
0.0
  0
ARC
  5
15E10
  8
0
 10
3699.1216181389381745
 20
130.8527540285720079
 30
0.0
 40
0.0240920314779184
 50
3.560738012167175
 51
69.1837984249778088
  0
ARC
  5
15E11
  8
0
 10
3699.0814290167500076
 20
130.8497381838402873
 30
0.0
 40
0.0643929248752685
 50
359.2919542310175984
 51
4.018103052843446
  0
ARC
  5
15E12
  8
0
 10
3699.2519264291768195
 20
131.0832415757296872
 30
0.0
 40
0.2409833823290024
 50
196.5650829447795047
 51
239.6548553264391899
  0
ARC
  5
15E13
  8
0
 10
3698.9977304309149986
 20
131.0105444497939118
 30
0.0
 40
0.0235549615862797
 50
9.7566820612220955
 51
79.7375242716753689
  0
ARC
  5
15E14
  8
0
 10
3699.0156980371921236
 20
131.0816771696221963
 30
0.0
 40
0.0498927476897218
 50
149.9505459036411992
 51
253.9775381077897976
  0
ARC
  5
15E15
  8
0
 10
3698.9538961509701949
 20
131.1234733682518083
 30
0.0
 40
0.0250834900211211
 50
317.9126209886799188
 51
69.8669193212952706
  0
ARC
  5
15E16
  8
0
 10
3699.0158273974748226
 20
131.231643843222912
 30
0.0
 40
0.1000055612889265
 50
122.179333898622005
 51
237.7953470896048032
  0
ARC
  5
15E17
  8
0
 10
3698.9538758506291742
 20
131.3398343873645899
 30
0.0
 40
0.0251001487914163
 50
290.2594716567368209
 51
42.0551542587557705
  0
ARC
  5
15E18
  8
0
 10
3699.0156065626970303
 20
131.3816216948694091
 30
0.0
 40
0.0498074695137395
 50
109.7111095606100974
 51
210.0934861436873007
  0
ARC
  5
15E19
  8
0
 10
3698.992342008803007
 20
131.4533750108674894
 30
0.0
 40
0.0256911997431515
 50
284.5761161601467961
 51
322.3212759168259822
  0
ARC
  5
15E1A
  8
0
 10
3698.9869081698980153
 20
131.4540287916190096
 30
0.0
 40
0.0305204970045506
 50
327.5924520608066928
 51
0.6210346062971231
  0
LINE
  5
15E1B
  8
0
 10
3699.0174268740538537
 20
131.4543595998192131
 30
0.0
 11
3699.1240153679527793
 21
132.9621022948192035
 31
0.0
  0
ARC
  5
15E1C
  8
0
 10
3699.0984892069000125
 20
132.9668919995860961
 30
0.0
 40
0.0259716416481398
 50
349.3726481765710901
 51
73.2150240947702571
  0
ARC
  5
15E1D
  8
0
 10
3699.1258218366260735
 20
133.0376556138797071
 30
0.0
 40
0.0500000000838288
 50
141.4867674526093992
 51
246.6310557551618956
  0
ARC
  5
15E1E
  8
0
 10
3699.0632246873537952
 20
133.0874712431192108
 30
0.0
 40
0.0299999999999999
 50
321.4867674011866825
 51
50.73326591048815
  0
ARC
  5
15E1F
  8
0
 10
3699.2268429610708154
 20
133.2711958493603106
 30
0.0
 40
0.2160501319257701
 50
180.9389007627466128
 51
227.9769522259456949
  0
ARC
  5
15E20
  8
0
 10
3698.9241331576818084
 20
133.5237379948169973
 30
0.0
 40
0.2703573799698923
 50
288.7019220811275773
 51
322.1233664797629217
  0
ARC
  5
15E21
  8
0
 10
3698.8974276627700419
 20
133.5314527402206011
 30
0.0
 40
0.2963527995558068
 50
324.1164246573333116
 51
354.6096349746529768
  0
LINE
  5
15E22
  8
0
 10
3699.1924699238220455
 20
133.5036130926191902
 30
0.0
 11
3699.579173749254096
 21
133.5036130926191902
 31
0.0
  0
LINE
  5
15E23
  8
0
 10
3699.0108218365539869
 20
133.267655613819187
 30
0.0
 11
3699.7608218365539869
 21
133.267655613819187
 31
0.0
  0
LINE
  5
15E24
  8
0
 10
3699.086698618263199
 20
133.0687903821192037
 30
0.0
 11
3699.6849450547611013
 21
133.0687903821192037
 31
0.0
  0
LINE
  5
15E25
  8
0
 10
3699.1301797552341668
 20
130.8752734581192101
 30
0.0
 11
3699.6414639184190492
 21
130.8752734581192101
 31
0.0
  0
LINE
  5
15E26
  8
0
 10
3699.0019269312570032
 20
131.033722577419212
 30
0.0
 11
3699.7696745888520127
 21
131.033722577419212
 31
0.0
  0
LINE
  5
15E27
  8
0
 10
3698.9625299343661027
 20
131.1470241486192094
 30
0.0
 11
3699.8091137386418268
 21
131.1470241486192094
 31
0.0
  0
LINE
  5
15E28
  8
0
 10
3698.9625673330219797
 20
131.3162870817191958
 30
0.0
 11
3699.809113796030033
 21
131.3162870817191958
 31
0.0
  0
LINE
  5
15E29
  8
0
 10
3698.9988076088698108
 20
131.4285107039191871
 30
0.0
 11
3699.7728735201831114
 21
131.4285107039191871
 31
0.0
  0
LINE
  5
15E2A
  8
0
 10
3699.1059893151800679
 20
132.9917571269598966
 30
0.0
 11
3699.6656543579279059
 21
132.9917571269598966
 31
0.0
  0
LINE
  5
15E2B
  8
0
 10
3699.754254254998159
 20
131.4543595998192131
 30
0.0
 11
3699.647628305121998
 21
132.9621022948192035
 31
0.0
  0
ARC
  5
15E2C
  8
0
 10
3699.6731544661761291
 20
132.9668919995860961
 30
0.0
 40
0.0259716416481398
 50
106.7849759052297003
 51
190.6273518234289099
  0
ARC
  5
15E2D
  8
0
 10
3699.6458218364509776
 20
133.0376556138797071
 30
0.0
 40
0.0500000000838288
 50
293.368944244838076
 51
38.5132325473905865
  0
ARC
  5
15E2E
  8
0
 10
3699.7084189857218917
 20
133.0874712431192108
 30
0.0
 40
0.0299999999999999
 50
129.2667340895118002
 51
218.5132325988132891
  0
ARC
  5
15E2F
  8
0
 10
3699.5448007120048715
 20
133.2711958493603106
 30
0.0
 40
0.2160501319257701
 50
312.0230477740543051
 51
359.0610992372534156
  0
ARC
  5
15E30
  8
0
 10
3699.8475105153938784
 20
133.5237379948169973
 30
0.0
 40
0.2703573799698923
 50
217.876633520237192
 51
251.2980779188723091
  0
ARC
  5
15E31
  8
0
 10
3699.8742160103060996
 20
133.5314527402206011
 30
0.0
 40
0.2963527995558068
 50
185.3903650253452895
 51
215.8835753426666884
  0
ARC
  5
15E32
  8
0
 10
3699.4878423609411584
 20
130.7410463386904098
 30
0.0
 40
0.0403831581808922
 50
269.7512643390031144
 51
292.0116864433463206
  0
ARC
  5
15E33
  8
0
 10
3699.4915583721481198
 20
130.7259514213538125
 30
0.0
 40
0.0250935200930107
 50
297.0697322556301856
 51
349.491859940541076
  0
ARC
  5
15E34
  8
0
 10
3699.6145762646478943
 20
130.6959561382101072
 30
0.0
 40
0.1015770605226416
 50
97.1070777775283318
 51
165.5081669098698001
  0
ARC
  5
15E35
  8
0
 10
3699.6009571392769431
 20
130.821359931908006
 30
0.0
 40
0.0246296441208336
 50
272.4470720459099766
 51
349.8211195289189845
  0
ARC
  5
15E36
  8
0
 10
3699.579108254035873
 20
130.824957085013807
 30
0.0
 40
0.0467714407180437
 50
350.2139127350714034
 51
1.6923965798142631
  0
LINE
  5
15E37
  8
0
 10
3699.6258592924978075
 20
130.8263384139191885
 30
0.0
 11
3699.6258641041981718
 21
130.8489424537191894
 31
0.0
  0
ARC
  5
15E38
  8
0
 10
3699.6501041475171405
 20
130.8527390757462001
 30
0.0
 40
0.0241340412655351
 50
110.9780360096048071
 51
176.4098999958432046
  0
ARC
  5
15E39
  8
0
 10
3699.6902521123020051
 20
130.8497381838402873
 30
0.0
 40
0.0643929248752685
 50
175.981896947156514
 51
180.7080457689824016
  0
ARC
  5
15E3A
  8
0
 10
3699.5198770067340774
 20
131.083178346972602
 30
0.0
 40
0.2408481262167369
 50
300.3199446076906156
 51
343.4410390400478832
  0
ARC
  5
15E3B
  8
0
 10
3699.7739879395699063
 20
131.0105252676393093
 30
0.0
 40
0.0235949184240075
 50
100.5333876228787062
 51
170.2127367437188923
  0
ARC
  5
15E3C
  8
0
 10
3699.756014639463956
 20
131.081679399276112
 30
0.0
 40
0.0498643257240787
 50
285.8989936378512198
 51
30.0653882075288905
  0
ARC
  5
15E3D
  8
0
 10
3699.8178011167779005
 20
131.1234774216538881
 30
0.0
 40
0.0250981849870534
 50
110.2511392806291042
 51
222.0695520052177869
  0
ARC
  5
15E3E
  8
0
 10
3699.7558750744469762
 20
131.2316556332197024
 30
0.0
 40
0.099984216509447
 50
302.1725415120819775
 51
57.8274196357975967
  0
ARC
  5
15E3F
  8
0
 10
3699.8178052784228385
 20
131.3398343873645899
 30
0.0
 40
0.0251001487914163
 50
137.944845741244194
 51
249.7405283432632075
  0
ARC
  5
15E40
  8
0
 10
3699.7560745663558919
 20
131.3816216948694091
 30
0.0
 40
0.0498074695137395
 50
329.9065138563125856
 51
70.2888904393899168
  0
ARC
  5
15E41
  8
0
 10
3699.7793391202499151
 20
131.4533750108674894
 30
0.0
 40
0.0256911997431515
 50
217.6787240831739894
 51
255.4238838398532039
  0
ARC
  5
15E42
  8
0
 10
3699.7847729591539974
 20
131.4540287916190096
 30
0.0
 40
0.0305204970045506
 50
179.3789653937029129
 51
212.4075479391933072
  0
ARC
  5
15E43
  8
0
 10
3699.1130267481121336
 20
133.5131931238975085
 30
0.0
 40
0.080018717598949
 50
353.123919409590826
 51
62.0186688224952576
  0
ARC
  5
15E44
  8
0
 10
3699.0079589842789574
 20
133.3315635297539927
 30
0.0
 40
0.2898108266247163
 50
60.5223548273757785
 51
76.1861280152157434
  0
ARC
  5
15E45
  8
0
 10
3699.6585842263489212
 20
133.5133072119822089
 30
0.0
 40
0.0799999989597203
 50
119.4368357052801031
 51
186.9600071610001066
  0
LINE
  5
15E46
  8
0
 10
3699.2836985909011673
 20
130.7006635610497085
 30
0.0
 11
3699.4880176740289244
 21
130.7006635610497085
 31
0.0
  0
LINE
  5
15E47
  8
0
 10
3699.169672390642063
 20
130.7967527478191982
 30
0.0
 11
3699.6020087384099497
 21
130.7967527478191982
 31
0.0
  0
ATTDEF
  5
15E49
  8
DEFPOINTS
 10
3703.1424489423229716
 20
134.0000127299587973
 30
0.0
 40
0.001
  1
K-C72770-4
  3

  2
MODELNUMBER
 70
     0
1001
ACDBATTR
1070
     0
1070
     1
  0
ATTDEF
  5
15E4A
  8
DEFPOINTS
 10
3703.1424489423229716
 20
133.9983460632921037
 30
0.0
 40
0.001
  1
ARTIFACTS
  3

  2
TRADENAME
 70
     0
1001
ACDBATTR
1070
     0
1070
     1
  0
ATTDEF
  5
15E4B
  8
DEFPOINTS
 10
3703.1424489423229716
 20
133.9966793966254102
 30
0.0
 40
0.001
  1
VALVE TRIM
  3

  2
PRODUCT
 70
     0
1001
ACDBATTR
1070
     0
1070
     1
  0
ENDSEC
  0
EOF
