  0
SECTION
  2
HEADER
  9
$ACADVER
  1
AC1009
  9
$INSBASE
 10
3701.1954520931280967
 20
136.0351258545769042
 30
0.0
  9
$EXTMIN
 10
3698.9454502625280838
 20
131.5731257762668918
 30
0.0
  9
$EXTMAX
 10
3703.4454539237281097
 20
136.0395186093003019
 30
0.0
  9
$LIMMIN
 10
0.0
 20
0.0
  9
$LIMMAX
 10
11.6929133858000007
 20
8.2677165353999982
  9
$ORTHOMODE
 70
     0
  9
$REGENMODE
 70
     1
  9
$FILLMODE
 70
     1
  9
$QTEXTMODE
 70
     0
  9
$MIRRTEXT
 70
     0
  9
$DRAGMODE
 70
     2
  9
$LTSCALE
 40
0.6431102362
  9
$OSMODE
 70
   575
  9
$ATTMODE
 70
     1
  9
$TEXTSIZE
 40
0.2
  9
$TRACEWID
 40
0.05
  9
$TEXTSTYLE
  7
STANDARD
  9
$CLAYER
  8
0
  9
$CELTYPE
  6
BYLAYER
  9
$CECOLOR
 62
   256
  9
$DIMSCALE
 40
1.0
  9
$DIMASZ
 40
0.1875
  9
$DIMEXO
 40
0.0625
  9
$DIMDLI
 40
0.4443307087
  9
$DIMRND
 40
0.0
  9
$DIMDLE
 40
0.0
  9
$DIMEXE
 40
0.125
  9
$DIMTP
 40
0.01
  9
$DIMTM
 40
0.01
  9
$DIMTXT
 40
2.0
  9
$DIMCEN
 40
0.1052362205
  9
$DIMTSZ
 40
0.0
  9
$DIMTOL
 70
     1
  9
$DIMLIM
 70
     0
  9
$DIMTIH
 70
     1
  9
$DIMTOH
 70
     1
  9
$DIMSE1
 70
     0
  9
$DIMSE2
 70
     0
  9
$DIMTAD
 70
     0
  9
$DIMZIN
 70
     0
  9
$DIMBLK
  1

  9
$DIMASO
 70
     1
  9
$DIMSHO
 70
     1
  9
$DIMPOST
  1
\X
  9
$DIMAPOST
  1

  9
$DIMALT
 70
     1
  9
$DIMALTD
 70
     2
  9
$DIMALTF
 40
25.3999999999999986
  9
$DIMLFAC
 40
1.0
  9
$DIMTOFL
 70
     0
  9
$DIMTVP
 40
0.0
  9
$DIMTIX
 70
     0
  9
$DIMSOXD
 70
     0
  9
$DIMSAH
 70
     0
  9
$DIMBLK1
  1

  9
$DIMBLK2
  1

  9
$DIMSTYLE
  2
STANDARD
  9
$DIMCLRD
 70
     0
  9
$DIMCLRE
 70
     0
  9
$DIMCLRT
 70
     0
  9
$DIMTFAC
 40
1.0
  9
$DIMGAP
 40
0.09
  9
$LUNITS
 70
     2
  9
$LUPREC
 70
     4
  9
$SKETCHINC
 40
0.1
  9
$FILLETRAD
 40
0.0
  9
$AUNITS
 70
     0
  9
$AUPREC
 70
     0
  9
$MENU
  1
.
  9
$ELEVATION
 40
0.0
  9
$PELEVATION
 40
0.0
  9
$THICKNESS
 40
0.0
  9
$LIMCHECK
 70
     0
  9
$BLIPMODE
 70
     0
  9
$CHAMFERA
 40
0.0
  9
$CHAMFERB
 40
0.0
  9
$SKPOLY
 70
     0
  9
$TDCREATE
 40
2458060.468368056230247
  9
$TDUPDATE
 40
2459395.8007638892158866
  9
$TDINDWG
 40
0.3397292824
  9
$TDUSRTIMER
 40
0.3397292824
  9
$USRTIMER
 70
     1
  9
$ANGBASE
 50
0.0
  9
$ANGDIR
 70
     0
  9
$PDMODE
 70
     0
  9
$PDSIZE
 40
0.3125
  9
$PLINEWID
 40
0.0
  9
$COORDS
 70
     2
  9
$SPLFRAME
 70
     0
  9
$SPLINETYPE
 70
     6
  9
$SPLINESEGS
 70
     8
  9
$ATTDIA
 70
     1
  9
$ATTREQ
 70
     1
  9
$HANDLING
 70
     1
  9
$HANDSEED
  5
15E83
  9
$SURFTAB1
 70
     6
  9
$SURFTAB2
 70
     6
  9
$SURFTYPE
 70
     6
  9
$SURFU
 70
     6
  9
$SURFV
 70
     6
  9
$UCSNAME
  2

  9
$UCSORG
 10
0.0
 20
0.0
 30
0.0
  9
$UCSXDIR
 10
1.0
 20
0.0
 30
0.0
  9
$UCSYDIR
 10
0.0
 20
1.0
 30
0.0
  9
$PUCSNAME
  2

  9
$PUCSORG
 10
0.0
 20
0.0
 30
0.0
  9
$PUCSXDIR
 10
1.0
 20
0.0
 30
0.0
  9
$PUCSYDIR
 10
0.0
 20
1.0
 30
0.0
  9
$USERI1
 70
     0
  9
$USERI2
 70
     0
  9
$USERI3
 70
     0
  9
$USERI4
 70
     0
  9
$USERI5
 70
     0
  9
$USERR1
 40
0.0
  9
$USERR2
 40
0.0
  9
$USERR3
 40
0.0
  9
$USERR4
 40
0.0
  9
$USERR5
 40
0.0
  9
$WORLDVIEW
 70
     1
  9
$SHADEDGE
 70
     3
  9
$SHADEDIF
 70
    70
  9
$TILEMODE
 70
     1
  9
$MAXACTVP
 70
    64
  9
$PLIMCHECK
 70
     0
  9
$PEXTMIN
 10
1.0000000000000000E+20
 20
1.0000000000000000E+20
 30
1.0000000000000000E+20
  9
$PEXTMAX
 10
-1.0000000000000000E+20
 20
-1.0000000000000000E+20
 30
-1.0000000000000000E+20
  9
$PLIMMIN
 10
0.0
 20
0.0
  9
$PLIMMAX
 10
12.0
 20
9.0
  9
$UNITMODE
 70
     0
  9
$VISRETAIN
 70
     1
  9
$PLINEGEN
 70
     0
  9
$PSLTSCALE
 70
     1
  0
ENDSEC
  0
SECTION
  2
TABLES
  0
TABLE
  2
VPORT
 70
     1
  0
VPORT
  2
*ACTIVE
 70
     0
 10
0.0
 20
0.0
 11
1.0
 21
1.0
 12
-102.3486153200238959
 22
7.8110600162202308
 13
0.0
 23
0.0
 14
1.0
 24
1.0
 15
0.0
 25
0.0
 16
0.0
 26
0.0
 36
17.1152628219792007
 17
3803.5440673828129547
 27
125.9952621967499056
 37
0.0
 40
6.0376973989570102
 41
2.3500000000000001
 42
50.0
 43
0.0
 44
0.0
 50
0.0
 51
0.0
 71
     0
 72
   100
 73
     1
 74
     1
 75
     0
 76
     0
 77
     0
 78
     1
  0
ENDTAB
  0
TABLE
  2
LTYPE
 70
     2
  0
LTYPE
  2
CONTINUOUS
 70
     0
  3
Solid line
 72
    65
 73
     0
 40
0.0
  0
LTYPE
  2
PHANTOM2
 70
     0
  3
___ _ _ ___ _ _ ___ _ _ ___ _ _
 72
    65
 73
     6
 40
1.25
 49
0.625
 49
-0.125
 49
0.125
 49
-0.125
 49
0.125
 49
-0.125
  0
ENDTAB
  0
TABLE
  2
LAYER
 70
     2
  0
LAYER
  2
0
 70
     0
 62
   255
  6
CONTINUOUS
  0
LAYER
  2
DEFPOINTS
 70
     0
 62
     7
  6
CONTINUOUS
  0
ENDTAB
  0
TABLE
  2
STYLE
 70
     1
  0
STYLE
  2
STANDARD
 70
     0
 40
0.0
 41
0.8
 50
0.0
 71
     0
 42
0.2
  3
txt
  4

  0
ENDTAB
  0
TABLE
  2
VIEW
 70
     1
  0
ENDTAB
  0
TABLE
  2
UCS
 70
     0
  0
ENDTAB
  0
TABLE
  2
APPID
 70
     9
  0
APPID
  2
ACAD
 70
     0
  0
APPID
  2
ACAD_MLEADERVER
 70
     0
  0
APPID
  2
ACAD_EXEMPT_FROM_CAD_STANDARDS
 70
     0
  0
APPID
  2
ACAD_NAV_VCDISPLAY
 70
     0
  0
APPID
  2
ACAECLAYERSTANDARD
 70
     0
  0
APPID
  2
ACCMTRANSPARENCY
 70
     0
  0
APPID
  2
ACAD_DSTYLE_DIMJAG
 70
     0
  0
APPID
  2
ACAD_DSTYLE_DIMTALN
 70
     0
  0
APPID
  2
ACDBATTR
 70
     0
  0
ENDTAB
  0
TABLE
  2
DIMSTYLE
 70
     1
  0
DIMSTYLE
  2
STANDARD
 70
     0
  3

  4

  5

  6

  7

 40
1.0
 41
0.1875
 42
0.0625
 43
0.38
 44
0.125
 45
0.0
 46
0.0
 47
0.01
 48
0.01
140
0.15625
141
0.09
142
0.0
143
25.3999999999999986
144
1.0
145
0.0
146
1.0
147
0.09
 71
     1
 72
     0
 73
     1
 74
     1
 75
     0
 76
     0
 77
     0
 78
     4
170
     0
171
     2
172
     0
173
     0
174
     0
175
     0
176
     0
177
     0
178
     0
  0
ENDTAB
  0
ENDSEC
  0
SECTION
  2
BLOCKS
  0
BLOCK
  8
0
  2
$MODEL_SPACE
 70
     0
 10
0.0
 20
0.0
 30
0.0
  3
$MODEL_SPACE
  1

  0
ENDBLK
  5
21
  8
0
  0
BLOCK
 67
     1
  8
0
  2
$PAPER_SPACE
 70
     0
 10
0.0
 20
0.0
 30
0.0
  3
$PAPER_SPACE
  1

  0
ENDBLK
  5
1D
 67
     1
  8
0
  0
BLOCK
  8
0
  2
_FILLED
 70
     0
 10
0.0
 20
0.0
 30
0.0
  3
_FILLED
  1

  0
SOLID
  5
D1BB
  8
0
  6
BYBLOCK
 62
     0
 10
0.0
 20
0.0
 30
0.0
 11
-1.0
 21
0.1666666667
 31
0.0
 12
-1.0
 22
-0.1666666667
 32
0.0
 13
-1.0
 23
-0.1666666667
 33
0.0
  0
ENDBLK
  5
D1BC
  8
0
  6
BYBLOCK
 62
     0
  0
ENDSEC
  0
SECTION
  2
ENTITIES
  0
ATTDEF
  5
132A3
  8
DEFPOINTS
 10
3701.1954136736999317
 20
136.0385186093002119
 30
0.0
 40
0.001
  1
K-C72770-4
  3

  2
MODELNUMBER
 70
     0
1001
ACDBATTR
1070
     0
1070
     1
  0
ATTDEF
  5
132A4
  8
DEFPOINTS
 10
3701.1954136736999317
 20
136.0368519426334899
 30
0.0
 40
0.001
  1
ARTIFACTS
  3

  2
TRADENAME
 70
     0
1001
ACDBATTR
1070
     0
1070
     1
  0
ATTDEF
  5
132A5
  8
DEFPOINTS
 10
3701.1954136736999317
 20
136.0351852759667963
 30
0.0
 40
0.001
  1
VALVE TRIM
  3

  2
PRODUCT
 70
     0
1001
ACDBATTR
1070
     0
1070
     1
  0
LINE
  5
15D3B
  8
0
 10
3698.9454502625280838
 20
136.0351258409357058
 30
0.0
 11
3703.4454539237281097
 21
136.0351258682181026
 31
0.0
  0
LINE
  5
15D3C
  8
0
 10
3702.3097957867980767
 20
135.4571275434867061
 30
0.0
 11
3700.0815588761279287
 21
135.4571258409355892
 31
0.0
  0
ARC
  5
15D3D
  8
0
 10
3700.0815604283961875
 20
135.5171330445375872
 30
0.0
 40
0.0600072036220663
 50
207.4001752038743973
 51
269.9985178705496196
  0
ARC
  5
15D3E
  8
0
 10
3699.9865160170397758
 20
135.4678663323992964
 30
0.0
 40
0.0470472173755383
 50
27.4001752038744293
 51
69.1047535108201743
  0
ARC
  5
15D3F
  8
0
 10
3699.9734508863489282
 20
135.4034486809192117
 30
0.0
 40
0.1124052825064625
 50
74.602588540261948
 51
88.2199726169736067
  0
ARC
  5
15D40
  8
0
 10
3700.1707191184141266
 20
152.0843685697819865
 30
0.0
 40
16.5697019602950917
 50
267.2398097752728745
 51
269.3299313440525111
  0
ARC
  5
15D41
  8
0
 10
3699.3795201798361632
 20
135.5818879936990982
 30
0.0
 40
0.0484670760366587
 50
186.5128500968100127
 51
262.0207678838560241
  0
ARC
  5
15D42
  8
0
 10
3699.4825688885812269
 20
135.5930493739375038
 30
0.0
 40
0.1521179247595666
 50
180.2207768677918125
 51
186.2872121268619026
  0
LINE
  5
15D43
  8
0
 10
3699.3304520931278603
 20
135.5924632219355885
 30
0.0
 11
3699.3304520931278603
 21
135.6209612533357074
 31
0.0
  0
ARC
  5
15D44
  8
0
 10
3699.2333148834431995
 20
135.6237523471448014
 30
0.0
 40
0.0971773003846523
 50
358.3541435090958203
 51
9.0541960302102868
  0
ARC
  5
15D45
  8
0
 10
3699.2815759686768615
 20
135.6303091957987021
 30
0.0
 40
0.048498634905107
 50
10.3770349713211605
 51
42.53677242476153
  0
ARC
  5
15D46
  8
0
 10
3699.2804212334799558
 20
135.6276467340337035
 30
0.0
 40
0.0511631223643672
 50
43.8596113658496378
 51
76.2468750132047148
  0
ARC
  5
15D47
  8
0
 10
3696.8999007348961641
 20
125.9015601155489037
 30
0.0
 40
10.0643363833466601
 50
76.2468750132047148
 51
76.5013054944620734
  0
ARC
  5
15D48
  8
0
 10
3699.3404510218488213
 20
136.1236690210259894
 30
0.0
 40
0.4452585535286817
 50
223.3408306054867012
 51
258.1675300979297845
  0
ARC
  5
15D49
  8
0
 10
3699.2528178975858282
 20
136.012598227868807
 30
0.0
 40
0.3059889422985613
 50
185.0980960440224976
 51
219.474194819738301
  0
ARC
  5
15D4A
  8
0
 10
3699.8009857336628556
 20
136.0547531813103035
 30
0.0
 40
0.8557605826750293
 50
181.3142255051349139
 51
184.6479887405407965
  0
LINE
  5
15D4B
  8
0
 10
3699.2835164811240247
 20
135.6795580093657918
 30
0.0
 11
3703.1071787705300267
 21
135.6795070743037002
 31
0.0
  0
LINE
  5
15D4C
  8
0
 10
3699.9769419529739025
 20
135.5157997280516042
 30
0.0
 11
3702.4139622332832005
 21
135.5157997280516042
 31
0.0
  0
LINE
  5
15D4D
  8
0
 10
3700.1314520931277912
 20
135.4571258409355892
 30
0.0
 11
3700.1314802431279531
 21
135.3696764083356925
 31
0.0
  0
ARC
  5
15D4E
  8
0
 10
3701.0145827738801927
 20
133.4206690034068004
 30
0.0
 40
0.4084344727611196
 50
240.7540231890338873
 51
260.2567062520062109
  0
ARC
  5
15D4F
  8
0
 10
3700.9037980797061209
 20
133.2228161113442013
 30
0.0
 40
0.181676859083842
 50
196.3794911511440091
 51
240.7540231890338873
  0
ARC
  5
15D50
  8
0
 10
3700.9510583666251478
 20
133.236707190106614
 30
0.0
 40
0.2309363433361025
 50
184.1055276178666986
 51
196.3794911511440091
  0
ARC
  5
15D51
  8
0
 10
3700.6758904595540116
 20
133.2178518765608999
 30
0.0
 40
0.0448825882449803
 50
2.9634889131433448
 51
17.9355695206468191
  0
ARC
  5
15D52
  8
0
 10
3700.6976410340707844
 20
133.2234587516929025
 30
0.0
 40
0.0225037483978064
 50
21.4095767965420087
 51
55.7801515866910265
  0
ARC
  5
15D53
  8
0
 10
3700.6874098478178894
 20
133.2035914833099923
 30
0.0
 40
0.044767686965142
 50
59.2541588625817823
 51
76.9775644274982511
  0
ARC
  5
15D54
  8
0
 10
3700.7912375967248408
 20
133.6525167960159024
 30
0.0
 40
0.4160078959721671
 50
252.7117881095088023
 51
256.9775644274982938
  0
ARC
  5
15D55
  8
0
 10
3700.6754971162167749
 20
133.2843173709449047
 30
0.0
 40
0.0300672104603449
 50
209.0139254728617004
 51
254.790526601426393
  0
ARC
  5
15D56
  8
0
 10
3700.6766881376979654
 20
133.2845791484631093
 30
0.0
 40
0.0312376756701169
 50
180.5854824142124073
 51
208.3742446814158882
  0
LINE
  5
15D57
  8
0
 10
3700.645452092927826
 20
133.2842599488357109
 30
0.0
 11
3700.645452092927826
 21
133.43574504273559
 31
0.0
  0
ARC
  5
15D58
  8
0
 10
3700.6758286565109302
 20
133.4356166022326136
 30
0.0
 40
0.0303768351228174
 50
122.1648006094875996
 51
179.7577390586017998
  0
ARC
  5
15D59
  8
0
 10
3700.6442278380118296
 20
133.4868283873036887
 30
0.0
 40
0.0298022814060706
 50
301.180069359957713
 51
56.2314106360400814
  0
ARC
  5
15D5A
  8
0
 10
3700.7780994701870441
 20
133.6821712610613133
 30
0.0
 40
0.2070130621978602
 50
205.7008920270475869
 51
235.4822512323310946
  0
ARC
  5
15D5B
  8
0
 10
3701.2541737229030332
 20
133.878629579341009
 30
0.0
 40
0.7217886631876077
 50
183.129893934795291
 51
203.363458934366605
  0
ARC
  5
15D5C
  8
0
 10
3689.8320988949330967
 20
133.3538946741687994
 30
0.0
 40
10.7123623651970394
 50
2.5966838445678859
 51
5.3363012601619193
  0
ARC
  5
15D5D
  8
0
 10
3699.0439003543801846
 20
134.1613298702461918
 30
0.0
 40
1.466342473473744
 50
7.3988746811621402
 51
23.3098365628414896
  0
ARC
  5
15D5E
  8
0
 10
3699.9131948893691515
 20
134.5558937361051051
 30
0.0
 40
0.5122006744247544
 50
21.2537807986536791
 51
60.5264725528138925
  0
ARC
  5
15D5F
  8
0
 10
3700.1733492954640496
 20
135.02518995134389
 30
0.0
 40
0.0247595231541236
 50
189.5451553838765903
 51
250.8045454554172125
  0
ARC
  5
15D60
  8
0
 10
3700.2073506530978193
 20
135.0285926831199959
 30
0.0
 40
0.0588986462179475
 50
179.9019470947181105
 51
187.3240705570995033
  0
LINE
  5
15D61
  8
0
 10
3700.1484520931280713
 20
135.0286934790356099
 30
0.0
 11
3700.1484764751280636
 21
135.0837334390357114
 31
0.0
  0
ARC
  5
15D62
  8
0
 10
3700.1172034034270837
 20
135.0861721507656057
 30
0.0
 40
0.0313680144172952
 50
355.5410300510395132
 51
27.6696116959269887
  0
ARC
  5
15D63
  8
0
 10
3700.1228020320208998
 20
135.0868331916315128
 30
0.0
 40
0.0261802883765545
 50
32.0825138714151166
 51
83.7502313240700857
  0
ARC
  5
15D64
  8
0
 10
3700.1544520930901854
 20
135.2293506312616103
 30
0.0
 40
0.1199999999624766
 50
110.6913081691881047
 51
256.1134596513941233
  0
ARC
  5
15D65
  8
0
 10
3700.1052753488179405
 20
135.3680600274593075
 30
0.0
 40
0.0273040370977243
 50
284.3708723395723155
 51
323.5340128304916902
  0
ARC
  5
15D66
  8
0
 10
3700.1024118920031469
 20
135.3671665265013928
 30
0.0
 40
0.0291763811911856
 50
328.2926853287602853
 51
4.93223771673558
  0
LINE
  5
15D67
  8
0
 10
3700.1120521412808557
 20
135.3416103483355926
 30
0.0
 11
3702.278852044974883
 21
135.3416103483355926
 31
0.0
  0
LINE
  5
15D68
  8
0
 10
3700.1256520929041471
 20
135.1128578847356891
 30
0.0
 11
3702.2652520931278559
 21
135.1128578847356891
 31
0.0
  0
LINE
  5
15D69
  8
0
 10
3700.1652085690320746
 20
135.0018069968830901
 30
0.0
 11
3702.2256956172118407
 21
135.0018069968830901
 31
0.0
  0
LINE
  5
15D6A
  8
0
 10
3700.9454617142291681
 20
133.0181258409357099
 30
0.0
 11
3701.4454424720279349
 21
133.0181258409357099
 31
0.0
  0
LINE
  5
15D6B
  8
0
 10
3700.9554520931278603
 20
133.0181258409357099
 30
0.0
 11
3700.9554520931278603
 21
133.0001258409357092
 31
0.0
  0
LINE
  5
15D6C
  8
0
 10
3701.4354520931278785
 20
133.0001258409357092
 30
0.0
 11
3700.9554293096780384
 21
133.0001258409357092
 31
0.0
  0
LINE
  5
15D6D
  8
0
 10
3700.6986408855282207
 20
133.2468981276356885
 30
0.0
 11
3701.6921506021280948
 21
133.2468981276356885
 31
0.0
  0
LINE
  5
15D6E
  8
0
 10
3700.6593308659221293
 20
133.5125750295555065
 30
0.0
 11
3701.7315124503561492
 21
133.5125750295555065
 31
0.0
  0
ARC
  5
15D6F
  8
0
 10
3700.6753481424889287
 20
133.2959383982438908
 30
0.0
 40
0.0298961464754949
 50
180.1458894915404017
 51
256.17849388037979
  0
ARC
  5
15D70
  8
0
 10
3700.822632816289115
 20
134.2887109649327897
 30
0.0
 40
1.0334065665900849
 50
261.4058318658231883
 51
278.5941680599722758
  0
ARC
  5
15D71
  8
0
 10
3701.1954520909412167
 20
135.3161295872494918
 30
0.0
 40
2.060826237013178
 50
263.9167569032837264
 51
269.9247319603173878
  0
ARC
  5
15D72
  8
0
 10
3701.1950051326671201
 20
131.576299863406291
 30
0.0
 40
1.88502791326921
 50
89.9764428076855438
 51
96.6393437792090424
  0
ARC
  5
15D73
  8
0
 10
3700.8218684935809506
 20
132.5024540929827879
 30
0.0
 40
0.9588739115335778
 50
80.6858654130428761
 51
99.3525143528360672
  0
ARC
  5
15D74
  8
0
 10
3700.67518186142388
 20
133.4202913079587915
 30
0.0
 40
0.0297298556112197
 50
107.9012662463850063
 51
179.8612968107011056
  0
LINE
  5
15D75
  8
0
 10
3700.6596516415261249
 20
133.4613276173483882
 30
0.0
 11
3701.7312525447291591
 21
133.4613276173483882
 31
0.0
  0
LINE
  5
15D76
  8
0
 10
3700.9770596171269972
 20
133.2669079041357065
 30
0.0
 11
3700.9770596171269972
 21
133.448686037799888
 31
0.0
  0
ARC
  5
15D77
  8
0
 10
3702.309343757860006
 20
135.5171330445375872
 30
0.0
 40
0.0600072036220723
 50
270.4316081039551136
 51
332.5998247961240963
  0
ARC
  5
15D78
  8
0
 10
3702.404388169215963
 20
135.4678663323992964
 30
0.0
 40
0.0470472173755383
 50
110.8952464891797973
 51
152.599824796125489
  0
ARC
  5
15D79
  8
0
 10
3702.4174531556609509
 20
135.4034493599436928
 30
0.0
 40
0.112404589555028
 50
91.7797074553460277
 51
105.3974324715693029
  0
ARC
  5
15D7A
  8
0
 10
3702.2201850678420669
 20
152.0843685697880971
 30
0.0
 40
16.5697019603011384
 50
270.6700704009771243
 51
272.7601902247271255
  0
ARC
  5
15D7B
  8
0
 10
3703.0113840064200303
 20
135.5818879936990982
 30
0.0
 40
0.0484670760366587
 50
277.9792321161178279
 51
353.4871499031900157
  0
ARC
  5
15D7C
  8
0
 10
3702.9083352976749666
 20
135.5930493739375038
 30
0.0
 40
0.1521179247595666
 50
353.7127878731363921
 51
359.7792231322081875
  0
LINE
  5
15D7D
  8
0
 10
3703.0604520931278785
 20
135.5924632219355885
 30
0.0
 11
3703.0604520931278785
 21
135.6209612533357074
 31
0.0
  0
ARC
  5
15D7E
  8
0
 10
3703.157589302812994
 20
135.6237523471448014
 30
0.0
 40
0.0971773003846523
 50
170.9458039697896936
 51
181.6458564909042082
  0
ARC
  5
15D7F
  8
0
 10
3703.1093282175779677
 20
135.6303091957987021
 30
0.0
 40
0.048498634905107
 50
137.4632275752385056
 51
169.6229650286788058
  0
ARC
  5
15D80
  8
0
 10
3703.1104829527757829
 20
135.6276467340337035
 30
0.0
 40
0.0511631223643672
 50
103.7531249867951999
 51
136.1403886341502982
  0
ARC
  5
15D81
  8
0
 10
3705.4910034513600294
 20
125.9015601155489037
 30
0.0
 40
10.0643363833466601
 50
103.4986945055378982
 51
103.7531249867951999
  0
ARC
  5
15D82
  8
0
 10
3703.0504531644069175
 20
136.1236690210259894
 30
0.0
 40
0.4452585535286817
 50
281.8324699020702155
 51
316.6591693945132988
  0
ARC
  5
15D83
  8
0
 10
3703.1380862886708201
 20
136.012598227868807
 30
0.0
 40
0.3059889422985613
 50
320.5258051802617274
 51
354.9019039559757971
  0
ARC
  5
15D84
  8
0
 10
3701.6133905806309485
 20
136.1056079178374887
 30
0.0
 40
1.8334186135294861
 50
356.240951618519091
 51
357.7968374011359174
  0
LINE
  5
15D85
  8
0
 10
3702.2594520931279476
 20
135.4571258409355892
 30
0.0
 11
3702.2594239431277856
 21
135.3696764083356925
 31
0.0
  0
ARC
  5
15D86
  8
0
 10
3701.3763214123760008
 20
133.4206690034068004
 30
0.0
 40
0.4084344727611196
 50
279.7432937479939028
 51
299.2459768109652032
  0
ARC
  5
15D87
  8
0
 10
3701.4871061065491631
 20
133.2228161113442013
 30
0.0
 40
0.181676859083842
 50
299.2459768109652032
 51
343.6205088488559909
  0
ARC
  5
15D88
  8
0
 10
3701.4398458196301362
 20
133.236707190106614
 30
0.0
 40
0.2309363433361025
 50
343.6205088488559909
 51
355.8944723821331877
  0
ARC
  5
15D89
  8
0
 10
3701.7150137267021819
 20
133.2178518765608999
 30
0.0
 40
0.0448825882449803
 50
162.0644304793530921
 51
177.0365110868565921
  0
ARC
  5
15D8A
  8
0
 10
3701.6932631521849544
 20
133.2234587516929025
 30
0.0
 40
0.0225037483978064
 50
124.2198484133088954
 51
158.5904232034579877
  0
ARC
  5
15D8B
  8
0
 10
3701.7034943384378494
 20
133.2035914833099923
 30
0.0
 40
0.044767686965142
 50
103.0224355725017062
 51
120.7458411374181964
  0
ARC
  5
15D8C
  8
0
 10
3701.5996665895308979
 20
133.6525167960159024
 30
0.0
 40
0.4160078959721671
 50
283.0224355725018199
 51
287.2882118904913114
  0
ARC
  5
15D8D
  8
0
 10
3701.7154070700380544
 20
133.2843173709449047
 30
0.0
 40
0.0300672104603449
 50
285.2094733985467769
 51
330.9860745271382143
  0
ARC
  5
15D8E
  8
0
 10
3701.7142160485577733
 20
133.2845791484631093
 30
0.0
 40
0.0312376756701169
 50
331.6257553185840266
 51
359.4145175857859158
  0
LINE
  5
15D8F
  8
0
 10
3701.7454520933279127
 20
133.2842599488357109
 30
0.0
 11
3701.7454520933279127
 21
133.43574504273559
 31
0.0
  0
ARC
  5
15D90
  8
0
 10
3701.7150755297438991
 20
133.4356166022326136
 30
0.0
 40
0.0303768351228174
 50
0.2422609413982128
 51
57.8351993905124075
  0
ARC
  5
15D91
  8
0
 10
3701.7466763482439092
 20
133.4868283873036887
 30
0.0
 40
0.0298022814060706
 50
123.7685893639599044
 51
238.819930640042287
  0
ARC
  5
15D92
  8
0
 10
3701.6128047160691494
 20
133.6821712610613133
 30
0.0
 40
0.2070130621978602
 50
304.517748767668877
 51
334.2991079729524131
  0
ARC
  5
15D93
  8
0
 10
3701.1367304633531603
 20
133.878629579341009
 30
0.0
 40
0.7217886631876077
 50
336.6365410656334234
 51
356.8701060652045953
  0
ARC
  5
15D94
  8
0
 10
3712.5588052913230968
 20
133.3538946741687994
 30
0.0
 40
10.7123623651970394
 50
174.6636987398381109
 51
177.4033161554320941
  0
ARC
  5
15D95
  8
0
 10
3703.3470038318760089
 20
134.1613298702461918
 30
0.0
 40
1.466342473473744
 50
156.6901634371585033
 51
172.6011253188378021
  0
ARC
  5
15D96
  8
0
 10
3702.477709296887042
 20
134.5558937361051051
 30
0.0
 40
0.5122006744247544
 50
119.4735274471861004
 51
158.7462192013462925
  0
ARC
  5
15D97
  8
0
 10
3702.2175548907907796
 20
135.02518995134389
 30
0.0
 40
0.0247595231541236
 50
289.1954545445829012
 51
350.454844616121818
  0
ARC
  5
15D98
  8
0
 10
3702.1835535331588289
 20
135.0285926831199959
 30
0.0
 40
0.0588986462179475
 50
352.675929442900383
 51
0.0980529052819225
  0
LINE
  5
15D99
  8
0
 10
3702.2424520931272127
 20
135.0286934790356099
 30
0.0
 11
3702.2424277111281299
 21
135.0837334390357114
 31
0.0
  0
ARC
  5
15D9A
  8
0
 10
3702.2737007828291098
 20
135.0861721507656057
 30
0.0
 40
0.0313680144172952
 50
152.330388304071505
 51
184.4589699489604016
  0
ARC
  5
15D9B
  8
0
 10
3702.268102154234839
 20
135.0868331916315128
 30
0.0
 40
0.0261802883765545
 50
96.2497686759561759
 51
147.9174861285848124
  0
ARC
  5
15D9C
  8
0
 10
3702.2365105025319281
 20
135.229259018052602
 30
0.0
 40
0.1198970511207343
 50
283.8699508963197786
 51
0.2371347589886899
  0
ARC
  5
15D9D
  8
0
 10
3702.2241280641110279
 20
135.2208539370186884
 30
0.0
 40
0.1325776186080494
 50
3.849754599083604
 51
65.6210782151442089
  0
ARC
  5
15D9E
  8
0
 10
3702.2856288374377982
 20
135.3680600274593075
 30
0.0
 40
0.0273040370977243
 50
216.4659871695083098
 51
255.6291276604275993
  0
ARC
  5
15D9F
  8
0
 10
3702.2884922942530466
 20
135.3671665265013928
 30
0.0
 40
0.0291763811911856
 50
175.0677622832643863
 51
211.7073146712396863
  0
LINE
  5
15DA0
  8
0
 10
3701.4354520931278785
 20
133.0181258409357099
 30
0.0
 11
3701.4354520931278785
 21
133.0001258409357092
 31
0.0
  0
ARC
  5
15DA1
  8
0
 10
3701.71555604376681
 20
133.2959383982438908
 30
0.0
 40
0.0298961464754949
 50
283.82150611962021
 51
359.854110508459712
  0
ARC
  5
15DA2
  8
0
 10
3701.568271369966169
 20
134.2887109649327897
 30
0.0
 40
1.0334065665900849
 50
261.4058319400277242
 51
278.5941681341768117
  0
ARC
  5
15DA3
  8
0
 10
3701.1954520951599079
 20
135.3161295891860902
 30
0.0
 40
2.060826238955336
 50
269.924731843095401
 51
276.0832430953013841
  0
ARC
  5
15DA4
  8
0
 10
3701.195899053588164
 20
131.576299863406291
 30
0.0
 40
1.88502791326921
 50
83.3606562207909718
 51
90.0235571923144562
  0
ARC
  5
15DA5
  8
0
 10
3701.5690356926738787
 20
132.5024540929827879
 30
0.0
 40
0.9588739115335778
 50
80.6474856471639612
 51
99.3141345869571239
  0
ARC
  5
15DA6
  8
0
 10
3701.7157223248309492
 20
133.4202913079587915
 30
0.0
 40
0.0297298556112197
 50
0.138703189297257
 51
72.0987337536149653
  0
LINE
  5
15DA7
  8
0
 10
3701.4138445691278321
 20
133.2669079041357065
 30
0.0
 11
3701.4138445691278321
 21
133.448686037799888
 31
0.0
  0
ARC
  5
15DA8
  8
0
 10
3700.9554293096780384
 20
132.990125797126808
 30
0.0
 40
0.0099999999999998
 50
90.0
 51
180.0
  0
LINE
  5
15DA9
  8
0
 10
3700.9454293096778201
 20
132.990125797126808
 30
0.0
 11
3700.9454293096778201
 21
132.9623719992256952
 31
0.0
  0
ARC
  5
15DAA
  8
0
 10
3700.885429259718876
 20
132.9623719992256952
 30
0.0
 40
0.060000049958358
 50
283.0019829962171798
 51
0.0
  0
ARC
  5
15DAB
  8
0
 10
3700.9065710937247786
 20
132.8708111130422083
 30
0.0
 40
0.0339700145506747
 50
103.001982996217194
 51
162.2568616591171065
  0
ARC
  5
15DAC
  8
0
 10
3700.9504010700979961
 20
132.8567868136273944
 30
0.0
 40
0.0799890084869913
 50
162.2568616591171065
 51
181.1898726710485903
  0
LINE
  5
15DAD
  8
0
 10
3700.870429309678002
 20
132.8551257856269103
 30
0.0
 11
3700.870429309678002
 21
132.6378813355269131
 31
0.0
  0
LINE
  5
15DAE
  8
0
 10
3700.8989281227200081
 20
132.9039102138268902
 30
0.0
 11
3701.4919758286778233
 21
132.9039102138268902
 31
0.0
  0
LINE
  5
15DAF
  8
0
 10
3700.870429309678002
 20
132.6378813355269131
 30
0.0
 11
3701.520429309678093
 21
132.6378813355269131
 31
0.0
  0
LINE
  5
15DB0
  8
0
 10
3700.8368907013909848
 20
131.9466779783269033
 30
0.0
 11
3701.5540134848661182
 21
131.9466779783269033
 31
0.0
  0
LINE
  5
15DB1
  8
0
 10
3700.8796123970219014
 20
131.8255965080267913
 30
0.0
 11
3701.511291789074221
 21
131.8255965080267913
 31
0.0
  0
LINE
  5
15DB2
  8
0
 10
3700.8895057292779711
 20
131.693125797126811
 30
0.0
 11
3701.502715866437029
 21
131.693125797126811
 31
0.0
  0
ARC
  5
15DB3
  8
0
 10
3701.4354748324431057
 20
132.9901257788455098
 30
0.0
 40
0.0100000441350828
 50
0.0001047439149508
 51
90.1302862147291677
  0
LINE
  5
15DB4
  8
0
 10
3701.4454748765779186
 20
132.990125797126808
 30
0.0
 11
3701.4454748765779186
 21
132.9623719992256952
 31
0.0
  0
ARC
  5
15DB5
  8
0
 10
3701.5054749265359533
 20
132.9623719992256952
 30
0.0
 40
0.060000049958358
 50
180.0
 51
256.9980170037827065
  0
ARC
  5
15DB6
  8
0
 10
3701.4843330925300506
 20
132.8708111130422083
 30
0.0
 40
0.0339700145506747
 50
17.7431383408828509
 51
76.998017003782806
  0
ARC
  5
15DB7
  8
0
 10
3701.4405031161568331
 20
132.8567868136273944
 30
0.0
 40
0.0799890084869913
 50
358.8101273289514097
 51
17.7431383408828509
  0
LINE
  5
15DB8
  8
0
 10
3701.5204748765768272
 20
132.8551257856269103
 30
0.0
 11
3701.5204748765768272
 21
132.6378813355269131
 31
0.0
  0
ARC
  5
15DB9
  8
0
 10
3701.5504748768507852
 20
132.6378813355622128
 30
0.0
 40
0.0300000002729339
 50
180.0000000675088074
 51
225.3341970785189972
  0
ARC
  5
15DBA
  8
0
 10
3701.1229478478458077
 20
132.2970944011659071
 30
0.0
 40
0.5477823224300047
 50
333.3187093098098899
 51
358.1742780036842078
  0
ARC
  5
15DBB
  8
0
 10
3701.1867836642641123
 20
132.2751073357106861
 30
0.0
 40
0.4836896891746813
 50
0.5372057092235522
 51
44.9024456154250018
  0
ARC
  5
15DBC
  8
0
 10
3701.8792464906618989
 20
131.8942830343981996
 30
0.0
 40
0.3095252044194479
 50
149.5544972991993973
 51
165.8280282740574023
  0
ARC
  5
15DBD
  8
0
 10
3701.5498291477470048
 20
131.9763667531223916
 30
0.0
 40
0.0299821951494516
 50
278.022428537612484
 51
347.8670206713428001
  0
ARC
  5
15DBE
  8
0
 10
3701.5545687998310314
 20
131.868701466093512
 30
0.0
 40
0.0779784895646328
 50
90.4080288411428654
 51
155.7636645225441043
  0
ARC
  5
15DBF
  8
0
 10
3701.5516203086149289
 20
131.8701118557133896
 30
0.0
 40
0.0747109499169529
 50
155.8217326817128878
 51
175.2671371509111111
  0
ARC
  5
15DC0
  8
0
 10
3701.5339369831199292
 20
131.8779732159929097
 30
0.0
 40
0.0567982323402759
 50
181.7120698800736989
 51
216.6604765552667118
  0
ARC
  5
15DC1
  8
0
 10
3701.5249918233039352
 20
131.8660557719450992
 30
0.0
 40
0.0427158398570963
 50
210.9920230432871051
 51
251.2932294983500014
  0
ARC
  5
15DC2
  8
0
 10
3701.5022895389220139
 20
131.7990108507464981
 30
0.0
 40
0.028068446355725
 50
25.8011483017302901
 51
71.2932294983499872
  0
ARC
  5
15DC3
  8
0
 10
3701.4136935481719775
 20
131.7604887983158051
 30
0.0
 40
0.1267954210695631
 50
336.9593193946711835
 51
359.145747242401626
  0
ARC
  5
15DC4
  8
0
 10
3701.4021598204258225
 20
131.7525556105424869
 30
0.0
 40
0.1384469940911007
 50
2.5015846646676372
 51
25.0738954098164903
  0
ARC
  5
15DC5
  8
0
 10
3701.5041752346392059
 20
131.721762544232206
 30
0.0
 40
0.0283757355311815
 50
284.3634832865363933
 51
337.4112449262419773
  0
ARC
  5
15DC6
  8
0
 10
3701.5020571617069436
 20
131.730033774947799
 30
0.0
 40
0.0369138553764148
 50
271.0224617225242127
 51
284.3634832865363933
  0
ARC
  5
15DC7
  8
0
 10
3701.500881204270172
 20
131.6641435375329934
 30
0.0
 40
0.0289868749873342
 50
91.022461722941145
 51
144.9051302693798107
  0
ARC
  5
15DC8
  8
0
 10
3701.1956188336289415
 20
132.2395314341083861
 30
0.0
 40
0.6664056578414898
 50
269.9856640966405052
 51
272.2300308117444843
  0
ARC
  5
15DC9
  8
0
 10
3701.1990541715599647
 20
132.1513094643090938
 30
0.0
 40
0.5781168278461393
 50
272.2300424800840801
 51
279.0186420980796811
  0
ARC
  5
15DCA
  8
0
 10
3701.2276901571808594
 20
131.970888918238586
 30
0.0
 40
0.3954378933276899
 50
279.0186420980796811
 51
292.5373134441488787
  0
ARC
  5
15DCB
  8
0
 10
3701.285311605653078
 20
131.8320342740229023
 30
0.0
 40
0.2451021239834806
 50
292.5373134441488787
 51
304.9508047955977759
  0
ARC
  5
15DCC
  8
0
 10
3701.2881803003219829
 20
131.8279298573584128
 30
0.0
 40
0.2400945651709998
 50
304.9508047955977759
 51
314.919941807694272
  0
ARC
  5
15DCD
  8
0
 10
3701.331637063737162
 20
131.7843514814881019
 30
0.0
 40
0.1785513679031579
 50
314.919941807694272
 51
322.9575761596777284
  0
ARC
  5
15DCE
  8
0
 10
3700.9323243403068773
 20
132.0857190174872073
 30
0.0
 40
0.6788243362376944
 50
322.9575761596777284
 51
323.3812791132161237
  0
LINE
  5
15DCF
  8
0
 10
3701.5540134848661182
 20
131.9466779783269033
 30
0.0
 11
3700.8368907013909848
 21
131.9466779783269033
 31
0.0
  0
ARC
  5
15DD0
  8
0
 10
3700.8404293094049535
 20
132.6378813355622128
 30
0.0
 40
0.0300000002729339
 50
314.6658029214809744
 51
359.999999932491221
  0
ARC
  5
15DD1
  8
0
 10
3701.267956338409931
 20
132.2970944011659071
 30
0.0
 40
0.5477823224300047
 50
181.8257219963157922
 51
206.6812906901901101
  0
ARC
  5
15DD2
  8
0
 10
3701.2041205219911717
 20
132.2751073357106861
 30
0.0
 40
0.4836896891746813
 50
135.0975543845750053
 51
179.4627942907764009
  0
ARC
  5
15DD3
  8
0
 10
3700.5116576955929304
 20
131.8942830343981996
 30
0.0
 40
0.3095252044194479
 50
14.1719717259425604
 51
30.4455027008005992
  0
ARC
  5
15DD4
  8
0
 10
3700.8410750385078245
 20
131.9763667531223916
 30
0.0
 40
0.0299821951494516
 50
192.1329793286571999
 51
261.9775714623874023
  0
ARC
  5
15DD5
  8
0
 10
3700.8363353864251621
 20
131.868701466093512
 30
0.0
 40
0.0779784895646328
 50
24.2363354774558708
 51
89.5919711588571346
  0
ARC
  5
15DD6
  8
0
 10
3700.8392838776399003
 20
131.8701118557133896
 30
0.0
 40
0.0747109499169529
 50
4.7328628490888454
 51
24.1782673182871015
  0
ARC
  5
15DD7
  8
0
 10
3700.8569672031358095
 20
131.8779732159929097
 30
0.0
 40
0.0567982323402759
 50
323.3395234447331745
 51
358.2879301199262727
  0
ARC
  5
15DD8
  8
0
 10
3700.8659123629518035
 20
131.8660557719450992
 30
0.0
 40
0.0427158398570963
 50
288.7067705016499986
 51
329.0079769567129233
  0
ARC
  5
15DD9
  8
0
 10
3700.8886146473341796
 20
131.7990108507464981
 30
0.0
 40
0.028068446355725
 50
108.7067705016499986
 51
154.1988516982696922
  0
ARC
  5
15DDA
  8
0
 10
3700.977210638084216
 20
131.7604887983158051
 30
0.0
 40
0.1267954210695631
 50
180.8542527575984025
 51
203.0406806053273101
  0
ARC
  5
15DDB
  8
0
 10
3700.9887443658299162
 20
131.7525556105424869
 30
0.0
 40
0.1384469940911007
 50
154.9261045901835132
 51
177.4984153353323109
  0
ARC
  5
15DDC
  8
0
 10
3700.8867289516169876
 20
131.721762544232206
 30
0.0
 40
0.0283757355311815
 50
202.5887550737579943
 51
255.6365167134636067
  0
ARC
  5
15DDD
  8
0
 10
3700.8888470245487952
 20
131.7300337749479127
 30
0.0
 40
0.0369138553764836
 50
255.6365167134636067
 51
271.0224617226023724
  0
ARC
  5
15DDE
  8
0
 10
3700.8900229819860215
 20
131.6641435375329934
 30
0.0
 40
0.0289868749873342
 50
35.0948697306201893
 51
88.977538277058855
  0
ARC
  5
15DDF
  8
0
 10
3701.1952853526258878
 20
132.2395314341083861
 30
0.0
 40
0.6664056578414898
 50
267.7699691882555157
 51
270.0143359033594948
  0
ARC
  5
15DE0
  8
0
 10
3701.1918500146948645
 20
132.1513094643090938
 30
0.0
 40
0.5781168278461393
 50
260.9813579019203189
 51
267.7699575199159199
  0
ARC
  5
15DE1
  8
0
 10
3701.1632140290748794
 20
131.970888918238586
 30
0.0
 40
0.3954378933276899
 50
247.4626865558510929
 51
260.9813579019203189
  0
ARC
  5
15DE2
  8
0
 10
3701.1055925806031155
 20
131.8320342740229023
 30
0.0
 40
0.2451021239834806
 50
235.0491952044021957
 51
247.4626865558510929
  0
ARC
  5
15DE3
  8
0
 10
3701.1027238859342106
 20
131.8279298573584128
 30
0.0
 40
0.2400945651709998
 50
225.0800581923045911
 51
235.0491952044021957
  0
ARC
  5
15DE4
  8
0
 10
3701.0592671225190315
 20
131.7843514814881019
 30
0.0
 40
0.1785513679031579
 50
217.0424238403223001
 51
225.0800581923045911
  0
ARC
  5
15DE5
  8
0
 10
3701.458579845947952
 20
132.0857190174872073
 30
0.0
 40
0.6788243362376944
 50
216.6187208867839047
 51
217.0424238403223001
  0
ENDSEC
  0
EOF
