  0
SECTION
  2
HEADER
  9
$ACADVER
  1
AC1009
  9
$INSBASE
 10
482.4772240053500241
 20
85.8297263007970912
 30
0.0
  9
$EXTMIN
 10
480.5217847362288808
 20
81.6304601142905852
 30
-0.0000000000000058
  9
$EXTMAX
 10
484.4394027009640809
 20
85.8349074306491957
 30
0.0000000000000104
  9
$LIMMIN
 10
0.0
 20
0.0
  9
$LIMMAX
 10
11.6929133858000007
 20
8.2677165353999982
  9
$ORTHOMODE
 70
     0
  9
$REGENMODE
 70
     1
  9
$FILLMODE
 70
     1
  9
$QTEXTMODE
 70
     0
  9
$MIRRTEXT
 70
     0
  9
$DRAGMODE
 70
     2
  9
$LTSCALE
 40
0.6431102362
  9
$OSMODE
 70
  4095
  9
$ATTMODE
 70
     1
  9
$TEXTSIZE
 40
0.2
  9
$TRACEWID
 40
0.05
  9
$TEXTSTYLE
  7
STANDARD
  9
$CLAYER
  8
0
  9
$CELTYPE
  6
BYLAYER
  9
$CECOLOR
 62
   256
  9
$DIMSCALE
 40
1.0
  9
$DIMASZ
 40
0.1875
  9
$DIMEXO
 40
0.0625
  9
$DIMDLI
 40
0.4443307087
  9
$DIMRND
 40
0.0
  9
$DIMDLE
 40
0.0
  9
$DIMEXE
 40
0.125
  9
$DIMTP
 40
0.01
  9
$DIMTM
 40
0.01
  9
$DIMTXT
 40
1.0
  9
$DIMCEN
 40
0.1052362205
  9
$DIMTSZ
 40
0.0
  9
$DIMTOL
 70
     1
  9
$DIMLIM
 70
     0
  9
$DIMTIH
 70
     0
  9
$DIMTOH
 70
     1
  9
$DIMSE1
 70
     0
  9
$DIMSE2
 70
     0
  9
$DIMTAD
 70
     0
  9
$DIMZIN
 70
     0
  9
$DIMBLK
  1

  9
$DIMASO
 70
     1
  9
$DIMSHO
 70
     1
  9
$DIMPOST
  1
\X
  9
$DIMAPOST
  1

  9
$DIMALT
 70
     1
  9
$DIMALTD
 70
     2
  9
$DIMALTF
 40
25.3999999999999986
  9
$DIMLFAC
 40
1.0
  9
$DIMTOFL
 70
     0
  9
$DIMTVP
 40
0.0
  9
$DIMTIX
 70
     0
  9
$DIMSOXD
 70
     0
  9
$DIMSAH
 70
     0
  9
$DIMBLK1
  1

  9
$DIMBLK2
  1

  9
$DIMSTYLE
  2
STANDARD
  9
$DIMCLRD
 70
     0
  9
$DIMCLRE
 70
     0
  9
$DIMCLRT
 70
     0
  9
$DIMTFAC
 40
1.0
  9
$DIMGAP
 40
0.09
  9
$LUNITS
 70
     2
  9
$LUPREC
 70
     4
  9
$SKETCHINC
 40
0.1
  9
$FILLETRAD
 40
0.0
  9
$AUNITS
 70
     0
  9
$AUPREC
 70
     0
  9
$MENU
  1
.
  9
$ELEVATION
 40
0.0
  9
$PELEVATION
 40
0.0
  9
$THICKNESS
 40
0.0
  9
$LIMCHECK
 70
     0
  9
$BLIPMODE
 70
     0
  9
$CHAMFERA
 40
0.0
  9
$CHAMFERB
 40
0.0
  9
$SKPOLY
 70
     0
  9
$TDCREATE
 40
2458172.5207638889551163
  9
$TDUPDATE
 40
2459387.538622684776783
  9
$TDINDWG
 40
0.2627120486
  9
$TDUSRTIMER
 40
0.2627120486
  9
$USRTIMER
 70
     1
  9
$ANGBASE
 50
0.0
  9
$ANGDIR
 70
     0
  9
$PDMODE
 70
     0
  9
$PDSIZE
 40
0.3125
  9
$PLINEWID
 40
0.0
  9
$COORDS
 70
     1
  9
$SPLFRAME
 70
     0
  9
$SPLINETYPE
 70
     6
  9
$SPLINESEGS
 70
     8
  9
$ATTDIA
 70
     1
  9
$ATTREQ
 70
     1
  9
$HANDLING
 70
     1
  9
$HANDSEED
  5
8829
  9
$SURFTAB1
 70
     6
  9
$SURFTAB2
 70
     6
  9
$SURFTYPE
 70
     6
  9
$SURFU
 70
     6
  9
$SURFV
 70
     6
  9
$UCSNAME
  2

  9
$UCSORG
 10
0.0
 20
0.0
 30
0.0
  9
$UCSXDIR
 10
1.0
 20
0.0
 30
0.0
  9
$UCSYDIR
 10
0.0
 20
1.0
 30
0.0
  9
$PUCSNAME
  2

  9
$PUCSORG
 10
0.0
 20
0.0
 30
0.0
  9
$PUCSXDIR
 10
1.0
 20
0.0
 30
0.0
  9
$PUCSYDIR
 10
0.0
 20
1.0
 30
0.0
  9
$USERI1
 70
     0
  9
$USERI2
 70
     0
  9
$USERI3
 70
     0
  9
$USERI4
 70
     0
  9
$USERI5
 70
     0
  9
$USERR1
 40
0.0
  9
$USERR2
 40
0.0
  9
$USERR3
 40
0.0
  9
$USERR4
 40
0.0
  9
$USERR5
 40
0.0
  9
$WORLDVIEW
 70
     1
  9
$SHADEDGE
 70
     3
  9
$SHADEDIF
 70
    70
  9
$TILEMODE
 70
     1
  9
$MAXACTVP
 70
    64
  9
$PLIMCHECK
 70
     0
  9
$PEXTMIN
 10
1.0000000000000000E+20
 20
1.0000000000000000E+20
 30
1.0000000000000000E+20
  9
$PEXTMAX
 10
-1.0000000000000000E+20
 20
-1.0000000000000000E+20
 30
-1.0000000000000000E+20
  9
$PLIMMIN
 10
0.0
 20
0.0
  9
$PLIMMAX
 10
12.0
 20
9.0
  9
$UNITMODE
 70
     0
  9
$VISRETAIN
 70
     1
  9
$PLINEGEN
 70
     0
  9
$PSLTSCALE
 70
     1
  0
ENDSEC
  0
SECTION
  2
TABLES
  0
TABLE
  2
VPORT
 70
     1
  0
VPORT
  2
*ACTIVE
 70
     0
 10
0.0
 20
0.0
 11
1.0
 21
1.0
 12
0.0004582592574707
 22
0.0000919015043763
 13
0.0
 23
0.0
 14
1.0
 24
1.0
 15
0.0
 25
0.0
 16
0.0
 26
0.0
 36
15.6927359536251991
 17
482.4801354593390101
 27
83.7325918709655213
 37
0.0
 40
4.2390044175889399
 41
2.6159122085048012
 42
50.0
 43
0.0
 44
0.0
 50
0.0
 51
0.0
 71
     0
 72
   100
 73
     1
 74
     1
 75
     0
 76
     0
 77
     0
 78
     0
  0
ENDTAB
  0
TABLE
  2
LTYPE
 70
     2
  0
LTYPE
  2
CONTINUOUS
 70
     0
  3
Solid line
 72
    65
 73
     0
 40
0.0
  0
LTYPE
  2
PHANTOM2
 70
     0
  3
___ _ _ ___ _ _ ___ _ _ ___ _ _
 72
    65
 73
     6
 40
1.25
 49
0.625
 49
-0.125
 49
0.125
 49
-0.125
 49
0.125
 49
-0.125
  0
ENDTAB
  0
TABLE
  2
LAYER
 70
     2
  0
LAYER
  2
0
 70
     0
 62
   255
  6
CONTINUOUS
  0
LAYER
  2
DEFPOINTS
 70
     0
 62
     7
  6
CONTINUOUS
  0
ENDTAB
  0
TABLE
  2
STYLE
 70
     1
  0
STYLE
  2
STANDARD
 70
     0
 40
0.0
 41
0.8
 50
0.0
 71
     0
 42
0.2
  3
txt
  4

  0
ENDTAB
  0
TABLE
  2
VIEW
 70
     0
  0
ENDTAB
  0
TABLE
  2
UCS
 70
     0
  0
ENDTAB
  0
TABLE
  2
APPID
 70
    10
  0
APPID
  2
ACAD
 70
     0
  0
APPID
  2
ACAD_MLEADERVER
 70
     0
  0
APPID
  2
ACAD_EXEMPT_FROM_CAD_STANDARDS
 70
     0
  0
APPID
  2
ACAD_DSTYLE_DIMJAG
 70
     0
  0
APPID
  2
ACAD_DSTYLE_DIMTALN
 70
     0
  0
APPID
  2
ACAD_NAV_VCDISPLAY
 70
     0
  0
APPID
  2
ACAECLAYERSTANDARD
 70
     0
  0
APPID
  2
ACCMTRANSPARENCY
 70
     0
  0
APPID
  2
DCO15
 70
     0
  0
APPID
  2
ACDBATTR
 70
     0
  0
ENDTAB
  0
TABLE
  2
DIMSTYLE
 70
     1
  0
DIMSTYLE
  2
STANDARD
 70
     0
  3

  4

  5

  6

  7

 40
1.0
 41
0.1875
 42
0.0625
 43
0.38
 44
0.125
 45
0.0
 46
0.0
 47
0.01
 48
0.01
140
0.15625
141
0.09
142
0.0
143
25.3999999999999986
144
1.0
145
0.0
146
1.0
147
0.09
 71
     1
 72
     0
 73
     1
 74
     1
 75
     0
 76
     0
 77
     0
 78
     4
170
     0
171
     2
172
     0
173
     0
174
     0
175
     0
176
     0
177
     0
178
     0
  0
ENDTAB
  0
ENDSEC
  0
SECTION
  2
BLOCKS
  0
BLOCK
  8
0
  2
$MODEL_SPACE
 70
     0
 10
0.0
 20
0.0
 30
0.0
  3
$MODEL_SPACE
  1

  0
ENDBLK
  5
21
  8
0
  0
BLOCK
 67
     1
  8
0
  2
$PAPER_SPACE
 70
     0
 10
0.0
 20
0.0
 30
0.0
  3
$PAPER_SPACE
  1

  0
ENDBLK
  5
1D
 67
     1
  8
0
  0
BLOCK
  8
0
  2
_FILLED
 70
     0
 10
0.0
 20
0.0
 30
0.0
  3
_FILLED
  1

  0
SOLID
  5
8367
  8
0
  6
BYBLOCK
 62
     0
 10
0.0
 20
0.0
 30
0.0
 11
-1.0
 21
0.1666666667
 31
0.0
 12
-1.0
 22
-0.1666666667
 32
0.0
 13
-1.0
 23
-0.1666666667
 33
0.0
  0
ENDBLK
  5
8368
  8
0
  6
BYBLOCK
 62
     0
  0
ENDSEC
  0
SECTION
  2
ENTITIES
  0
ATTDEF
  5
829
  8
DEFPOINTS
 10
482.4773920344151179
 20
85.8336540106913901
 30
0.0
 40
0.001
  1
K-C14490W-3
  3

  2
MODELNUMBER
 70
     0
1001
ACDBATTR
1070
     0
1070
     1
  0
ATTDEF
  5
82A
  8
DEFPOINTS
 10
482.4773920344151179
 20
85.831987344024725
 30
0.0
 40
0.001
  1
PURIST
  3

  2
TRADENAME
 70
     0
1001
ACDBATTR
1070
     0
1070
     1
  0
ATTDEF
  5
82B
  8
DEFPOINTS
 10
482.4773920344151179
 20
85.8303206773580456
 30
0.0
 40
0.001
  1
VALVE TRIM
  3

  2
PRODUCT
 70
     0
1001
ACDBATTR
1070
     0
1070
     1
  0
LINE
  5
839D
  8
0
 10
484.4172240053500218
 20
85.8297263007970912
 30
0.0
 11
480.5372240053499127
 21
85.8297263007970912
 31
0.0
  0
LINE
  5
839E
  8
0
 10
480.5372240053499127
 20
85.8297263007970912
 30
0.0
 11
480.5453129819510991
 21
85.3663091367444338
 31
0.0
  0
ARC
  5
839F
  8
0
 10
480.6074481350107135
 20
85.3673927048643151
 30
0.0
 40
0.0621446004541199
 50
180.9990735458318909
 51
273.8887602248781263
  0
LINE
  5
83A0
  8
0
 10
480.6116627552498812
 20
85.3053911859970952
 30
0.0
 11
484.3471444715498819
 21
85.3053911859970952
 31
0.0
  0
ARC
  5
83A1
  8
0
 10
480.827662923849914
 20
82.0627299716971947
 30
0.0
 40
3.2499999999999081
 50
74.9899767744988424
 51
86.1488555414508141
  0
LINE
  5
83A2
  8
0
 10
481.6693739841385877
 20
85.2018417076803303
 30
0.0
 11
481.6854435373498973
 21
85.1997263007970957
 31
0.0
  0
LINE
  5
83A3
  8
0
 10
481.6854435373498973
 20
85.1997263007970957
 30
0.0
 11
483.2690167693498893
 21
85.1997263007970957
 31
0.0
  0
LINE
  5
83A4
  8
0
 10
481.688724005350025
 20
85.1997263007970957
 30
0.0
 11
481.688724005350025
 21
83.1447263007971031
 31
0.0
  0
LINE
  5
83A5
  8
0
 10
481.688724005350025
 20
83.1447263007971031
 30
0.0
 11
483.2657240053499095
 21
83.1447263007971031
 31
0.0
  0
ARC
  5
83A6
  8
0
 10
481.7622240053498786
 20
83.1447263007971031
 30
0.0
 40
0.0200000000000014
 50
270.0000000000064801
 51
359.9999999999951115
  0
LINE
  5
83A7
  8
0
 10
483.2457240053499277
 20
83.1247263007970787
 30
0.0
 11
481.7087308078499177
 21
83.1247263007970787
 31
0.0
  0
ARC
  5
83A8
  8
0
 10
481.7087308078499177
 20
83.1047194971402661
 30
0.0
 40
0.0200068036568499
 50
90.0
 51
179.9805155867481119
  0
LINE
  5
83A9
  8
0
 10
481.688724005350025
 20
83.1047263007970969
 30
0.0
 11
481.6887070019919861
 21
83.0547263036882271
 31
0.0
  0
ARC
  5
83AA
  8
0
 10
481.7087002313501785
 20
83.0547195046471671
 30
0.0
 40
0.019993230514247
 50
179.9805155867472877
 51
270.093575094932703
  0
LINE
  5
83AB
  8
0
 10
481.7087328841499243
 20
83.0347263007971037
 30
0.0
 11
483.2457130767377862
 21
83.0347263007971037
 31
0.0
  0
ARC
  5
83AC
  8
0
 10
481.9369852564253165
 20
82.7546483746389754
 30
0.0
 40
0.2802387597590506
 50
0.0159322715940591
 51
88.058744519712107
  0
LINE
  5
83AD
  8
0
 10
482.2172240053498058
 20
82.7547263007970884
 30
0.0
 11
482.2172240053499195
 21
82.1271009971790136
 31
0.0
  0
CIRCLE
  5
83AE
  8
0
 10
482.4772240053500241
 20
81.8947263007971031
 30
0.0
 40
0.2600000000000003
  0
ARC
  5
83AF
  8
0
 10
482.2672502431145176
 20
82.1102816872218284
 30
0.0
 40
0.041013804476454
 50
272.9691059840607181
 51
310.6544942781043801
  0
ARC
  5
83B0
  8
0
 10
482.2766806857782171
 20
82.0955232134634656
 30
0.0
 40
0.0271998612385417
 50
213.3194892777922007
 51
254.4187006788332894
  0
ARC
  5
83B1
  8
0
 10
480.9912943876935856
 20
81.1214376337084531
 30
0.0
 40
1.5856425284640361
 50
37.2211624691816283
 51
40.4681659499488973
  0
ARC
  5
83B2
  8
0
 10
482.1871506161576804
 20
82.1395412423172928
 30
0.0
 40
0.0151845099326834
 50
46.523620199207258
 51
89.7208958441097337
  0
LINE
  5
83B3
  8
0
 10
482.1872245839629727
 20
82.1547255720904275
 30
0.0
 11
480.7307709038959729
 21
82.1547263000239667
 31
0.0
  0
ARC
  5
83B4
  8
0
 10
480.7322948915785901
 20
82.1416552532735409
 30
0.0
 40
0.0131595897203521
 50
96.6502398332443562
 51
173.3437279194320979
  0
LINE
  5
83B5
  8
0
 10
480.7192240053498722
 20
82.1431806171010521
 30
0.0
 11
480.7192240053498722
 21
81.6454663422706233
 31
0.0
  0
ARC
  5
83B6
  8
0
 10
480.7331079590678087
 20
81.6488161403101458
 30
0.0
 40
0.0142823428661657
 50
193.5645804815569875
 51
260.5822737540096909
  0
LINE
  5
83B7
  8
0
 10
480.7307709224306791
 20
81.6347263007970838
 30
0.0
 11
484.2236770936626726
 21
81.6347263007970838
 31
0.0
  0
LINE
  5
83B8
  8
0
 10
484.4172240053500218
 20
85.8297263007970912
 30
0.0
 11
484.4091350287487217
 21
85.3663091367444338
 31
0.0
  0
ARC
  5
83B9
  8
0
 10
484.3472563723606186
 20
85.3672773150063335
 30
0.0
 40
0.0618862301771527
 50
269.8963994469838781
 51
359.1036004111030024
  0
ARC
  5
83BA
  8
0
 10
484.1267850868499067
 20
82.0627299716971947
 30
0.0
 40
3.2499999999999081
 50
93.8511444585491716
 51
105.0100232255011008
  0
LINE
  5
83BB
  8
0
 10
483.2850740265611762
 20
85.2018417076803303
 30
0.0
 11
483.2690167693498893
 21
85.1997263007970957
 31
0.0
  0
LINE
  5
83BC
  8
0
 10
483.2657240053499095
 20
85.1997263007970957
 30
0.0
 11
483.2657240053499095
 21
83.1447263007971031
 31
0.0
  0
ARC
  5
83BD
  8
0
 10
483.1922240053498854
 20
83.1447263007971031
 30
0.0
 40
0.0200000000000014
 50
180.0000000000048885
 51
269.9999999999935199
  0
ARC
  5
83BE
  8
0
 10
483.2459000660650759
 20
83.1049023615122593
 30
0.0
 40
0.0198247210861649
 50
359.4911571023797023
 51
90.5088428976235235
  0
LINE
  5
83BF
  8
0
 10
483.2657240053499095
 20
83.1047263007970969
 30
0.0
 11
483.2657410087077778
 21
83.0547263036882271
 31
0.0
  0
ARC
  5
83C0
  8
0
 10
483.2457477734694749
 20
83.0547195070838455
 30
0.0
 40
0.0199932363935328
 50
269.9005675096889831
 51
0.0194774245910569
  0
ARC
  5
83C1
  8
0
 10
483.0174627542745043
 20
82.7546483746389754
 30
0.0
 40
0.2802387597590506
 50
91.9412554802878788
 51
179.9840677284059041
  0
LINE
  5
83C2
  8
0
 10
482.7372240053499013
 20
82.7547263007970884
 30
0.0
 11
482.7372240053499013
 21
82.1271009971790136
 31
0.0
  0
ARC
  5
83C3
  8
0
 10
482.6871977675851895
 20
82.1102816872218284
 30
0.0
 40
0.041013804476454
 50
229.3455057218955915
 51
267.0308940159392819
  0
ARC
  5
83C4
  8
0
 10
482.6777673249217173
 20
82.0955232134634656
 30
0.0
 40
0.0271998612385417
 50
285.5812993211666821
 51
326.6805107222078277
  0
ARC
  5
83C5
  8
0
 10
483.9631536230061783
 20
81.1214376337084531
 30
0.0
 40
1.5856425284640361
 50
139.5318340500510885
 51
142.7788375308184072
  0
ARC
  5
83C6
  8
0
 10
482.7672973945420836
 20
82.1395412423172928
 30
0.0
 40
0.0151845099326834
 50
90.2791041558902805
 51
133.4763798007926994
  0
LINE
  5
83C7
  8
0
 10
482.7672234267367912
 20
82.1547255720904275
 30
0.0
 11
484.2236770946371962
 21
82.1547263000239525
 31
0.0
  0
ARC
  5
83C8
  8
0
 10
484.2219020194821724
 20
82.1410139332978559
 30
0.0
 40
0.0138267817310099
 50
15.5297760463231391
 51
82.6240408665248651
  0
LINE
  5
83C9
  8
0
 10
484.2352240053498917
 20
82.1447159037971062
 30
0.0
 11
484.2352240053498917
 21
81.6446490241854264
 31
0.0
  0
ARC
  5
83CA
  8
0
 10
484.2209472681723241
 20
81.6495827925651554
 30
0.0
 40
0.0151052075411683
 50
280.4117483267995112
 51
340.9358255132337945
  0
ENDSEC
  0
EOF
