  0
SECTION
  2
HEADER
  9
$ACADVER
  1
AC1009
  9
$INSBASE
 10
3179.5053061400699335
 20
54.5066345895073709
 30
0.0
  9
$EXTMIN
 10
3163.3644009116701454
 20
30.3717714248081414
 30
0.0
  9
$EXTMAX
 10
3187.7094235293689053
 20
54.5117968103727719
 30
0.0
  9
$LIMMIN
 10
0.0
 20
0.0
  9
$LIMMAX
 10
11.6929133858000007
 20
8.2677165353999982
  9
$ORTHOMODE
 70
     0
  9
$REGENMODE
 70
     1
  9
$FILLMODE
 70
     1
  9
$QTEXTMODE
 70
     0
  9
$MIRRTEXT
 70
     0
  9
$DRAGMODE
 70
     2
  9
$LTSCALE
 40
0.6431102362
  9
$OSMODE
 70
  4095
  9
$ATTMODE
 70
     1
  9
$TEXTSIZE
 40
0.2
  9
$TRACEWID
 40
0.05
  9
$TEXTSTYLE
  7
STANDARD
  9
$CLAYER
  8
0
  9
$CELTYPE
  6
BYLAYER
  9
$CECOLOR
 62
   256
  9
$DIMSCALE
 40
1.0
  9
$DIMASZ
 40
0.1875
  9
$DIMEXO
 40
0.0625
  9
$DIMDLI
 40
0.4443307087
  9
$DIMRND
 40
0.0
  9
$DIMDLE
 40
0.0
  9
$DIMEXE
 40
0.125
  9
$DIMTP
 40
0.01
  9
$DIMTM
 40
0.01
  9
$DIMTXT
 40
2.0
  9
$DIMCEN
 40
0.1052362205
  9
$DIMTSZ
 40
0.0
  9
$DIMTOL
 70
     1
  9
$DIMLIM
 70
     0
  9
$DIMTIH
 70
     1
  9
$DIMTOH
 70
     1
  9
$DIMSE1
 70
     0
  9
$DIMSE2
 70
     0
  9
$DIMTAD
 70
     0
  9
$DIMZIN
 70
     0
  9
$DIMBLK
  1

  9
$DIMASO
 70
     1
  9
$DIMSHO
 70
     1
  9
$DIMPOST
  1
\X
  9
$DIMAPOST
  1

  9
$DIMALT
 70
     1
  9
$DIMALTD
 70
     2
  9
$DIMALTF
 40
25.3999999999999986
  9
$DIMLFAC
 40
1.0
  9
$DIMTOFL
 70
     0
  9
$DIMTVP
 40
0.0
  9
$DIMTIX
 70
     0
  9
$DIMSOXD
 70
     0
  9
$DIMSAH
 70
     0
  9
$DIMBLK1
  1

  9
$DIMBLK2
  1

  9
$DIMSTYLE
  2
STANDARD
  9
$DIMCLRD
 70
     0
  9
$DIMCLRE
 70
     0
  9
$DIMCLRT
 70
     0
  9
$DIMTFAC
 40
1.0
  9
$DIMGAP
 40
0.09
  9
$LUNITS
 70
     2
  9
$LUPREC
 70
     4
  9
$SKETCHINC
 40
0.1
  9
$FILLETRAD
 40
0.0
  9
$AUNITS
 70
     0
  9
$AUPREC
 70
     0
  9
$MENU
  1
.
  9
$ELEVATION
 40
0.0
  9
$PELEVATION
 40
0.0
  9
$THICKNESS
 40
0.0
  9
$LIMCHECK
 70
     0
  9
$BLIPMODE
 70
     0
  9
$CHAMFERA
 40
0.0
  9
$CHAMFERB
 40
0.0
  9
$SKPOLY
 70
     0
  9
$TDCREATE
 40
2458060.468368056230247
  9
$TDUPDATE
 40
2459954.4713773149996996
  9
$TDINDWG
 40
0.2947408565
  9
$TDUSRTIMER
 40
0.2947408565
  9
$USRTIMER
 70
     1
  9
$ANGBASE
 50
0.0
  9
$ANGDIR
 70
     0
  9
$PDMODE
 70
     0
  9
$PDSIZE
 40
0.3125
  9
$PLINEWID
 40
0.0
  9
$COORDS
 70
     1
  9
$SPLFRAME
 70
     0
  9
$SPLINETYPE
 70
     6
  9
$SPLINESEGS
 70
     8
  9
$ATTDIA
 70
     1
  9
$ATTREQ
 70
     1
  9
$HANDLING
 70
     1
  9
$HANDSEED
  5
6717
  9
$SURFTAB1
 70
     6
  9
$SURFTAB2
 70
     6
  9
$SURFTYPE
 70
     6
  9
$SURFU
 70
     6
  9
$SURFV
 70
     6
  9
$UCSNAME
  2

  9
$UCSORG
 10
0.0
 20
0.0
 30
0.0
  9
$UCSXDIR
 10
1.0
 20
0.0
 30
0.0
  9
$UCSYDIR
 10
0.0
 20
1.0
 30
0.0
  9
$PUCSNAME
  2

  9
$PUCSORG
 10
0.0
 20
0.0
 30
0.0
  9
$PUCSXDIR
 10
1.0
 20
0.0
 30
0.0
  9
$PUCSYDIR
 10
0.0
 20
1.0
 30
0.0
  9
$USERI1
 70
     0
  9
$USERI2
 70
     0
  9
$USERI3
 70
     0
  9
$USERI4
 70
     0
  9
$USERI5
 70
     0
  9
$USERR1
 40
0.0
  9
$USERR2
 40
0.0
  9
$USERR3
 40
0.0
  9
$USERR4
 40
0.0
  9
$USERR5
 40
0.0
  9
$WORLDVIEW
 70
     1
  9
$SHADEDGE
 70
     3
  9
$SHADEDIF
 70
    70
  9
$TILEMODE
 70
     1
  9
$MAXACTVP
 70
    64
  9
$PLIMCHECK
 70
     0
  9
$PEXTMIN
 10
1.0000000000000000E+20
 20
1.0000000000000000E+20
 30
1.0000000000000000E+20
  9
$PEXTMAX
 10
-1.0000000000000000E+20
 20
-1.0000000000000000E+20
 30
-1.0000000000000000E+20
  9
$PLIMMIN
 10
0.0
 20
0.0
  9
$PLIMMAX
 10
12.0
 20
9.0
  9
$UNITMODE
 70
     0
  9
$VISRETAIN
 70
     1
  9
$PLINEGEN
 70
     0
  9
$PSLTSCALE
 70
     1
  0
ENDSEC
  0
SECTION
  2
TABLES
  0
TABLE
  2
VPORT
 70
     1
  0
VPORT
  2
*ACTIVE
 70
     0
 10
0.0
 20
0.0
 11
1.0
 21
1.0
 12
174.5161331183566062
 22
-15.3129226313606992
 13
0.0
 23
0.0
 14
1.0
 24
1.0
 15
0.0
 25
0.0
 16
0.0
 26
0.0
 36
238.8063968625259008
 17
3002.96630859375
 27
54.8220901489257813
 37
0.0
 40
51.5383557123182925
 41
2.8493975903614448
 42
50.0
 43
0.0
 44
0.0
 50
0.0
 51
0.0
 71
     0
 72
   100
 73
     1
 74
     1
 75
     0
 76
     0
 77
     0
 78
     0
  0
ENDTAB
  0
TABLE
  2
LTYPE
 70
     2
  0
LTYPE
  2
CONTINUOUS
 70
     0
  3
Solid line
 72
    65
 73
     0
 40
0.0
  0
LTYPE
  2
PHANTOM2
 70
     0
  3
___ _ _ ___ _ _ ___ _ _ ___ _ _
 72
    65
 73
     6
 40
1.25
 49
0.625
 49
-0.125
 49
0.125
 49
-0.125
 49
0.125
 49
-0.125
  0
ENDTAB
  0
TABLE
  2
LAYER
 70
     2
  0
LAYER
  2
0
 70
     0
 62
   255
  6
CONTINUOUS
  0
LAYER
  2
DEFPOINTS
 70
     0
 62
     7
  6
CONTINUOUS
  0
ENDTAB
  0
TABLE
  2
STYLE
 70
     1
  0
STYLE
  2
STANDARD
 70
     0
 40
0.0
 41
0.8
 50
0.0
 71
     0
 42
0.2
  3
txt
  4

  0
ENDTAB
  0
TABLE
  2
VIEW
 70
     0
  0
ENDTAB
  0
TABLE
  2
UCS
 70
     0
  0
ENDTAB
  0
TABLE
  2
APPID
 70
     9
  0
APPID
  2
ACAD
 70
     0
  0
APPID
  2
ACAD_MLEADERVER
 70
     0
  0
APPID
  2
ACAD_EXEMPT_FROM_CAD_STANDARDS
 70
     0
  0
APPID
  2
ACAD_NAV_VCDISPLAY
 70
     0
  0
APPID
  2
ACAECLAYERSTANDARD
 70
     0
  0
APPID
  2
ACCMTRANSPARENCY
 70
     0
  0
APPID
  2
ACAD_DSTYLE_DIMJAG
 70
     0
  0
APPID
  2
ACAD_DSTYLE_DIMTALN
 70
     0
  0
APPID
  2
ACDBATTR
 70
     0
  0
ENDTAB
  0
TABLE
  2
DIMSTYLE
 70
     1
  0
DIMSTYLE
  2
STANDARD
 70
     0
  3

  4

  5

  6

  7

 40
1.0
 41
0.1875
 42
0.0625
 43
0.38
 44
0.125
 45
0.0
 46
0.0
 47
0.01
 48
0.01
140
0.15625
141
0.09
142
0.0
143
25.3999999999999986
144
1.0
145
0.0
146
1.0
147
0.09
 71
     1
 72
     0
 73
     1
 74
     1
 75
     0
 76
     0
 77
     0
 78
     4
170
     0
171
     2
172
     0
173
     0
174
     0
175
     0
176
     0
177
     0
178
     0
  0
ENDTAB
  0
ENDSEC
  0
SECTION
  2
BLOCKS
  0
BLOCK
  8
0
  2
$MODEL_SPACE
 70
     0
 10
0.0
 20
0.0
 30
0.0
  3
$MODEL_SPACE
  1

  0
ENDBLK
  5
21
  8
0
  0
BLOCK
 67
     1
  8
0
  2
$PAPER_SPACE
 70
     0
 10
0.0
 20
0.0
 30
0.0
  3
$PAPER_SPACE
  1

  0
ENDBLK
  5
1D
 67
     1
  8
0
  0
BLOCK
  8
0
  2
_FILLED
 70
     0
 10
0.0
 20
0.0
 30
0.0
  3
_FILLED
  1

  0
SOLID
  5
5CF5
  8
0
  6
BYBLOCK
 62
     0
 10
0.0
 20
0.0
 30
0.0
 11
-1.0
 21
0.1666666667
 31
0.0
 12
-1.0
 22
-0.1666666667
 32
0.0
 13
-1.0
 23
-0.1666666667
 33
0.0
  0
ENDBLK
  5
5CF6
  8
0
  6
BYBLOCK
 62
     0
  0
ENDSEC
  0
SECTION
  2
ENTITIES
  0
ATTDEF
  5
3930
  8
DEFPOINTS
 10
3179.4958998489278201
 20
54.5107968103727671
 30
0.0
 40
0.001
  1
K-BD-N450US
  3

  2
MODELNUMBER
 70
     0
1001
ACDBATTR
1070
     0
1070
     1
  0
ATTDEF
  5
3931
  8
DEFPOINTS
 10
3179.4958998489278201
 20
54.509130143706102
 30
0.0
 40
0.001
  1
NOVITA
  3

  2
TRADENAME
 70
     0
1001
ACDBATTR
1070
     0
1070
     1
  0
ATTDEF
  5
3932
  8
DEFPOINTS
 10
3179.4958998489278201
 20
54.5074634770394368
 30
0.0
 40
0.001
  1
BIDET SEAT
  3

  2
PRODUCT
 70
     0
1001
ACDBATTR
1070
     0
1070
     1
  0
ARC
  5
63B8
  8
0
 10
3179.4979014738219121
 20
8.8757060700687873
 30
0.0
 40
45.630929120227151
 50
90.0092975561221493
 51
90.3598484286009125
  0
ARC
  5
63B9
  8
0
 10
3179.4154442688982272
 20
18.9166842848693015
 30
0.0
 40
35.5896363503231825
 50
90.3286272545981177
 51
91.4730273083951744
  0
ARC
  5
63BA
  8
0
 10
3178.8493466774439185
 20
37.0430605440995535
 30
0.0
 40
17.4549840358232302
 50
91.1449485470998155
 51
97.5238677456704153
  0
ARC
  5
63BB
  8
0
 10
3178.4105448370951308
 20
40.7831673460700728
 30
0.0
 40
13.7611523973337402
 50
97.8970885586796555
 51
99.424031273565916
  0
ARC
  5
63BC
  8
0
 10
3176.1597641683320035
 20
54.3389729982287832
 30
0.0
 40
0.0197748111601351
 50
97.1661710395530633
 51
179.9162036833504885
  0
ARC
  5
63BD
  8
0
 10
3176.5219043270999464
 20
54.3942637112953875
 30
0.0
 40
0.0196598575085309
 50
359.9801050042191832
 51
96.0210729216819345
  0
LINE
  5
63BE
  8
0
 10
3176.5415641834229064
 20
54.3942568847406633
 30
0.0
 11
3176.5415641816530297
 21
54.366199247009412
 31
0.0
  0
ARC
  5
63BF
  8
0
 10
3176.5612904917520609
 20
54.3673641945566715
 30
0.0
 40
0.0197606784527041
 50
183.3797068650569884
 51
277.3113126832107014
  0
LINE
  5
63C0
  8
0
 10
3176.1399893783241168
 20
54.3390019214500697
 30
0.0
 11
3176.1398801330610695
 21
54.2973045875788003
 31
0.0
  0
ARC
  5
63C1
  8
0
 10
3176.119395638449987
 20
54.2997351686826519
 30
0.0
 40
0.0206281905162429
 50
281.8377039102384174
 51
353.2332257195402008
  0
ARC
  5
63C2
  8
0
 10
3176.1276939383969875
 20
54.2575342319886715
 30
0.0
 40
0.022383958205416
 50
100.4674016916604984
 51
111.470932578328302
  0
ARC
  5
63C3
  8
0
 10
3176.6863389343739073
 20
54.2765659153473408
 30
0.0
 40
0.5668410318252457
 50
179.8181681174220898
 51
180.0845698422182011
  0
ARC
  5
63C4
  8
0
 10
3176.1191730347150042
 20
54.2758008011962474
 30
0.0
 40
0.0003332579662609
 50
292.8037426309056173
 51
347.6011916566831133
  0
ARC
  5
63C5
  8
0
 10
3175.3775761212900761
 20
57.6682493808131298
 30
0.0
 40
3.4728877636292821
 50
280.0704260949431159
 51
282.3320078764936056
  0
ARC
  5
63C6
  8
0
 10
3178.7005986528852191
 20
39.7663361719147588
 30
0.0
 40
14.73495933752843
 50
100.6207407710580952
 51
104.7408166905061933
  0
ARC
  5
63C7
  8
0
 10
3177.1311780694659319
 20
45.6654429284064278
 30
0.0
 40
8.6306934402498321
 50
104.6295793487172006
 51
115.7674037137394976
  0
ARC
  5
63C8
  8
0
 10
3174.2086846739189241
 20
51.7227373233184906
 30
0.0
 40
1.9052361971939571
 50
115.807131045615094
 51
134.7855474845233061
  0
ARC
  5
63C9
  8
0
 10
3172.1762910403158457
 20
52.8426308689574071
 30
0.0
 40
0.0735315755386061
 50
16.9600966430948397
 51
100.6567266203341973
  0
ARC
  5
63CA
  8
0
 10
3168.6031211646491101
 20
51.8683897585862681
 30
0.0
 40
3.777104335080014
 50
11.7178996320057092
 51
15.2845042363077006
  0
ARC
  5
63CB
  8
0
 10
3170.9896703447298023
 20
52.3782701262965418
 30
0.0
 40
1.336818327275286
 50
5.0792245709150592
 51
11.0937522105129496
  0
ARC
  5
63CC
  8
0
 10
3173.0172075681070964
 20
52.5603876724417489
 30
0.0
 40
0.6988832434185934
 50
185.2348430338201979
 51
196.3415921864558982
  0
ARC
  5
63CD
  8
0
 10
3172.9721529743560495
 20
52.5537223267645572
 30
0.0
 40
0.6538035802002985
 50
196.8920015344205012
 51
221.9171651326460051
  0
ARC
  5
63CE
  8
0
 10
3173.1207452276539698
 20
52.6906856674920121
 30
0.0
 40
0.8558759869614284
 50
222.0944408487945907
 51
255.4729368367773077
  0
ARC
  5
63CF
  8
0
 10
3173.2419607060201088
 20
53.077220901093277
 30
0.0
 40
1.2606235578730729
 50
254.5464962427203091
 51
270.4912909134650931
  0
ARC
  5
63D0
  8
0
 10
3173.375055865568811
 20
86.156815367719318
 30
0.0
 40
34.3403894117212687
 50
269.795969686609908
 51
271.5522404574268762
  0
ARC
  5
63D1
  8
0
 10
3170.9345347630669494
 20
-4166.5304057101911894
 30
0.0
 40
4218.3607798656539671
 50
89.8835876325893537
 51
89.9542169076805465
  0
ARC
  5
63D2
  8
0
 10
3224.4517743245141901
 20
-20060.9074122460806393
 30
0.0
 40
20112.6487344977795146
 50
90.1280410704976447
 51
90.1459210168771961
  0
ARC
  5
63D3
  8
0
 10
3173.1980839877610379
 20
52.9172559325716634
 30
0.0
 40
1.241543284417425
 50
232.430340321377912
 51
271.4218910609449154
  0
ARC
  5
63D4
  8
0
 10
3172.8815404855940869
 20
52.5019358180875528
 30
0.0
 40
0.7193544517397744
 50
182.0141968043938903
 51
232.2443678048921072
  0
ARC
  5
63D5
  8
0
 10
3170.0109967111429796
 20
52.5705632046480815
 30
0.0
 40
2.153682222339524
 50
357.5008433726792987
 51
6.5690165902466919
  0
ARC
  5
63D6
  8
0
 10
3172.0428674076829338
 20
52.8044068603165613
 30
0.0
 40
0.1083995995360893
 50
6.6416921004607321
 51
31.3463249890724001
  0
ARC
  5
63D7
  8
0
 10
3172.1232361722718451
 20
52.8547342682235808
 30
0.0
 40
0.0136313261393085
 50
26.4101275717421515
 51
119.113589563477305
  0
ARC
  5
63D8
  8
0
 10
3172.2536725735058099
 20
52.729910960323167
 30
0.0
 40
0.1936067120821357
 50
135.0703560927213118
 51
160.5397411220517938
  0
ARC
  5
63D9
  8
0
 10
3172.1941213800550941
 20
52.8144296541352389
 30
0.0
 40
0.1052656511945541
 50
107.3711405868919968
 51
155.9188373989422018
  0
ARC
  5
63DA
  8
0
 10
3173.2285182022578738
 20
52.3097730332496624
 30
0.0
 40
1.256147811486785
 50
154.1547191685675102
 51
166.1520968788086066
  0
ARC
  5
63DB
  8
0
 10
3201.4099455113409931
 20
46.117496178071633
 30
0.0
 40
30.1094791888497397
 50
167.5466851518505962
 51
179.6030971231384967
  0
ARC
  5
63DC
  8
0
 10
3199.4610795552721356
 20
46.2463113332280713
 30
0.0
 40
28.1700240478059314
 50
181.5368492733790049
 51
185.2255284760701102
  0
ARC
  5
63DD
  8
0
 10
3186.7784597292670696
 20
44.7959708333915714
 30
0.0
 40
15.4107369190570491
 50
184.1501453968195108
 51
204.3870689382227965
  0
ARC
  5
63DE
  8
0
 10
3183.8641607660679256
 20
43.8324407687828312
 30
0.0
 40
12.3629126673649701
 50
205.896927933690904
 51
218.6459476701155893
  0
ARC
  5
63DF
  8
0
 10
3179.599932364903907
 20
40.0493819131195607
 30
0.0
 40
6.6762934228077171
 50
216.1425830083092876
 51
269.1625695248731063
  0
ARC
  5
63E0
  8
0
 10
3172.0485586158679325
 20
37.7562302022514729
 30
0.0
 40
14.9522098551008007
 50
88.732362644244887
 51
89.0898946521970032
  0
LINE
  5
63E1
  8
0
 10
3172.3793409524669187
 20
52.8640292740531592
 30
0.0
 11
3172.3793410601201685
 21
52.2779812238752513
 31
0.0
  0
ARC
  5
63E2
  8
0
 10
3172.458040808252008
 20
52.8598468854216819
 30
0.0
 40
0.0788109108893115
 50
104.7781659404460015
 51
176.9579613271802998
  0
ARC
  5
63E3
  8
0
 10
3171.3740586313701897
 20
56.9487743493663032
 30
0.0
 40
4.151359968074205
 50
284.8489984758954279
 51
291.0703589643508735
  0
ARC
  5
63E4
  8
0
 10
3179.5127108063188643
 20
8.8757060700687873
 30
0.0
 40
45.630929120227151
 50
89.6401515713990875
 51
89.9907024438778649
  0
ARC
  5
63E5
  8
0
 10
3179.595168011243004
 20
18.9166842848693015
 30
0.0
 40
35.5896363503231825
 50
88.526972691604854
 51
89.6713727454018965
  0
ARC
  5
63E6
  8
0
 10
3180.1612656026982222
 20
37.0430605440995535
 30
0.0
 40
17.4549840358232302
 50
82.4761322543295847
 51
88.8550514529001845
  0
ARC
  5
63E7
  8
0
 10
3180.6000674430461004
 20
40.7831673460700728
 30
0.0
 40
13.7611523973337402
 50
80.5759687264340982
 51
82.1029114413203729
  0
ARC
  5
63E8
  8
0
 10
3182.850848111808773
 20
54.3389729982287832
 30
0.0
 40
0.0197748111601351
 50
0.0837963166495041
 51
82.8338289604469225
  0
ARC
  5
63E9
  8
0
 10
3182.48870795304083
 20
54.3942637112953875
 30
0.0
 40
0.0196598575085309
 50
83.9789270783180655
 51
180.0198949957791967
  0
LINE
  5
63EA
  8
0
 10
3182.4690480967178701
 20
54.3942568847406633
 30
0.0
 11
3182.4690480984882015
 21
54.366199247009412
 31
0.0
  0
ARC
  5
63EB
  8
0
 10
3182.4493217883891703
 20
54.3673641945566715
 30
0.0
 40
0.0197606784527041
 50
262.6886873167891849
 51
356.6202931349429832
  0
LINE
  5
63EC
  8
0
 10
3182.8706229018171143
 20
54.3390019214500697
 30
0.0
 11
3182.8707321470801617
 21
54.2973045875788003
 31
0.0
  0
ARC
  5
63ED
  8
0
 10
3182.8912166416907894
 20
54.2997351686826519
 30
0.0
 40
0.0206281905162429
 50
186.7667742804597992
 51
258.1622960897615826
  0
ARC
  5
63EE
  8
0
 10
3182.8829183417437889
 20
54.2575342319886715
 30
0.0
 40
0.022383958205416
 50
68.529067421671698
 51
79.532598308339459
  0
ARC
  5
63EF
  8
0
 10
3182.3242733457668692
 20
54.2765659153473408
 30
0.0
 40
0.5668410318252457
 50
359.9154301577818273
 51
0.1818318825778216
  0
ARC
  5
63F0
  8
0
 10
3182.891439245426227
 20
54.2758008011962474
 30
0.0
 40
0.0003332579662609
 50
192.3988083433152099
 51
247.1962573690944112
  0
ARC
  5
63F1
  8
0
 10
3183.6330361588511551
 20
57.6682493808131298
 30
0.0
 40
3.4728877636292821
 50
257.6679921235062807
 51
259.9295739050568272
  0
ARC
  5
63F2
  8
0
 10
3180.3100136272560121
 20
39.7663361719147588
 30
0.0
 40
14.73495933752843
 50
75.2591833094937499
 51
79.37925922894199
  0
ARC
  5
63F3
  8
0
 10
3181.8794342106748445
 20
45.6654429284064278
 30
0.0
 40
8.6306934402498321
 50
64.2325962862604456
 51
75.3704206512827994
  0
ARC
  5
63F4
  8
0
 10
3184.8019276062218523
 20
51.7227373233184906
 30
0.0
 40
1.9052361971939571
 50
45.2144525154766868
 51
64.192868954384906
  0
ARC
  5
63F5
  8
0
 10
3186.8343212398249307
 20
52.8426308689574071
 30
0.0
 40
0.0735315755386061
 50
79.3432733796658169
 51
163.0399033569051142
  0
ARC
  5
63F6
  8
0
 10
3190.4074911154912115
 20
51.8683897585862681
 30
0.0
 40
3.777104335080014
 50
164.7154957636923029
 51
168.2821003679943033
  0
ARC
  5
63F7
  8
0
 10
3188.0209419354100646
 20
52.3782701262965418
 30
0.0
 40
1.336818327275286
 50
168.9062477894869971
 51
174.9207754290848982
  0
ARC
  5
63F8
  8
0
 10
3185.9934047120341347
 20
52.5603876724417489
 30
0.0
 40
0.6988832434185934
 50
343.6584078135441018
 51
354.7651569661796884
  0
ARC
  5
63F9
  8
0
 10
3186.0384593057838174
 20
52.5537223267645572
 30
0.0
 40
0.6538035802002985
 50
318.0828348673539949
 51
343.1079984655794988
  0
ARC
  5
63FA
  8
0
 10
3185.8898670524881709
 20
52.6906856674920121
 30
0.0
 40
0.8558759869614284
 50
284.5270631632225786
 51
317.9055591512052956
  0
ARC
  5
63FB
  8
0
 10
3185.7686515741202129
 20
53.077220901093277
 30
0.0
 40
1.2606235578730729
 50
269.5087090865349069
 51
285.4535037572798046
  0
ARC
  5
63FC
  8
0
 10
3185.6355564145719654
 20
86.156815367719318
 30
0.0
 40
34.3403894117212687
 50
268.4477595425731238
 51
270.204030313390092
  0
ARC
  5
63FD
  8
0
 10
3188.076077517073827
 20
-4166.5304057101911894
 30
0.0
 40
4218.3607798656539671
 50
90.0457830923194678
 51
90.1164123674106605
  0
ARC
  5
63FE
  8
0
 10
3134.5588379556279506
 20
-20060.9074122460806393
 30
0.0
 40
20112.6487344977795146
 50
89.8540789831228039
 51
89.8719589295023411
  0
ARC
  5
63FF
  8
0
 10
3185.8125282923788291
 20
52.9172559325716634
 30
0.0
 40
1.241543284417425
 50
268.5781089390550846
 51
307.569659678622088
  0
ARC
  5
6400
  8
0
 10
3186.1290717945471442
 20
52.5019358180875528
 30
0.0
 40
0.7193544517397744
 50
307.7556321951079212
 51
357.9858031956060245
  0
ARC
  5
6401
  8
0
 10
3188.9996155689968873
 20
52.5705632046480815
 30
0.0
 40
2.153682222339524
 50
173.4309834097533098
 51
182.4991566273205876
  0
ARC
  5
6402
  8
0
 10
3186.9677448724578426
 20
52.8044068603165613
 30
0.0
 40
0.1083995995360893
 50
148.6536750109275999
 51
173.3583078995391986
  0
ARC
  5
6403
  8
0
 10
3186.8873761078689313
 20
52.8547342682235808
 30
0.0
 40
0.0136313261393085
 50
60.8864104365226311
 51
153.5898724282577916
  0
ARC
  5
6404
  8
0
 10
3186.7569397066349666
 20
52.729910960323167
 30
0.0
 40
0.1936067120821357
 50
19.4602588779482204
 51
44.9296439072787095
  0
ARC
  5
6405
  8
0
 10
3186.8164909000847729
 20
52.8144296541352389
 30
0.0
 40
0.1052656511945541
 50
24.0811626010577413
 51
72.6288594131079321
  0
ARC
  5
6406
  8
0
 10
3185.7820940778829026
 20
52.3097730332496624
 30
0.0
 40
1.256147811486785
 50
13.8479031211913899
 51
25.8452808314324898
  0
ARC
  5
6407
  8
0
 10
3157.6006667687997833
 20
46.117496178071633
 30
0.0
 40
30.1094791888497397
 50
0.396902876364754
 51
12.4533148481494003
  0
ARC
  5
6408
  8
0
 10
3159.5495327248690955
 20
46.2463113332280713
 30
0.0
 40
28.1700240478059314
 50
354.7744715239298898
 51
358.4631507267577035
  0
ARC
  5
6409
  8
0
 10
3172.2321525508741615
 20
44.7959708333915714
 30
0.0
 40
15.4107369190570491
 50
335.6129310617757255
 51
355.8498546031805176
  0
ARC
  5
640A
  8
0
 10
3175.1464515140728508
 20
43.8324407687828312
 30
0.0
 40
12.3629126673649701
 50
321.3540523298843823
 51
334.1030720663089824
  0
ARC
  5
640B
  8
0
 10
3179.4106799152359599
 20
40.0493819131195607
 30
0.0
 40
6.6762934228077171
 50
270.8374304751009163
 51
323.857416991690684
  0
ARC
  5
640C
  8
0
 10
3186.9620536642719344
 20
37.7562302022514729
 30
0.0
 40
14.9522098551008007
 50
90.9101053478029826
 51
91.2676373557550988
  0
LINE
  5
640D
  8
0
 10
3186.6312713276729482
 20
52.8640292740531592
 30
0.0
 11
3186.6312712200210626
 21
52.2779812238752513
 31
0.0
  0
ARC
  5
640E
  8
0
 10
3186.5525714718892232
 20
52.8598468854216819
 30
0.0
 40
0.0788109108893115
 50
3.0420386728196491
 51
75.2218340595539559
  0
ARC
  5
640F
  8
0
 10
3187.6365536487710415
 20
56.9487743493663032
 30
0.0
 40
4.151359968074205
 50
248.9296410356490128
 51
255.1510015241046858
  0
LINE
  5
6410
  8
0
 10
3171.3011887507741449
 20
45.4907951304098219
 30
0.0
 11
3171.3011887507741449
 21
46.3260707613009899
 31
0.0
  0
LINE
  5
6411
  8
0
 10
3187.7094235293689053
 20
45.4907951304771672
 30
0.0
 11
3187.7094235293689053
 21
46.3260707610399294
 31
0.0
  0
LINE
  5
6412
  8
0
 10
3179.5201154725291417
 20
54.5066345895073709
 30
0.0
 11
3179.49049680761118
 21
54.5066345895073709
 31
0.0
  0
LINE
  5
6414
  8
0
 10
3179.5082566052151378
 20
33.373801589507373
 30
0.0
 11
3179.5023556749251838
 21
33.373801589507373
 31
0.0
  0
LINE
  5
6415
  8
0
 10
3163.4037709904700932
 20
30.4111714248081384
 30
0.0
 11
3163.4037709904700932
 21
40.3935434418081272
 31
0.0
  0
LINE
  5
6416
  8
0
 10
3163.3644009116701454
 20
31.4617078270081585
 30
0.0
 11
3163.3644009116701454
 21
33.0561960160081583
 31
0.0
  0
LINE
  5
6417
  8
0
 10
3163.3644009116701454
 20
34.5977634276081574
 30
0.0
 11
3163.3644009116701454
 21
36.192251616608182
 31
0.0
  0
LINE
  5
6418
  8
0
 10
3163.3644009116701454
 20
37.7372983782081803
 30
0.0
 11
3163.3644009116701454
 21
39.3317865672081766
 31
0.0
  0
LINE
  5
6419
  8
0
 10
3164.4137979326710592
 20
30.4111714248081384
 30
0.0
 11
3164.4137979326710592
 21
40.3935434418081272
 31
0.0
  0
LINE
  5
641A
  8
0
 10
3163.443170990471117
 20
30.3717714248081414
 30
0.0
 11
3164.3743979326700355
 21
30.3717714248081414
 31
0.0
  0
ARC
  5
641B
  8
0
 10
3163.443170990471117
 20
30.4111714248081597
 30
0.0
 40
0.0394
 50
180.0000000000212026
 51
270.0
  0
ARC
  5
641C
  8
0
 10
3164.3743979326700355
 20
30.4111714248081917
 30
0.0
 40
0.0394
 50
269.9999999999218971
 51
359.9999999999380975
  0
LINE
  5
641D
  8
0
 10
3163.443170990471117
 20
40.4329434418081419
 30
0.0
 11
3164.3743979326700355
 21
40.4329434418081419
 31
0.0
  0
ARC
  5
641E
  8
0
 10
3163.443170990471117
 20
40.3935434418080703
 30
0.0
 40
0.0394
 50
90.0
 51
179.9999999999168949
  0
ARC
  5
641F
  8
0
 10
3164.3743979326700355
 20
40.3935434418081414
 30
0.0
 40
0.0394
 50
359.9999999999789111
 51
90.0000000000781455
  0
LINE
  5
6420
  8
0
 10
3163.3644009116701454
 20
31.4617078270081585
 30
0.0
 11
3163.4037709904700932
 21
31.4617078270081585
 31
0.0
  0
LINE
  5
6421
  8
0
 10
3163.3644009116701454
 20
33.0561960160081583
 30
0.0
 11
3163.4037709904700932
 21
33.0561960160081583
 31
0.0
  0
LINE
  5
6422
  8
0
 10
3163.3644009116701454
 20
34.5977634276081574
 30
0.0
 11
3163.4037709904700932
 21
34.5977634276081574
 31
0.0
  0
LINE
  5
6423
  8
0
 10
3163.3644009116701454
 20
36.192251616608182
 30
0.0
 11
3163.4037709904700932
 21
36.1922516166081323
 31
0.0
  0
LINE
  5
6424
  8
0
 10
3163.3644009116701454
 20
37.7372983782081803
 30
0.0
 11
3163.4037709904700932
 21
37.7372983782081803
 31
0.0
  0
LINE
  5
6425
  8
0
 10
3163.3644009116701454
 20
39.3317865672081766
 30
0.0
 11
3163.4037709904700932
 21
39.3317865672081766
 31
0.0
  0
LINE
  5
6426
  8
0
 10
3163.4970383818240407
 20
30.4912949923799417
 30
0.0
 11
3163.4970383818240407
 21
40.3165711712081674
 31
0.0
  0
LINE
  5
6427
  8
0
 10
3164.2951428629949078
 20
30.4321949389119091
 30
0.0
 11
3163.5561383775479953
 21
30.4321949923799515
 31
0.0
  0
LINE
  5
6428
  8
0
 10
3164.2844279641708454
 20
30.5089818428081401
 30
0.0
 11
3164.2844279641708454
 21
40.298911789308157
 31
0.0
  0
LINE
  5
6429
  8
0
 10
3163.5364383818241549
 20
30.4695818428081395
 30
0.0
 11
3164.2450279641711859
 21
30.4695818428081395
 31
0.0
  0
LINE
  5
642A
  8
0
 10
3163.5364383818241549
 20
40.3383117893081575
 30
0.0
 11
3164.2450279641711859
 21
40.3383117893081575
 31
0.0
  0
ARC
  5
642B
  8
0
 10
3163.5364383818241549
 20
40.298911789308157
 30
0.0
 40
0.0394
 50
90.0
 51
180.0
  0
ARC
  5
642C
  8
0
 10
3164.2450279641711859
 20
40.298911789308093
 30
0.0
 40
0.0394
 50
0.000000000102592
 51
89.9999999999218403
  0
ARC
  5
642D
  8
0
 10
3163.5364383818241549
 20
30.5089818428081792
 30
0.0
 40
0.0394
 50
180.0000000000619025
 51
269.9999999998436806
  0
ARC
  5
642E
  8
0
 10
3164.2450279641711859
 20
30.5089818428082005
 30
0.0
 40
0.0394
 50
270.0
 51
359.9999999999170086
  0
LINE
  5
642F
  8
0
 10
3164.3542428672708411
 20
30.4912949388772994
 30
0.0
 11
3164.3542428730238498
 21
40.316571171173571
 31
0.0
  0
ARC
  5
6430
  8
0
 10
3164.2951428672708971
 20
30.4912949389118495
 30
0.0
 40
0.0591
 50
269.9999958545548111
 51
359.9999999665078008
  0
LINE
  5
6431
  8
0
 10
3164.2951428730239058
 20
40.3756711712081824
 30
0.0
 11
3163.5561383818239847
 21
40.3756711712081824
 31
0.0
  0
ARC
  5
6432
  8
0
 10
3164.2951428730239058
 20
40.3165711712081531
 30
0.0
 40
0.0591
 50
359.999999966480118
 51
89.9999999999478888
  0
ARC
  5
6433
  8
0
 10
3163.5561383818239847
 20
40.3165711712081389
 30
0.0
 40
0.0591
 50
90.0
 51
179.9999999999593001
  0
ARC
  5
6434
  8
0
 10
3163.5561383818239847
 20
30.4912949923799204
 30
0.0
 40
0.0591
 50
179.9999999999870113
 51
269.9999958545026857
  0
LINE
  5
6435
  8
0
 10
3163.4800461348731915
 20
40.0362550143409521
 30
0.0
 11
3163.4173199520678281
 21
40.0362550114227105
 31
0.0
  0
LINE
  5
6436
  8
0
 10
3163.4176298234679052
 20
40.055520802108127
 30
0.0
 11
3163.4970383818240407
 21
40.055520802108127
 31
0.0
  0
ARC
  5
6437
  8
0
 10
3163.4267454004980209
 20
40.0339597993247622
 30
0.0
 40
0.0234087715529631
 50
112.9177059653061974
 51
168.9452773966831955
  0
ARC
  5
6438
  8
0
 10
3163.4269431255052041
 20
40.0147244236918596
 30
0.0
 40
0.0235832922857711
 50
114.0824269034395968
 51
169.2854902091659142
  0
ARC
  5
6439
  8
0
 10
3163.4695821120390065
 20
40.0101228957997677
 30
0.0
 40
0.0281493053785851
 50
12.7402110627779592
 51
68.1774707193149396
  0
LINE
  5
643A
  8
0
 10
3163.4160434137738775
 20
30.7542866266800097
 30
0.0
 11
3163.4829470241088529
 21
30.7542866260315009
 31
0.0
  0
LINE
  5
643B
  8
0
 10
3163.4178352804751739
 20
30.7350208362081787
 30
0.0
 11
3163.4970383818240407
 21
30.7350208362081787
 31
0.0
  0
ARC
  5
643C
  8
0
 10
3163.4305876749867821
 20
30.7779742925681212
 30
0.0
 40
0.0277964215225223
 50
195.2574485463580913
 51
238.4500146508378862
  0
ARC
  5
643D
  8
0
 10
3163.4621525317129453
 20
30.7834168541480295
 30
0.0
 40
0.0357907963611738
 50
305.5209861961246247
 51
347.088322360088398
  0
ARC
  5
643E
  8
0
 10
3163.4252680983081518
 20
30.7551994357620195
 30
0.0
 40
0.0215040149947939
 50
181.45222430525871
 51
249.7786484063165915
  0
LINE
  5
643F
  8
0
 10
3163.4750418321700636
 20
40.0362550141081286
 30
0.0
 11
3163.4943082981708358
 21
40.055520802108127
 31
0.0
  0
LINE
  5
6440
  8
0
 10
3163.4234560898062227
 20
40.0362550117081923
 30
0.0
 11
3163.4234560897989468
 21
40.055520802108127
 31
0.0
  0
LINE
  5
6441
  8
0
 10
3163.4750425089710006
 20
30.7542866261081294
 30
0.0
 11
3163.494308299470049
 21
30.7350208362082
 31
0.0
  0
LINE
  5
6442
  8
0
 10
3163.4234560933400644
 20
30.7542866266081596
 30
0.0
 11
3163.4234560933468856
 21
30.7350208362081787
 31
0.0
  0
LINE
  5
6443
  8
0
 10
3164.2247749236707932
 20
40.2790856452081414
 30
0.0
 11
3163.55539812627012
 21
40.2790856452081414
 31
0.0
  0
LINE
  5
6444
  8
0
 10
3163.5553981262291927
 20
30.5281257498081402
 30
0.0
 11
3163.55539812627012
 21
40.2790856452081414
 31
0.0
  0
LINE
  5
6445
  8
0
 10
3164.2247749236707932
 20
30.5281257498081402
 30
0.0
 11
3164.2247749236707932
 21
40.2790856452081414
 31
0.0
  0
LINE
  5
6446
  8
0
 10
3163.5553981262291927
 20
30.5281257498081402
 30
0.0
 11
3164.2247749236707932
 21
30.5281257498081402
 31
0.0
  0
ENDSEC
  0
EOF
