  0
SECTION
  2
HEADER
  9
$ACADVER
  1
AC1009
  9
$INSBASE
 10
4790.1430688090413241
 20
262.7775904346386824
 30
0.0
  9
$EXTMIN
 10
4768.8009688090405689
 20
262.7855832425764788
 30
0.0
  9
$EXTMAX
 10
4790.1495585312986805
 20
282.7431260746072894
 30
0.0
  9
$LIMMIN
 10
0.0
 20
0.0
  9
$LIMMAX
 10
11.6929133858000007
 20
8.2677165353999982
  9
$ORTHOMODE
 70
     1
  9
$REGENMODE
 70
     1
  9
$FILLMODE
 70
     1
  9
$QTEXTMODE
 70
     0
  9
$MIRRTEXT
 70
     0
  9
$DRAGMODE
 70
     2
  9
$LTSCALE
 40
0.6431102362
  9
$OSMODE
 70
  4095
  9
$ATTMODE
 70
     1
  9
$TEXTSIZE
 40
0.2
  9
$TRACEWID
 40
0.05
  9
$TEXTSTYLE
  7
STANDARD
  9
$CLAYER
  8
0
  9
$CELTYPE
  6
BYLAYER
  9
$CECOLOR
 62
   256
  9
$DIMSCALE
 40
1.0
  9
$DIMASZ
 40
0.1875
  9
$DIMEXO
 40
0.0625
  9
$DIMDLI
 40
0.4443307087
  9
$DIMRND
 40
0.0
  9
$DIMDLE
 40
0.0
  9
$DIMEXE
 40
0.125
  9
$DIMTP
 40
0.01
  9
$DIMTM
 40
0.01
  9
$DIMTXT
 40
2.0
  9
$DIMCEN
 40
0.1052362205
  9
$DIMTSZ
 40
0.0
  9
$DIMTOL
 70
     1
  9
$DIMLIM
 70
     0
  9
$DIMTIH
 70
     1
  9
$DIMTOH
 70
     1
  9
$DIMSE1
 70
     0
  9
$DIMSE2
 70
     0
  9
$DIMTAD
 70
     0
  9
$DIMZIN
 70
     0
  9
$DIMBLK
  1

  9
$DIMASO
 70
     1
  9
$DIMSHO
 70
     1
  9
$DIMPOST
  1
\X
  9
$DIMAPOST
  1

  9
$DIMALT
 70
     1
  9
$DIMALTD
 70
     2
  9
$DIMALTF
 40
25.3999999999999986
  9
$DIMLFAC
 40
1.0
  9
$DIMTOFL
 70
     0
  9
$DIMTVP
 40
0.0
  9
$DIMTIX
 70
     0
  9
$DIMSOXD
 70
     0
  9
$DIMSAH
 70
     0
  9
$DIMBLK1
  1

  9
$DIMBLK2
  1

  9
$DIMSTYLE
  2
STANDARD
  9
$DIMCLRD
 70
     0
  9
$DIMCLRE
 70
     0
  9
$DIMCLRT
 70
     0
  9
$DIMTFAC
 40
1.0
  9
$DIMGAP
 40
0.09
  9
$LUNITS
 70
     2
  9
$LUPREC
 70
     4
  9
$SKETCHINC
 40
0.1
  9
$FILLETRAD
 40
0.0
  9
$AUNITS
 70
     0
  9
$AUPREC
 70
     0
  9
$MENU
  1
.
  9
$ELEVATION
 40
0.0
  9
$PELEVATION
 40
0.0
  9
$THICKNESS
 40
0.0
  9
$LIMCHECK
 70
     0
  9
$BLIPMODE
 70
     0
  9
$CHAMFERA
 40
0.0
  9
$CHAMFERB
 40
0.0
  9
$SKPOLY
 70
     0
  9
$TDCREATE
 40
2458060.468368056230247
  9
$TDUPDATE
 40
2459165.521655092947185
  9
$TDINDWG
 40
0.3516505787
  9
$TDUSRTIMER
 40
0.3516505787
  9
$USRTIMER
 70
     1
  9
$ANGBASE
 50
0.0
  9
$ANGDIR
 70
     0
  9
$PDMODE
 70
     0
  9
$PDSIZE
 40
0.3125
  9
$PLINEWID
 40
0.0
  9
$COORDS
 70
     1
  9
$SPLFRAME
 70
     0
  9
$SPLINETYPE
 70
     6
  9
$SPLINESEGS
 70
     8
  9
$ATTDIA
 70
     1
  9
$ATTREQ
 70
     1
  9
$HANDLING
 70
     1
  9
$HANDSEED
  5
CF09
  9
$SURFTAB1
 70
     6
  9
$SURFTAB2
 70
     6
  9
$SURFTYPE
 70
     6
  9
$SURFU
 70
     6
  9
$SURFV
 70
     6
  9
$UCSNAME
  2

  9
$UCSORG
 10
0.0
 20
0.0
 30
0.0
  9
$UCSXDIR
 10
1.0
 20
0.0
 30
0.0
  9
$UCSYDIR
 10
0.0
 20
1.0
 30
0.0
  9
$PUCSNAME
  2

  9
$PUCSORG
 10
0.0
 20
0.0
 30
0.0
  9
$PUCSXDIR
 10
1.0
 20
0.0
 30
0.0
  9
$PUCSYDIR
 10
0.0
 20
1.0
 30
0.0
  9
$USERI1
 70
     0
  9
$USERI2
 70
     0
  9
$USERI3
 70
     0
  9
$USERI4
 70
     0
  9
$USERI5
 70
     0
  9
$USERR1
 40
0.0
  9
$USERR2
 40
0.0
  9
$USERR3
 40
0.0
  9
$USERR4
 40
0.0
  9
$USERR5
 40
0.0
  9
$WORLDVIEW
 70
     1
  9
$SHADEDGE
 70
     3
  9
$SHADEDIF
 70
    70
  9
$TILEMODE
 70
     1
  9
$MAXACTVP
 70
    64
  9
$PLIMCHECK
 70
     0
  9
$PEXTMIN
 10
1.0000000000000000E+20
 20
1.0000000000000000E+20
 30
1.0000000000000000E+20
  9
$PEXTMAX
 10
-1.0000000000000000E+20
 20
-1.0000000000000000E+20
 30
-1.0000000000000000E+20
  9
$PLIMMIN
 10
0.0
 20
0.0
  9
$PLIMMAX
 10
12.0
 20
9.0
  9
$UNITMODE
 70
     0
  9
$VISRETAIN
 70
     1
  9
$PLINEGEN
 70
     0
  9
$PSLTSCALE
 70
     1
  0
ENDSEC
  0
SECTION
  2
TABLES
  0
TABLE
  2
VPORT
 70
     1
  0
VPORT
  2
*ACTIVE
 70
     0
 10
0.0
 20
0.0
 11
1.0
 21
1.0
 12
0.0
 22
0.0
 13
0.0
 23
0.0
 14
1.0
 24
1.0
 15
0.0
 25
0.0
 16
0.0
 26
0.0
 36
82.8068924445740464
 17
4779.4751698908066828
 27
272.7643126173820178
 37
0.0
 40
29.2334050848745193
 41
2.1186252771618621
 42
50.0
 43
0.0
 44
0.0
 50
0.0
 51
0.0
 71
     0
 72
   100
 73
     1
 74
     1
 75
     0
 76
     0
 77
     0
 78
     0
  0
ENDTAB
  0
TABLE
  2
LTYPE
 70
     2
  0
LTYPE
  2
CONTINUOUS
 70
     0
  3
Solid line
 72
    65
 73
     0
 40
0.0
  0
LTYPE
  2
PHANTOM2
 70
     0
  3
___ _ _ ___ _ _ ___ _ _ ___ _ _
 72
    65
 73
     6
 40
1.25
 49
0.625
 49
-0.125
 49
0.125
 49
-0.125
 49
0.125
 49
-0.125
  0
ENDTAB
  0
TABLE
  2
LAYER
 70
     2
  0
LAYER
  2
0
 70
     0
 62
   255
  6
CONTINUOUS
  0
LAYER
  2
DEFPOINTS
 70
     0
 62
     7
  6
CONTINUOUS
  0
ENDTAB
  0
TABLE
  2
STYLE
 70
     1
  0
STYLE
  2
STANDARD
 70
     0
 40
0.0
 41
0.8
 50
0.0
 71
     0
 42
0.2
  3
txt
  4

  0
ENDTAB
  0
TABLE
  2
VIEW
 70
     0
  0
ENDTAB
  0
TABLE
  2
UCS
 70
     0
  0
ENDTAB
  0
TABLE
  2
APPID
 70
     9
  0
APPID
  2
ACAD
 70
     0
  0
APPID
  2
ACAD_MLEADERVER
 70
     0
  0
APPID
  2
ACAD_EXEMPT_FROM_CAD_STANDARDS
 70
     0
  0
APPID
  2
ACAD_NAV_VCDISPLAY
 70
     0
  0
APPID
  2
ACAECLAYERSTANDARD
 70
     0
  0
APPID
  2
ACCMTRANSPARENCY
 70
     0
  0
APPID
  2
ACAD_DSTYLE_DIMJAG
 70
     0
  0
APPID
  2
ACAD_DSTYLE_DIMTALN
 70
     0
  0
APPID
  2
ACDBATTR
 70
     0
  0
ENDTAB
  0
TABLE
  2
DIMSTYLE
 70
     1
  0
DIMSTYLE
  2
STANDARD
 70
     0
  3

  4

  5

  6

  7

 40
1.0
 41
0.1875
 42
0.0625
 43
0.38
 44
0.125
 45
0.0
 46
0.0
 47
0.01
 48
0.01
140
0.15625
141
0.09
142
0.0
143
25.3999999999999986
144
1.0
145
0.0
146
1.0
147
0.09
 71
     1
 72
     0
 73
     1
 74
     1
 75
     0
 76
     0
 77
     0
 78
     4
170
     0
171
     2
172
     0
173
     0
174
     0
175
     0
176
     0
177
     0
178
     0
  0
ENDTAB
  0
ENDSEC
  0
SECTION
  2
BLOCKS
  0
BLOCK
  8
0
  2
$MODEL_SPACE
 70
     0
 10
0.0
 20
0.0
 30
0.0
  3
$MODEL_SPACE
  1

  0
ENDBLK
  5
21
  8
0
  0
BLOCK
 67
     1
  8
0
  2
$PAPER_SPACE
 70
     0
 10
0.0
 20
0.0
 30
0.0
  3
$PAPER_SPACE
  1

  0
ENDBLK
  5
1D
 67
     1
  8
0
  0
ENDSEC
  0
SECTION
  2
ENTITIES
  0
ATTDEF
  5
3930
  8
DEFPOINTS
 10
4790.1388918646307502
 20
262.7889165759098091
 30
0.0
 40
0.001
  1
K-99992IN
  3

  2
MODELNUMBER
 70
     0
1001
ACDBATTR
1070
     0
1070
     1
  0
ATTDEF
  5
3931
  8
DEFPOINTS
 10
4790.1388918646307502
 20
262.7872499092430871
 30
0.0
 40
0.001
  1
REPLAY
  3

  2
TRADENAME
 70
     0
1001
ACDBATTR
1070
     0
1070
     1
  0
ATTDEF
  5
3932
  8
DEFPOINTS
 10
4790.1388918646307502
 20
262.7855832425764788
 30
0.0
 40
0.001
  1
TOILET
  3

  2
PRODUCT
 70
     0
1001
ACDBATTR
1070
     0
1070
     1
  0
LINE
  5
CD20
  8
0
 10
4768.8669175523646118
 20
279.9274713424387073
 30
0.0
 11
4768.8009688090405689
 21
278.6771261546386995
 31
0.0
  0
LINE
  5
CD21
  8
0
 10
4789.9464738223641689
 20
265.3286630939385873
 30
0.0
 11
4788.8728548899653106
 21
265.3286599022385985
 31
0.0
  0
LINE
  5
CD22
  8
0
 10
4772.4504819853191293
 20
266.3128657014386818
 30
0.0
 11
4782.2278946327642188
 21
266.3129295956387068
 31
0.0
  0
LINE
  5
CD23
  8
0
 10
4782.6596233558639142
 20
278.860517701338722
 30
0.0
 11
4782.75565971976539
 21
278.9159643218387146
 31
0.0
  0
LINE
  5
CD24
  8
0
 10
4782.863237525565637
 20
278.7119247164387161
 30
0.0
 11
4785.2771620570656523
 21
279.6593358175387039
 31
0.0
  0
LINE
  5
CD25
  8
0
 10
4781.9248121759646892
 20
278.8030211607386946
 30
0.0
 11
4781.9248121759646892
 21
278.7715486120386004
 31
0.0
  0
LINE
  5
CD26
  8
0
 10
4781.9506052912656742
 20
278.8146244532387072
 30
0.0
 11
4781.9512453540701244
 21
278.8512936250181724
 31
0.0
  0
LINE
  5
CD27
  8
0
 10
4782.6169902411893418
 20
278.9223953268837022
 30
0.0
 11
4782.6257968651652845
 21
278.967618158838718
 31
0.0
  0
LINE
  5
CD28
  8
0
 10
4782.759897326389364
 20
278.9968128848203719
 30
0.0
 11
4782.7347799875651617
 21
278.517603532538601
 31
0.0
  0
LINE
  5
CD29
  8
0
 10
4782.8530523510653438
 20
278.517603532538601
 30
0.0
 11
4782.8632375258648608
 21
278.7119247162386841
 31
0.0
  0
LINE
  5
CD2A
  8
0
 10
4784.2476175615656757
 20
278.5175939769385991
 30
0.0
 11
4784.2633975454646134
 21
278.8186562035386942
 31
0.0
  0
LINE
  5
CD2B
  8
0
 10
4787.7261876512648087
 20
280.1379459671387053
 30
0.0
 11
4788.0187238506641734
 21
280.2021593062386842
 31
0.0
  0
LINE
  5
CD2C
  8
0
 10
4785.2173568336538665
 20
279.1094480565288904
 30
0.0
 11
4785.2173530881664192
 21
278.517587840138674
 31
0.0
  0
LINE
  5
CD2D
  8
0
 10
4786.2819398592428115
 20
279.8556983436452015
 30
0.0
 11
4785.2771620570656523
 21
279.6593358160387197
 31
0.0
  0
LINE
  5
CD2E
  8
0
 10
4787.2645102390379179
 20
280.0477209011226023
 30
0.0
 11
4787.7261876512648087
 21
280.1379459671387053
 31
0.0
  0
LINE
  5
CD2F
  8
0
 10
4769.0384185807388349
 20
278.5175904346386915
 30
0.0
 11
4789.946075884394304
 21
278.5175904346386915
 31
0.0
  0
LINE
  5
CD30
  8
0
 10
4771.7056286823217306
 20
278.5569565682386042
 30
0.0
 11
4777.7550881686656794
 21
278.5569565682386042
 31
0.0
  0
LINE
  5
CD31
  8
0
 10
4780.7791428846639974
 20
278.5668210006386971
 30
0.0
 11
4781.4681192625648691
 21
278.5668210006386971
 31
0.0
  0
LINE
  5
CD32
  8
0
 10
4768.8407056342639407
 20
278.6356957880386744
 30
0.0
 11
4777.7461627313641657
 21
278.6356957880386744
 31
0.0
  0
LINE
  5
CD33
  8
0
 10
4781.5110835335817683
 20
278.8030195604385995
 30
0.0
 11
4781.9387934327651237
 21
278.8030195604385995
 31
0.0
  0
LINE
  5
CD34
  8
0
 10
4786.9338414173207639
 20
278.9112833846385797
 30
0.0
 11
4787.0837586728639508
 21
278.9112833846382955
 31
0.0
  0
LINE
  5
CD35
  8
0
 10
4786.9396461141877808
 20
278.9191517442977215
 30
0.0
 11
4787.0999373118647782
 21
278.9191507236387224
 31
0.0
  0
LINE
  5
CD36
  8
0
 10
4784.799047155165681
 20
279.0097164742387008
 30
0.0
 11
4784.463943779964211
 21
279.0097185920387233
 31
0.0
  0
LINE
  5
CD37
  8
0
 10
4787.0800545096390124
 20
279.1094775752720807
 30
0.0
 11
4785.2173568336538665
 21
279.1094480565288904
 31
0.0
  0
LINE
  5
CD38
  8
0
 10
4782.6183572991649271
 20
278.8041601951387065
 30
0.0
 11
4782.695133916665327
 21
278.7990116059386878
 31
0.0
  0
LINE
  5
CD39
  8
0
 10
4782.6596233558639142
 20
278.860517701338722
 30
0.0
 11
4782.6984028834649507
 21
278.7933495892386873
 31
0.0
  0
LINE
  5
CD3A
  8
0
 10
4782.7314737496662929
 20
278.7360691687385952
 30
0.0
 11
4782.7450024812660558
 21
278.7126367182386844
 31
0.0
  0
LINE
  5
CD3B
  8
0
 10
4784.9995904721654369
 20
278.8186482873387035
 30
0.0
 11
4785.0153664749650488
 21
278.5175891183387193
 31
0.0
  0
LINE
  5
CD3C
  8
0
 10
4788.5231728149647097
 20
266.0328672508387058
 30
0.0
 11
4788.5590835382663499
 21
265.6161816392386754
 31
0.0
  0
LINE
  5
CD3D
  8
0
 10
4790.1431029697796475
 20
265.5161954539753992
 30
0.0
 11
4790.1430346483011817
 21
278.3208361634744961
 31
0.0
  0
ARC
  5
CD3E
  8
0
 10
4768.8450144234238905
 20
278.6795998861381918
 30
0.0
 40
0.0441150257163531
 50
183.214522826281609
 51
264.3948882188365133
  0
ARC
  5
CD3F
  8
0
 10
4753.4420552548654086
 20
358.5762389905386271
 30
0.0
 40
84.8984251968000052
 50
291.618090027616006
 51
292.5341408421094798
  0
ARC
  5
CD40
  8
0
 10
4768.9869431212928248
 20
319.3499029250731951
 30
0.0
 40
42.7042433727953679
 50
290.5022651565842011
 51
291.6183961945960732
  0
ARC
  5
CD41
  8
0
 10
4780.7924174381087141
 20
287.6174409619263201
 30
0.0
 40
8.9208080114701982
 50
277.2914366715640995
 51
281.4986429004051161
  0
ARC
  5
CD42
  8
0
 10
4780.7344351902356721
 20
287.93272294490788
 30
0.0
 40
9.1625861778736049
 50
275.1532431376011232
 51
290.5041740412140143
  0
ARC
  5
CD43
  8
0
 10
4780.9308745740627273
 20
268.3698232586775134
 30
0.0
 40
3.8875078534366789
 50
271.3070677066908729
 51
327.0809364946524056
  0
ARC
  5
CD44
  8
0
 10
4780.7790791716497552
 20
279.1949524299830045
 30
0.0
 40
0.6281314325755875
 50
229.5478162113487031
 51
270.0058116608781233
  0
ARC
  5
CD45
  8
0
 10
4781.4681926142584416
 20
279.1948849229215739
 30
0.0
 40
0.6280639265662482
 50
269.9933084160991257
 51
315.9054379248211148
  0
ARC
  5
CD46
  8
0
 10
4784.4639492963997327
 20
278.808931190377109
 30
0.0
 40
0.2007874017372941
 50
90.0015741446393776
 51
177.2238283271254033
  0
ARC
  5
CD47
  8
0
 10
4784.7990384240347339
 20
278.8089290558230005
 30
0.0
 40
0.2007874186054814
 50
2.7745196728365791
 51
89.9975085247691879
  0
ARC
  5
CD48
  8
0
 10
4782.7665928150217951
 20
278.8327187449024223
 30
0.0
 40
0.0787387908121651
 50
209.9997985165921932
 51
255.8132911573447927
  0
ARC
  5
CD49
  8
0
 10
4781.9050993443743209
 20
278.7715605056724257
 30
0.0
 40
0.0197128351793078
 50
315.9320341166999242
 51
359.9654308956564819
  0
ARC
  5
CD4A
  8
0
 10
4782.6196401298502678
 20
278.8236767761270016
 30
0.0
 40
0.0195586959698371
 50
200.832796115597489
 51
266.2393410519015902
  0
ARC
  5
CD4B
  8
0
 10
4782.7485214937651108
 20
278.7459116885386834
 30
0.0
 40
0.0196850393999948
 50
132.2840043422629037
 51
210.0000000004924914
  0
ARC
  5
CD4C
  8
0
 10
4781.9376007140026559
 20
278.8160472546363167
 30
0.0
 40
0.0130821784941369
 50
275.2309926783229912
 51
353.7562320949500076
  0
ARC
  5
CD4D
  8
0
 10
4788.4565637608302495
 20
271.8264995991340243
 30
0.0
 40
10.4683308071179599
 50
99.5774307100188736
 51
99.9604989251148908
  0
CIRCLE
  5
CD4E
  8
0
 10
4787.6627293607652973
 20
274.9743830701386855
 30
0.0
 40
0.5383858268
  0
ARC
  5
CD4F
  8
0
 10
4788.9107362587956231
 20
265.6849692879882241
 30
0.0
 40
0.3583174241894405
 50
191.0680102324832887
 51
263.9313414243968055
  0
ARC
  5
CD50
  8
0
 10
4789.9277814858396596
 20
265.5451119352126739
 30
0.0
 40
0.2172544690759677
 50
274.9357685903027004
 51
352.3512571600492151
  0
ARC
  5
CD51
  8
0
 10
4789.9328781723806969
 20
278.3074201356639037
 30
0.0
 40
0.2105842685803656
 50
3.652707366359202
 51
86.406810957924236
  0
ARC
  5
CD52
  8
0
 10
4773.6809801737654197
 20
309.7973834612387236
 30
0.0
 40
32.0875283231000026
 50
292.5341404865092727
 51
294.9075025364815019
  0
ARC
  5
CD53
  8
0
 10
4777.746201480423224
 20
321.0753114115465792
 30
0.0
 40
42.5183557720036092
 50
270.011975292197576
 51
273.6813051234577188
  0
ARC
  5
CD54
  8
0
 10
4777.7461296228329957
 20
321.0769908594411959
 30
0.0
 40
42.441295071415432
 50
270.0000446965407264
 51
275.1521818112004212
  0
LINE
  5
CD55
  8
0
 10
4786.6434037235676442
 20
278.5175904346386915
 30
0.0
 11
4787.6618656508653658
 21
279.8981319044386851
 31
0.0
  0
ARC
  5
CD56
  8
0
 10
4769.0936237103760504
 20
278.3177748983155197
 30
0.0
 40
0.2073013624997531
 50
105.4444360672083008
 51
180.7399209987578956
  0
ARC
  5
CD57
  8
0
 10
4775.3324787191340874
 20
278.3529729786774283
 30
0.0
 40
6.4462503544139649
 50
180.3366447448057102
 51
234.9083660203606883
  0
ARC
  5
CD58
  8
0
 10
4771.2863050641335576
 20
272.595609456711486
 30
0.0
 40
0.5907067007624756
 50
0.283415168705469
 51
54.8221305789351803
  0
ARC
  5
CD59
  8
0
 10
4849.9746700823006904
 20
272.9543210723899165
 30
0.0
 40
78.0984759757854619
 50
180.2610206837287876
 51
184.6652128010061062
  0
ARC
  5
CD5A
  8
0
 10
4772.4489001541151083
 20
266.6278620458289197
 30
0.0
 40
0.3150003161414216
 50
184.6532173836482968
 51
270.2877223550541999
  0
ARC
  5
CD5B
  8
0
 10
4780.9310448863498095
 20
268.3700463738912845
 30
0.0
 40
3.954826488503103
 50
211.343065667949304
 51
259.2592667030826874
  0
ARC
  5
CD5C
  8
0
 10
4780.9307307601420689
 20
268.36953903156558
 30
0.0
 40
3.954269498155321
 50
259.2623685200805994
 51
266.9595102276840066
  0
ARC
  5
CD5D
  8
0
 10
4780.7401673507838495
 20
264.7170959562865846
 30
0.0
 40
0.2968800558750972
 50
266.2962806385617114
 51
294.4409455822740256
  0
ARC
  5
CD5E
  8
0
 10
4781.0298859405120311
 20
264.0851043791951156
 30
0.0
 40
0.3983566258727143
 50
91.4866191943123539
 51
114.7669576222432966
  0
ARC
  5
CD5F
  8
0
 10
4787.9245643265921899
 20
264.6791451283518199
 30
0.0
 40
1.48016745919585
 50
66.1452488967964172
 51
91.5066246195457182
  0
ARC
  5
CD60
  8
0
 10
4829.6059715152987337
 20
1901.5466247988590567
 30
0.0
 40
1635.9199002692839713
 50
268.3404178520150936
 51
268.5386462351000887
  0
ARC
  5
CD61
  8
0
 10
4777.1164195405908686
 20
3139.5710695468142148
 30
0.0
 40
2866.4978925622449424
 50
269.8902694196393099
 51
270.1265988030983181
  0
ARC
  5
CD62
  8
0
 10
4783.1393450343730365
 20
276.312941719816024
 30
0.0
 40
3.2476718415747299
 50
275.491314051182087
 51
339.9307648004186717
  0
ARC
  5
CD63
  8
0
 10
4778.3424422224870796
 20
278.7507122030211804
 30
0.0
 40
8.6139163680745092
 50
335.6454249244324046
 51
357.0570285492805738
  0
ARC
  5
CD64
  8
0
 10
4786.7433093283279959
 20
278.325310440252224
 30
0.0
 40
0.2023915800463468
 50
355.2233279714067749
 51
71.8123760235162649
  0
ARC
  5
CD65
  8
0
 10
4769.2005974553931082
 20
279.8908397654142277
 30
0.0
 40
0.3356845991696405
 50
93.4588849632866498
 51
173.735122711932604
  0
ARC
  5
CD66
  8
0
 10
4765.937662153133715
 20
1211.3997684040421063
 30
0.0
 40
931.179501616806192
 50
270.199523730412011
 51
270.6434003951723071
  0
ARC
  5
CD67
  8
0
 10
4776.1485864399337515
 20
301.9562679520129223
 30
0.0
 40
21.6786806677810517
 50
270.6488449222936197
 51
280.5291825053403727
  0
ARC
  5
CD68
  8
0
 10
4775.8246159438613176
 20
303.1103756009740096
 30
0.0
 40
22.8728097557361885
 50
280.798763981707225
 51
290.1682161949528904
  0
ARC
  5
CD69
  8
0
 10
4776.223408117458348
 20
301.751742087971877
 30
0.0
 40
21.4601933026587908
 50
290.419414570417473
 51
297.4615013454327936
  0
ARC
  5
CD6A
  8
0
 10
4786.2722166991134145
 20
282.4139914427366875
 30
0.0
 40
0.3326320518280333
 50
98.6498804324513259
 51
117.2661253269958053
  0
ARC
  5
CD6B
  8
0
 10
4786.2269447279722954
 20
282.7034613475751144
 30
0.0
 40
0.0396647270322128
 50
1.850905573231832
 51
96.8845612375597653
  0
ARC
  5
CD6C
  8
0
 10
4778.2207524724581162
 20
282.5703230492594002
 30
0.0
 40
8.0469590623294991
 50
358.5837794946247072
 51
0.9571346939976848
  0
ARC
  5
CD6D
  8
0
 10
4786.1870296381239314
 20
281.9451666969741268
 30
0.0
 40
0.4333920372671578
 50
54.6298520594324515
 51
79.601578574171441
  0
ARC
  5
CD6E
  8
0
 10
4784.7076319788184264
 20
279.8561838407298978
 30
0.0
 40
2.993170467112567
 50
29.5748567593012091
 51
54.6849164113107733
  0
ARC
  5
CD6F
  8
0
 10
4785.6519701791858097
 20
283.5131712406952147
 30
0.0
 40
2.772587964384809
 50
304.2367366955854209
 51
306.4713124049616795
  0
ARC
  5
CD70
  8
0
 10
4787.2766734991400881
 20
281.3147476766129103
 30
0.0
 40
0.0389600324182586
 50
306.8754622973020787
 51
28.7614232774325806
  0
ARC
  5
CD71
  8
0
 10
4787.1254822498831345
 20
280.8281234023517072
 30
0.0
 40
0.150659370086954
 50
297.3888987880237096
 51
353.820404731139206
  0
ARC
  5
CD72
  8
0
 10
4786.8901226298467009
 20
280.863698725886195
 30
0.0
 40
0.3886104593825443
 50
352.3409622768755867
 51
15.3773519013044204
  0
ARC
  5
CD73
  8
0
 10
4789.8511694137951054
 20
281.7072236283067923
 30
0.0
 40
2.6902605407543971
 50
192.2596068864031906
 51
195.9764901297272104
  0
ARC
  5
CD74
  8
0
 10
4787.5183836438473008
 20
281.2153158534540012
 30
0.0
 40
0.3065708816387339
 50
178.9343828657198969
 51
194.9999735937672938
  0
ARC
  5
CD75
  8
0
 10
4789.7846047085504324
 20
271.1445041060342191
 30
0.0
 40
11.7933135828263502
 50
105.3193927014209947
 51
107.3592744115468065
  0
ARC
  5
CD76
  8
0
 10
4786.6894964972516391
 20
282.4416632017420739
 30
0.0
 40
0.0798396630120422
 50
53.9097052823234719
 51
105.0114244491256983
  0
ARC
  5
CD77
  8
0
 10
4785.1153812836300858
 20
280.0952223345045127
 30
0.0
 40
2.9053112703258268
 50
2.1093855005502431
 51
56.0828347228039519
  0
ARC
  5
CD78
  8
0
 10
4787.6271836479236299
 20
280.2008212776274263
 30
0.0
 40
0.3915424889884998
 50
321.1131512744170777
 51
0.1957987796082377
  0
ARC
  5
CD79
  8
0
 10
4050.4306018586589744
 20
871.4713077934145531
 30
0.0
 40
945.4098416269597465
 50
321.1879652905623743
 51
321.268486164982221
  0
ARC
  5
CD7A
  8
0
 10
4040.2950780911260154
 20
879.6111866482111736
 30
0.0
 40
958.4016419152668504
 50
321.1573764646129234
 51
321.1875887290004243
  0
LINE
  5
CD7B
  8
0
 10
4769.1803448416640094
 20
280.2259128645387136
 30
0.0
 11
4777.6391893727650313
 21
280.2259128645387136
 31
0.0
  0
ARC
  5
CD7C
  8
0
 10
4778.2756213269085492
 20
300.7335394639983974
 30
0.0
 40
20.5174997106158798
 50
268.222458117330973
 51
284.3188494380202087
  0
ARC
  5
CD7D
  8
0
 10
4779.0978972135580989
 20
293.1849110651165802
 30
0.0
 40
13.0439852874075601
 50
289.0249050790444016
 51
302.4799156474314827
  0
ARC
  5
CD7E
  8
0
 10
4785.9645562881623846
 20
282.4640051498855087
 30
0.0
 40
0.314621878750969
 50
296.018478566927115
 51
342.8899520756133938
  0
ARC
  5
CD7F
  8
0
 10
4787.3431555946553999
 20
280.1284648339869818
 30
0.0
 40
0.3932293966169813
 50
324.1442220857492202
 51
1.7023004792859979
  0
ARC
  5
CD80
  8
0
 10
4785.0446943103670492
 20
280.0719643512661037
 30
0.0
 40
2.692380594708637
 50
1.4511146709461551
 51
49.8855791153996719
  0
ARC
  5
CD81
  8
0
 10
4786.727864329480326
 20
282.0705166849704142
 30
0.0
 40
0.0794770469951068
 50
49.5397843371615991
 51
99.4324160745254915
  0
ARC
  5
CD82
  8
0
 10
4783.8035231688600106
 20
281.9808573250807058
 30
0.0
 40
2.9502863887126289
 50
3.2301740199142341
 51
10.5326226005087307
  0
ARC
  5
CD83
  8
0
 10
4782.5589810535948345
 20
278.9335744499329053
 30
0.0
 40
0.0590765489640367
 50
281.4746898205000889
 51
349.0920818457581163
  0
LINE
  5
CD84
  8
0
 10
4782.6013601372205812
 20
278.8167208824020804
 30
0.0
 11
4782.6013601372205812
 21
278.8924155880854983
 31
0.0
  0
LINE
  5
CD85
  8
0
 10
4782.3080638561168598
 20
278.8263611994764801
 30
0.0
 11
4782.5829452242651314
 21
278.8067986689280815
 31
0.0
  0
ARC
  5
CD86
  8
0
 10
4782.5841321336492911
 20
278.8266453329018191
 30
0.0
 40
0.019882123246022
 50
266.5775609185167241
 51
330.0552595587133737
  0
ARC
  5
CD87
  8
0
 10
4770.9341138098188821
 20
279.1134427077910232
 30
0.0
 40
0.6239772478706618
 50
229.964673728131487
 51
252.7319122961542064
  0
ARC
  5
CD88
  8
0
 10
4771.4233685445178708
 20
279.1134427159338998
 30
0.0
 40
0.6239772575736071
 50
287.2680880511280748
 51
310.0353261699746099
  0
CIRCLE
  5
CD89
  8
0
 10
4786.7732250491662853
 20
279.9517096223386829
 30
0.0
 40
0.455891902405142
  0
LINE
  5
CD8A
  8
0
 10
4786.7436974900656423
 20
280.4241505672385983
 30
0.0
 11
4786.7436974900656423
 21
280.4066442879030774
 31
0.0
  0
LINE
  5
CD8B
  8
0
 10
4786.8027526081650649
 20
280.4241505672385983
 30
0.0
 11
4786.8027526081650649
 21
280.4066442879096144
 31
0.0
  0
ARC
  5
CD8C
  8
0
 10
4786.7732250487651982
 20
280.4241617524385788
 30
0.0
 40
0.0295252252
 50
359.9782785758998784
 51
180.0217214302996069
  0
LINE
  5
CD8D
  8
0
 10
4786.6621075708990247
 20
280.4118457208879249
 30
0.0
 11
4786.6651475044027393
 21
280.3946054012718037
 31
0.0
  0
LINE
  5
CD8E
  8
0
 10
4786.7202655090586632
 20
280.4221005345278854
 30
0.0
 11
4786.7233054425632872
 21
280.4048602149181875
 31
0.0
  0
ARC
  5
CD8F
  8
0
 10
4786.6911845973436357
 20
280.4169841429188068
 30
0.0
 40
0.0295252252
 50
9.9782785758990151
 51
190.0217214302998059
  0
LINE
  5
CD90
  8
0
 10
4786.5838939000823302
 20
280.3855598720228954
 30
0.0
 11
4786.5898814002475774
 21
280.3691093505137815
 31
0.0
  0
LINE
  5
CD91
  8
0
 10
4786.6393875587800721
 20
280.4057579119794923
 30
0.0
 11
4786.6453750589453193
 21
280.3893073904765743
 31
0.0
  0
ARC
  5
CD92
  8
0
 10
4786.6116369035380558
 20
280.3956694025313823
 30
0.0
 40
0.0295252252
 50
19.9782785758909114
 51
200.0217214302950026
  0
LINE
  5
CD93
  8
0
 10
4786.5114329604230079
 20
280.3460917028600079
 30
0.0
 11
4786.5201861000896315
 21
280.3309308202295824
 31
0.0
  0
LINE
  5
CD94
  8
0
 10
4786.5625761929213695
 20
280.3756192619100034
 30
0.0
 11
4786.5713293325852646
 21
280.3604583792852054
 31
0.0
  0
ARC
  5
CD95
  8
0
 10
4786.536998983769081
 20
280.3608651688774103
 30
0.0
 40
0.0295252252
 50
29.9782785759018005
 51
210.0217214302954005
  0
LINE
  5
CD96
  8
0
 10
4786.4469264409071911
 20
280.2946404337474178
 30
0.0
 11
4786.4581792603557915
 21
280.2812298457427005
 31
0.0
  0
LINE
  5
CD97
  8
0
 10
4786.4921652859657115
 20
280.3326003319506867
 30
0.0
 11
4786.5034181054097644
 21
280.3191897439509148
 31
0.0
  0
ARC
  5
CD98
  8
0
 10
4786.4695386734601925
 20
280.3136289509843095
 30
0.0
 40
0.0295252252
 50
39.9782785758864918
 51
220.0217214303075082
  0
LINE
  5
CD99
  8
0
 10
4786.3923343394890253
 20
280.2327693854616086
 30
0.0
 11
4786.4057449274932878
 21
280.2215165660128946
 31
0.0
  0
LINE
  5
CD9A
  8
0
 10
4786.430294237691669
 20
280.2780082305199016
 30
0.0
 11
4786.4437048256922935
 21
280.2667554110752803
 31
0.0
  0
ARC
  5
CD9B
  8
0
 10
4786.4113057200047479
 20
280.2553959974305258
 30
0.0
 40
0.0295252252
 50
49.9782785758921477
 51
230.0217214302853961
  0
LINE
  5
CD9C
  8
0
 10
4786.3493154095440332
 20
280.1623584784962873
 30
0.0
 11
4786.3644762921740039
 21
280.1536053388285268
 31
0.0
  0
LINE
  5
CD9D
  8
0
 10
4786.3788429685937444
 20
280.2135017109944215
 30
0.0
 11
4786.3940038512191677
 21
280.2047485713297874
 31
0.0
  0
ARC
  5
CD9E
  8
0
 10
4786.3640695022259024
 20
280.1879356870422271
 30
0.0
 40
0.0295252252
 50
59.9782785758928227
 51
240.021721430282696
  0
LINE
  5
CD9F
  8
0
 10
4786.319176759489892
 20
280.085547112630195
 30
0.0
 11
4786.3356272809987786
 21
280.0795596124626741
 31
0.0
  0
LINE
  5
CDA0
  8
0
 10
4786.3393747994468868
 20
280.1410407713283917
 30
0.0
 11
4786.3558253209503164
 21
280.1350532711632013
 31
0.0
  0
ARC
  5
CDA1
  8
0
 10
4786.3292652686977817
 20
280.1132977672140782
 30
0.0
 40
0.0295252252
 50
69.9782785758974484
 51
250.0217214303096966
  0
LINE
  5
CDA2
  8
0
 10
4786.3028341369590635
 20
280.0046691623466018
 30
0.0
 11
4786.32007445657473
 21
280.0016292288423188
 31
0.0
  0
LINE
  5
CDA3
  8
0
 10
4786.313088950598285
 20
280.0628271005065244
 30
0.0
 11
4786.3303292702075851
 21
280.0597871670033214
 31
0.0
  0
ARC
  5
CDA4
  8
0
 10
4786.3079505284458719
 20
280.0337500733714933
 30
0.0
 40
0.0295252252
 50
79.9782785758895045
 51
260.0217214302863908
  0
LINE
  5
CDA5
  8
0
 10
4786.3007841042654036
 20
279.9221820632387221
 30
0.0
 11
4786.3182903835995603
 21
279.9221820632387221
 31
0.0
  0
LINE
  5
CDA6
  8
0
 10
4786.3007841042654036
 20
279.9812371813385994
 30
0.0
 11
4786.3182903835941033
 21
279.9812371813385994
 31
0.0
  0
ARC
  5
CDA7
  8
0
 10
4786.3007729190649115
 20
279.9517096219386758
 30
0.0
 40
0.0295252252
 50
89.9782785758835786
 51
270.0217214303174842
  0
LINE
  5
CDA8
  8
0
 10
4786.3130889506155654
 20
279.840592144072275
 30
0.0
 11
4786.3303292702312319
 21
279.8436320775766717
 31
0.0
  0
LINE
  5
CDA9
  8
0
 10
4786.3028341369763439
 20
279.8987500822323113
 30
0.0
 11
4786.3200744565847344
 21
279.9017900157355143
 31
0.0
  0
ARC
  5
CDAA
  8
0
 10
4786.3079505285850246
 20
279.8696691705180228
 30
0.0
 40
0.0295252252
 50
99.978278575904227
 51
280.0217214303019091
  0
LINE
  5
CDAB
  8
0
 10
4786.3393747994814476
 20
279.7623784732550121
 30
0.0
 11
4786.3558253209903341
 21
279.7683659734224193
 31
0.0
  0
LINE
  5
CDAC
  8
0
 10
4786.3191767595253623
 20
279.8178721319532087
 30
0.0
 11
4786.3356272810269729
 21
279.8238596321183991
 31
0.0
  0
ARC
  5
CDAD
  8
0
 10
4786.3292652689724491
 20
279.7901214767114766
 30
0.0
 40
0.0295252252
 50
109.9782785758986989
 51
290.0217214303125957
  0
LINE
  5
CDAE
  8
0
 10
4786.3788429686437667
 20
279.689917533596315
 30
0.0
 11
4786.3940038512737374
 21
279.6986706732640755
 31
0.0
  0
LINE
  5
CDAF
  8
0
 10
4786.3493154095931459
 20
279.7410607660943924
 30
0.0
 11
4786.3644762922176596
 21
279.7498139057590265
 31
0.0
  0
ARC
  5
CDB0
  8
0
 10
4786.3640695026269896
 20
279.7154835569422744
 30
0.0
 40
0.0295252252
 50
119.9782785759143025
 51
300.0217214303065134
  0
LINE
  5
CDB1
  8
0
 10
4786.4302942377562431
 20
279.6254110140808962
 30
0.0
 11
4786.4437048257614151
 21
279.6366638335296102
 31
0.0
  0
LINE
  5
CDB2
  8
0
 10
4786.3923343395526899
 20
279.6706498591391892
 30
0.0
 11
4786.4057449275533145
 21
279.6819026785835831
 31
0.0
  0
ARC
  5
CDB3
  8
0
 10
4786.4113057205186124
 20
279.6480232466340112
 30
0.0
 40
0.0295252252
 50
129.9782785759076091
 51
310.0217214303028754
  0
LINE
  5
CDB4
  8
0
 10
4786.4921652860421091
 20
279.5708189126623893
 30
0.0
 11
4786.5034181054907094
 21
279.5842295006671065
 31
0.0
  0
LINE
  5
CDB5
  8
0
 10
4786.4469264409854077
 20
279.6087788108656014
 30
0.0
 11
4786.4581792604276416
 21
279.6221893988653733
 31
0.0
  0
ARC
  5
CDB6
  8
0
 10
4786.4695386740731919
 20
279.5897902931787939
 30
0.0
 40
0.0295252252
 50
139.978278575908007
 51
320.0217214302981006
  0
LINE
  5
CDB7
  8
0
 10
4786.562576193006862
 20
279.5277999827172835
 30
0.0
 11
4786.5713293326762141
 21
279.5429608653477089
 31
0.0
  0
LINE
  5
CDB8
  8
0
 10
4786.5114329605094099
 20
279.5573275417672789
 30
0.0
 11
4786.5201861001742145
 21
279.5724884243920769
 31
0.0
  0
ARC
  5
CDB9
  8
0
 10
4786.5369989844621159
 20
279.5425540754000053
 30
0.0
 40
0.0295252252
 50
149.9782785758901014
 51
330.021721430312482
  0
LINE
  5
CDBA
  8
0
 10
4786.6393875588728406
 20
279.497661332663597
 30
0.0
 11
4786.6453750590399068
 21
279.514111854172711
 31
0.0
  0
LINE
  5
CDBB
  8
0
 10
4786.5838939001750987
 20
279.5178593726201939
 30
0.0
 11
4786.5898814003403459
 21
279.5343098941232256
 31
0.0
  0
ARC
  5
CDBC
  8
0
 10
4786.6116369042902079
 20
279.5077498418722826
 30
0.0
 40
0.0295252252
 50
159.9782785759093997
 51
340.0217214302957132
  0
LINE
  5
CDBD
  8
0
 10
4786.7202655091559791
 20
279.4813187101320864
 30
0.0
 11
4786.7233054426606031
 21
279.4985590297482076
 31
0.0
  0
LINE
  5
CDBE
  8
0
 10
4786.6621075709972501
 20
279.49157352377199
 30
0.0
 11
4786.6651475045009647
 21
279.508813843381688
 31
0.0
  0
ARC
  5
CDBF
  8
0
 10
4786.6911845981321676
 20
279.4864351016195769
 30
0.0
 40
0.0295252252
 50
169.9782785759007879
 51
350.0217214302958268
  0
LINE
  5
CDC0
  8
0
 10
4786.8027526082651093
 20
279.479268677438597
 30
0.0
 11
4786.8027526082651093
 21
279.4967749567742885
 31
0.0
  0
LINE
  5
CDC1
  8
0
 10
4786.7436974901647773
 20
279.479268677438597
 30
0.0
 11
4786.7436974901647773
 21
279.4967749567678084
 31
0.0
  0
ARC
  5
CDC2
  8
0
 10
4786.773225049564644
 20
279.4792574922386734
 30
0.0
 40
0.0295252252
 50
179.9782785758997932
 51
0.0217214302996332
  0
LINE
  5
CDC3
  8
0
 10
4786.8843425274308174
 20
279.4915735237893841
 30
0.0
 11
4786.8813025939271029
 21
279.5088138434055054
 31
0.0
  0
LINE
  5
CDC4
  8
0
 10
4786.8261845892720885
 20
279.4813187101494236
 30
0.0
 11
4786.8231446557692834
 21
279.4985590297591216
 31
0.0
  0
ARC
  5
CDC5
  8
0
 10
4786.8552655009862065
 20
279.4864351017585022
 30
0.0
 40
0.0295252252
 50
189.9782785758974057
 51
10.0217214302998698
  0
LINE
  5
CDC6
  8
0
 10
4786.9625561982502404
 20
279.5178593726545273
 30
0.0
 11
4786.9565686980813553
 21
279.5343098941635844
 31
0.0
  0
LINE
  5
CDC7
  8
0
 10
4786.90706253954977
 20
279.4976613326978168
 30
0.0
 11
4786.9010750393854323
 21
279.5141118542007916
 31
0.0
  0
ARC
  5
CDC8
  8
0
 10
4786.9348131947917864
 20
279.5077498421459268
 30
0.0
 40
0.0295252252
 50
199.9782785758908972
 51
20.0217214302949706
  0
LINE
  5
CDC9
  8
0
 10
4787.0350171379077437
 20
279.5573275418174148
 30
0.0
 11
4787.0262639982402106
 21
279.5724884244477266
 31
0.0
  0
LINE
  5
CDCA
  8
0
 10
4786.9838739054093821
 20
279.5277999827673057
 30
0.0
 11
4786.975120765743668
 21
279.5429608653921036
 31
0.0
  0
ARC
  5
CDCB
  8
0
 10
4787.0094511145607612
 20
279.5425540758000125
 30
0.0
 40
0.0295252252
 50
209.9782785759018111
 51
30.0217214302954183
  0
LINE
  5
CDCC
  8
0
 10
4787.099523657422651
 20
279.6087788109298913
 30
0.0
 11
4787.0882708379740507
 21
279.6221893989347222
 31
0.0
  0
LINE
  5
CDCD
  8
0
 10
4787.0542848123650401
 20
279.5708189127266223
 30
0.0
 11
4787.0430319929200778
 21
279.5842295007265079
 31
0.0
  0
ARC
  5
CDCE
  8
0
 10
4787.0769114248687401
 20
279.5897902936928858
 30
0.0
 40
0.0295252252
 50
219.9782785758864065
 51
40.0217214303075224
  0
LINE
  5
CDCF
  8
0
 10
4787.1541157588408169
 20
279.6706498592158141
 30
0.0
 11
4787.1407051708365543
 21
279.6819026786644145
 31
0.0
  0
LINE
  5
CDD0
  8
0
 10
4787.1161558606381732
 20
279.6254110141575211
 30
0.0
 11
4787.1027452726393676
 21
279.6366638336019719
 31
0.0
  0
ARC
  5
CDD1
  8
0
 10
4787.1351443783250943
 20
279.6480232472467833
 30
0.0
 40
0.0295252252
 50
229.9782785758920909
 51
50.0217214302853677
  0
LINE
  5
CDD2
  8
0
 10
4787.1971346887867185
 20
279.7410607661810218
 30
0.0
 11
4787.1819738061558382
 21
279.7498139058487823
 31
0.0
  0
LINE
  5
CDD3
  8
0
 10
4787.1676071297370072
 20
279.6899175336828876
 30
0.0
 11
4787.1524462471115839
 21
279.6986706733475216
 31
0.0
  0
ARC
  5
CDD4
  8
0
 10
4787.1823805961039398
 20
279.715483557635082
 30
0.0
 40
0.0295252252
 50
239.9782785758928014
 51
60.0217214302826392
  0
LINE
  5
CDD5
  8
0
 10
4787.2272733388399502
 20
279.8178721320471141
 30
0.0
 11
4787.2108228173310636
 21
279.8238596322145781
 31
0.0
  0
LINE
  5
CDD6
  8
0
 10
4787.2070752988838649
 20
279.7623784733489174
 30
0.0
 11
4787.1906247773804353
 21
279.7683659735142214
 31
0.0
  0
ARC
  5
CDD7
  8
0
 10
4787.2171848296311509
 20
279.790121477463174
 30
0.0
 40
0.0295252252
 50
249.9782785758974057
 51
70.0217214303097109
  0
LINE
  5
CDD8
  8
0
 10
4787.2436159613707787
 20
279.8987500823307073
 30
0.0
 11
4787.2263756417560217
 21
279.901790015835104
 31
0.0
  0
LINE
  5
CDD9
  8
0
 10
4787.2333611477306476
 20
279.8405921441707846
 30
0.0
 11
4787.2161208281222571
 21
279.8436320776739876
 31
0.0
  0
ARC
  5
CDDA
  8
0
 10
4787.2384995698830608
 20
279.8696691713058726
 30
0.0
 40
0.0295252252
 50
259.9782785758894761
 51
80.0217214302864193
  0
LINE
  5
CDDB
  8
0
 10
4787.2456659940653481
 20
279.9812371814387006
 30
0.0
 11
4787.2281597147293724
 21
279.9812371814387006
 31
0.0
  0
LINE
  5
CDDC
  8
0
 10
4787.2456659940653481
 20
279.9221820633387097
 30
0.0
 11
4787.2281597147348293
 21
279.9221820633387097
 31
0.0
  0
ARC
  5
CDDD
  8
0
 10
4787.2456771792649306
 20
279.9517096227386901
 30
0.0
 40
0.0295252252
 50
269.9782785758836212
 51
90.0217214303175552
  0
LINE
  5
CDDE
  8
0
 10
4787.2333611477142767
 20
280.0628271006049772
 30
0.0
 11
4787.2161208280977007
 21
280.0597871671005805
 31
0.0
  0
LINE
  5
CDDF
  8
0
 10
4787.2436159613544078
 20
280.0046691624451114
 30
0.0
 11
4787.2263756417451077
 21
280.0016292289419084
 31
0.0
  0
ARC
  5
CDE0
  8
0
 10
4787.2384995697448176
 20
280.0337500741592862
 30
0.0
 40
0.0295252252
 50
279.9782785759041985
 51
100.0217214303018949
  0
LINE
  5
CDE1
  8
0
 10
4787.2070752988493041
 20
280.141040771422297
 30
0.0
 11
4787.1906247773404175
 21
280.1350532712548898
 31
0.0
  0
LINE
  5
CDE2
  8
0
 10
4787.2272733388062989
 20
280.085547112724214
 30
0.0
 11
4787.2108228173028692
 21
280.07955961255891
 31
0.0
  0
ARC
  5
CDE3
  8
0
 10
4787.2171848293583025
 20
280.1132977679657756
 30
0.0
 40
0.0295252252
 50
289.9782785758986847
 51
110.0217214303125957
  0
LINE
  5
CDE4
  8
0
 10
4787.167607129686985
 20
280.213501711080994
 30
0.0
 11
4787.1524462470561048
 21
280.2047485714131767
 31
0.0
  0
LINE
  5
CDE5
  8
0
 10
4787.1971346887366963
 20
280.1623584785829166
 30
0.0
 11
4787.1819738061121825
 21
280.1536053389182825
 31
0.0
  0
ARC
  5
CDE6
  8
0
 10
4787.1823805957028526
 20
280.1879356877350915
 30
0.0
 40
0.0295252252
 50
299.9782785759143167
 51
120.0217214303064992
  0
LINE
  5
CDE7
  8
0
 10
4787.1161558605726896
 20
280.2780082305964129
 30
0.0
 11
4787.102745272568427
 21
280.2667554111478125
 31
0.0
  0
LINE
  5
CDE8
  8
0
 10
4787.1541157587762427
 20
280.2327693855381767
 30
0.0
 11
4787.1407051707774372
 21
280.2215165660937259
 31
0.0
  0
ARC
  5
CDE9
  8
0
 10
4787.1351443778112298
 20
280.2553959980432978
 30
0.0
 40
0.0295252252
 50
309.9782785759076091
 51
130.0217214303029039
  0
LINE
  5
CDEA
  8
0
 10
4787.0542848122868236
 20
280.3326003320149766
 30
0.0
 11
4787.0430319928400422
 21
280.3191897440102025
 31
0.0
  0
LINE
  5
CDEB
  8
0
 10
4787.0995236573462535
 20
280.2946404338117077
 30
0.0
 11
4787.0882708379022006
 21
280.2812298458118789
 31
0.0
  0
ARC
  5
CDEC
  8
0
 10
4787.0769114242566502
 20
280.313628951498572
 30
0.0
 40
0.0295252252
 50
319.978278575908007
 51
140.0217214302981006
  0
LINE
  5
CDED
  8
0
 10
4786.9838739053229801
 20
280.3756192619600256
 30
0.0
 11
4786.9751207656563565
 21
280.3604583793296001
 31
0.0
  0
LINE
  5
CDEE
  8
0
 10
4787.0350171378213417
 20
280.3460917029099733
 30
0.0
 11
4787.0262639981556276
 21
280.3309308202851753
 31
0.0
  0
ARC
  5
CDEF
  8
0
 10
4787.0094511138686357
 20
280.3608651692773037
 30
0.0
 40
0.0295252252
 50
329.9782785758901014
 51
150.0217214303125104
  0
LINE
  5
CDF0
  8
0
 10
4786.9070625394570015
 20
280.4057579120138257
 30
0.0
 11
4786.9010750392881164
 21
280.3893073905045981
 31
0.0
  0
LINE
  5
CDF1
  8
0
 10
4786.9625561981547435
 20
280.3855598720571152
 30
0.0
 11
4786.9565686979904058
 21
280.3691093505540834
 31
0.0
  0
ARC
  5
CDF2
  8
0
 10
4786.9348131940396343
 20
280.3956694028050265
 30
0.0
 40
0.0295252252
 50
339.9782785759094281
 51
160.0217214302971911
  0
LINE
  5
CDF3
  8
0
 10
4786.8261845891720441
 20
280.4221005345452795
 30
0.0
 11
4786.823144655669239
 21
280.4048602149292151
 31
0.0
  0
LINE
  5
CDF4
  8
0
 10
4786.884342527332592
 20
280.411845720905319
 30
0.0
 11
4786.8813025938297869
 21
280.394605401295621
 31
0.0
  0
ARC
  5
CDF5
  8
0
 10
4786.8552655001967651
 20
280.416984143057789
 30
0.0
 40
0.0295252252
 50
349.9782785759023795
 51
170.02172143029739
  0
ENDSEC
  0
EOF
