  0
SECTION
  2
HEADER
  9
$ACADVER
  1
AC1009
  9
$INSBASE
 10
4787.4600269215261505
 20
277.3489278543630121
 30
0.0
  9
$EXTMIN
 10
4777.9001643121264351
 20
256.0067875431930133
 30
0.0
  9
$EXTMAX
 10
4794.9424317491657348
 20
277.3543650462282244
 30
0.0
  9
$LIMMIN
 10
0.0
 20
0.0
  9
$LIMMAX
 10
11.6929133858000007
 20
8.2677165353999982
  9
$ORTHOMODE
 70
     1
  9
$REGENMODE
 70
     1
  9
$FILLMODE
 70
     1
  9
$QTEXTMODE
 70
     0
  9
$MIRRTEXT
 70
     0
  9
$DRAGMODE
 70
     2
  9
$LTSCALE
 40
0.6431102362
  9
$OSMODE
 70
  4095
  9
$ATTMODE
 70
     1
  9
$TEXTSIZE
 40
0.2
  9
$TRACEWID
 40
0.05
  9
$TEXTSTYLE
  7
STANDARD
  9
$CLAYER
  8
0
  9
$CELTYPE
  6
BYLAYER
  9
$CECOLOR
 62
   256
  9
$DIMSCALE
 40
1.0
  9
$DIMASZ
 40
0.1875
  9
$DIMEXO
 40
0.0625
  9
$DIMDLI
 40
0.4443307087
  9
$DIMRND
 40
0.0
  9
$DIMDLE
 40
0.0
  9
$DIMEXE
 40
0.125
  9
$DIMTP
 40
0.01
  9
$DIMTM
 40
0.01
  9
$DIMTXT
 40
2.0
  9
$DIMCEN
 40
0.1052362205
  9
$DIMTSZ
 40
0.0
  9
$DIMTOL
 70
     1
  9
$DIMLIM
 70
     0
  9
$DIMTIH
 70
     1
  9
$DIMTOH
 70
     1
  9
$DIMSE1
 70
     0
  9
$DIMSE2
 70
     0
  9
$DIMTAD
 70
     0
  9
$DIMZIN
 70
     0
  9
$DIMBLK
  1

  9
$DIMASO
 70
     1
  9
$DIMSHO
 70
     1
  9
$DIMPOST
  1
\X
  9
$DIMAPOST
  1

  9
$DIMALT
 70
     1
  9
$DIMALTD
 70
     2
  9
$DIMALTF
 40
25.3999999999999986
  9
$DIMLFAC
 40
1.0
  9
$DIMTOFL
 70
     0
  9
$DIMTVP
 40
0.0
  9
$DIMTIX
 70
     0
  9
$DIMSOXD
 70
     0
  9
$DIMSAH
 70
     0
  9
$DIMBLK1
  1

  9
$DIMBLK2
  1

  9
$DIMSTYLE
  2
STANDARD
  9
$DIMCLRD
 70
     0
  9
$DIMCLRE
 70
     0
  9
$DIMCLRT
 70
     0
  9
$DIMTFAC
 40
1.0
  9
$DIMGAP
 40
0.09
  9
$LUNITS
 70
     2
  9
$LUPREC
 70
     4
  9
$SKETCHINC
 40
0.1
  9
$FILLETRAD
 40
0.0
  9
$AUNITS
 70
     0
  9
$AUPREC
 70
     0
  9
$MENU
  1
.
  9
$ELEVATION
 40
0.0
  9
$PELEVATION
 40
0.0
  9
$THICKNESS
 40
0.0
  9
$LIMCHECK
 70
     0
  9
$BLIPMODE
 70
     0
  9
$CHAMFERA
 40
0.0
  9
$CHAMFERB
 40
0.0
  9
$SKPOLY
 70
     0
  9
$TDCREATE
 40
2458060.468368056230247
  9
$TDUPDATE
 40
2459165.5215624999254942
  9
$TDINDWG
 40
0.3513959491
  9
$TDUSRTIMER
 40
0.3513959491
  9
$USRTIMER
 70
     1
  9
$ANGBASE
 50
0.0
  9
$ANGDIR
 70
     0
  9
$PDMODE
 70
     0
  9
$PDSIZE
 40
0.3125
  9
$PLINEWID
 40
0.0
  9
$COORDS
 70
     1
  9
$SPLFRAME
 70
     0
  9
$SPLINETYPE
 70
     6
  9
$SPLINESEGS
 70
     8
  9
$ATTDIA
 70
     1
  9
$ATTREQ
 70
     1
  9
$HANDLING
 70
     1
  9
$HANDSEED
  5
CE41
  9
$SURFTAB1
 70
     6
  9
$SURFTAB2
 70
     6
  9
$SURFTYPE
 70
     6
  9
$SURFU
 70
     6
  9
$SURFV
 70
     6
  9
$UCSNAME
  2

  9
$UCSORG
 10
0.0
 20
0.0
 30
0.0
  9
$UCSXDIR
 10
1.0
 20
0.0
 30
0.0
  9
$UCSYDIR
 10
0.0
 20
1.0
 30
0.0
  9
$PUCSNAME
  2

  9
$PUCSORG
 10
0.0
 20
0.0
 30
0.0
  9
$PUCSXDIR
 10
1.0
 20
0.0
 30
0.0
  9
$PUCSYDIR
 10
0.0
 20
1.0
 30
0.0
  9
$USERI1
 70
     0
  9
$USERI2
 70
     0
  9
$USERI3
 70
     0
  9
$USERI4
 70
     0
  9
$USERI5
 70
     0
  9
$USERR1
 40
0.0
  9
$USERR2
 40
0.0
  9
$USERR3
 40
0.0
  9
$USERR4
 40
0.0
  9
$USERR5
 40
0.0
  9
$WORLDVIEW
 70
     1
  9
$SHADEDGE
 70
     3
  9
$SHADEDIF
 70
    70
  9
$TILEMODE
 70
     1
  9
$MAXACTVP
 70
    64
  9
$PLIMCHECK
 70
     0
  9
$PEXTMIN
 10
1.0000000000000000E+20
 20
1.0000000000000000E+20
 30
1.0000000000000000E+20
  9
$PEXTMAX
 10
-1.0000000000000000E+20
 20
-1.0000000000000000E+20
 30
-1.0000000000000000E+20
  9
$PLIMMIN
 10
0.0
 20
0.0
  9
$PLIMMAX
 10
12.0
 20
9.0
  9
$UNITMODE
 70
     0
  9
$VISRETAIN
 70
     1
  9
$PLINEGEN
 70
     0
  9
$PSLTSCALE
 70
     1
  0
ENDSEC
  0
SECTION
  2
TABLES
  0
TABLE
  2
VPORT
 70
     1
  0
VPORT
  2
*ACTIVE
 70
     0
 10
0.0
 20
0.0
 11
1.0
 21
1.0
 12
0.0
 22
0.0
 13
0.0
 23
0.0
 14
1.0
 24
1.0
 15
0.0
 25
0.0
 16
0.0
 26
0.0
 36
77.3794969563675039
 17
4786.41650390625
 27
266.6805699742860156
 37
0.0
 40
27.3161209847620583
 41
2.1186252771618621
 42
50.0
 43
0.0
 44
0.0
 50
0.0
 51
0.0
 71
     0
 72
   100
 73
     1
 74
     1
 75
     0
 76
     0
 77
     0
 78
     0
  0
ENDTAB
  0
TABLE
  2
LTYPE
 70
     2
  0
LTYPE
  2
CONTINUOUS
 70
     0
  3
Solid line
 72
    65
 73
     0
 40
0.0
  0
LTYPE
  2
PHANTOM2
 70
     0
  3
___ _ _ ___ _ _ ___ _ _ ___ _ _
 72
    65
 73
     6
 40
1.25
 49
0.625
 49
-0.125
 49
0.125
 49
-0.125
 49
0.125
 49
-0.125
  0
ENDTAB
  0
TABLE
  2
LAYER
 70
     2
  0
LAYER
  2
0
 70
     0
 62
   255
  6
CONTINUOUS
  0
LAYER
  2
DEFPOINTS
 70
     0
 62
     7
  6
CONTINUOUS
  0
ENDTAB
  0
TABLE
  2
STYLE
 70
     1
  0
STYLE
  2
STANDARD
 70
     0
 40
0.0
 41
0.8
 50
0.0
 71
     0
 42
0.2
  3
txt
  4

  0
ENDTAB
  0
TABLE
  2
VIEW
 70
     0
  0
ENDTAB
  0
TABLE
  2
UCS
 70
     0
  0
ENDTAB
  0
TABLE
  2
APPID
 70
     9
  0
APPID
  2
ACAD
 70
     0
  0
APPID
  2
ACAD_MLEADERVER
 70
     0
  0
APPID
  2
ACAD_EXEMPT_FROM_CAD_STANDARDS
 70
     0
  0
APPID
  2
ACAD_NAV_VCDISPLAY
 70
     0
  0
APPID
  2
ACAECLAYERSTANDARD
 70
     0
  0
APPID
  2
ACCMTRANSPARENCY
 70
     0
  0
APPID
  2
ACAD_DSTYLE_DIMJAG
 70
     0
  0
APPID
  2
ACAD_DSTYLE_DIMTALN
 70
     0
  0
APPID
  2
ACDBATTR
 70
     0
  0
ENDTAB
  0
TABLE
  2
DIMSTYLE
 70
     1
  0
DIMSTYLE
  2
STANDARD
 70
     0
  3

  4

  5

  6

  7

 40
1.0
 41
0.1875
 42
0.0625
 43
0.38
 44
0.125
 45
0.0
 46
0.0
 47
0.01
 48
0.01
140
0.15625
141
0.09
142
0.0
143
25.3999999999999986
144
1.0
145
0.0
146
1.0
147
0.09
 71
     1
 72
     0
 73
     1
 74
     1
 75
     0
 76
     0
 77
     0
 78
     4
170
     0
171
     2
172
     0
173
     0
174
     0
175
     0
176
     0
177
     0
178
     0
  0
ENDTAB
  0
ENDSEC
  0
SECTION
  2
BLOCKS
  0
BLOCK
  8
0
  2
$MODEL_SPACE
 70
     0
 10
0.0
 20
0.0
 30
0.0
  3
$MODEL_SPACE
  1

  0
ENDBLK
  5
21
  8
0
  0
BLOCK
 67
     1
  8
0
  2
$PAPER_SPACE
 70
     0
 10
0.0
 20
0.0
 30
0.0
  3
$PAPER_SPACE
  1

  0
ENDBLK
  5
1D
 67
     1
  8
0
  0
ENDSEC
  0
SECTION
  2
ENTITIES
  0
ATTDEF
  5
3930
  8
DEFPOINTS
 10
4787.4572034814818835
 20
277.3533650462281912
 30
0.0
 40
0.001
  1
K-99992IN
  3

  2
MODELNUMBER
 70
     0
1001
ACDBATTR
1070
     0
1070
     1
  0
ATTDEF
  5
3931
  8
DEFPOINTS
 10
4787.4572034814818835
 20
277.3516983795615261
 30
0.0
 40
0.001
  1
REPLAY
  3

  2
TRADENAME
 70
     0
1001
ACDBATTR
1070
     0
1070
     1
  0
ATTDEF
  5
3932
  8
DEFPOINTS
 10
4787.4572034814818835
 20
277.3500317128949177
 30
0.0
 40
0.001
  1
TOILET
  3

  2
PRODUCT
 70
     0
1001
ACDBATTR
1070
     0
1070
     1
  0
LINE
  5
CCBC
  8
0
 10
4782.5354756384858774
 20
274.3557253574155084
 30
0.0
 11
4782.5214287579256052
 21
274.3314634199629154
 31
0.0
  0
LINE
  5
CCBD
  8
0
 10
4782.6078776283720799
 20
274.5236061885507866
 30
0.0
 11
4782.5750209749267015
 21
276.4059907189629257
 31
0.0
  0
LINE
  5
CCBE
  8
0
 10
4782.5191778252274162
 20
273.5381730166740226
 30
0.0
 11
4782.5191777004256437
 21
274.1163496375630189
 31
0.0
  0
LINE
  5
CCBF
  8
0
 10
4782.9719337351261856
 20
274.8640864194629785
 30
0.0
 11
4782.9719337298711253
 21
274.2538685702418206
 31
0.0
  0
LINE
  5
CCC0
  8
0
 10
4782.9876817104268412
 20
273.4703605456630271
 30
0.0
 11
4782.9876816665264414
 21
274.2524908051628927
 31
0.0
  0
LINE
  5
CCC1
  8
0
 10
4782.5089221049256594
 20
274.3315704662629742
 30
0.0
 11
4782.4838935108919031
 21
274.374484313029086
 31
0.0
  0
LINE
  5
CCC2
  8
0
 10
4782.5191778045691535
 20
273.6338739272250109
 30
0.0
 11
4782.5462241017739871
 21
273.6338739330628869
 31
0.0
  0
LINE
  5
CCC3
  8
0
 10
4782.519177723725079
 20
274.0084111346928921
 30
0.0
 11
4782.5460550345260344
 21
274.0084111344629036
 31
0.0
  0
LINE
  5
CCC4
  8
0
 10
4782.9876816665264414
 20
274.2524908051628927
 30
0.0
 11
4782.9556578897263535
 21
274.2552925208630086
 31
0.0
  0
LINE
  5
CCC5
  8
0
 10
4782.8790972352262543
 20
274.5541976338628842
 30
0.0
 11
4782.5877004353260418
 21
274.521330359362878
 31
0.0
  0
LINE
  5
CCC6
  8
0
 10
4782.9719337305532463
 20
274.3329535577959746
 30
0.0
 11
4782.95260909811077
 21
274.3329535579625258
 31
0.0
  0
LINE
  5
CCC7
  8
0
 10
4782.4911529464197883
 20
274.116394145919628
 30
0.0
 11
4782.5191777004256437
 21
274.1163496375630189
 31
0.0
  0
ARC
  5
CCC8
  8
0
 10
4800.334138455226821
 20
261.7232140719630138
 30
0.0
 40
20.3463477851000007
 50
180.0
 51
183.9949122491991034
  0
ARC
  5
CCC9
  8
0
 10
4784.3910680220260474
 20
260.7141028758779839
 30
0.0
 40
4.4014658705637109
 50
215.9077798090912097
 51
258.6178544877377021
  0
ARC
  5
CCCA
  8
0
 10
4784.231626698026048
 20
260.5986536144628758
 30
0.0
 40
4.2046155016000002
 50
183.994912253101802
 51
215.907779873890604
  0
ARC
  5
CCCB
  8
0
 10
4783.6270656268652601
 20
274.8682886865433943
 30
0.0
 40
1.24105983562335
 50
157.8571338220017992
 51
196.2501936386676107
  0
ARC
  5
CCCC
  8
0
 10
4782.4410959343367722
 20
274.4820181125235763
 30
0.0
 40
0.0393692659349588
 50
2.1089726030411851
 51
98.0430708567388365
  0
ARC
  5
CCCD
  8
0
 10
4787.4601227259263396
 20
275.9594343703628851
 30
0.0
 40
19.9526468273999988
 50
258.6178538104820746
 51
269.9997248892642006
  0
LINE
  5
CCCE
  8
0
 10
4782.5367429820726102
 20
274.0084111345425981
 30
0.0
 11
4782.5350920183273047
 21
274.460856072509614
 31
0.0
  0
ARC
  5
CCCF
  8
0
 10
4782.6636228912147999
 20
277.1314792719970228
 30
0.0
 40
0.2184556799966678
 50
95.5037504282803269
 51
175.4914792099365002
  0
ARC
  5
CCD0
  8
0
 10
329978.6828983161249198
 20
5962.576929796477998
 30
0.0
 40
325245.9326256400090642
 50
181.0016040304369938
 51
181.002039572983108
  0
ARC
  5
CCD1
  8
0
 10
4781.8958710160350165
 20
274.6660163965368042
 30
0.0
 40
0.5932950332455242
 50
344.7928259005507812
 51
1.0243768443796959
  0
ARC
  5
CCD2
  8
0
 10
4785.3808885387443297
 20
253.6873895884048977
 30
0.0
 40
21.0407729335389284
 50
98.0467264956524645
 51
99.698406681212802
  0
ARC
  5
CCD3
  8
0
 10
4781.7215494835636491
 20
275.0292072269818959
 30
0.0
 40
0.6126030035326226
 50
259.7724933045176954
 51
280.7979694383309948
  0
ARC
  5
CCD4
  8
0
 10
4781.6418335666412531
 20
274.6067302813885931
 30
0.0
 40
0.1827171772623356
 50
236.7450613479450965
 51
260.8498292202145876
  0
ARC
  5
CCD5
  8
0
 10
4781.473614306069976
 20
274.3855373124932839
 30
0.0
 40
0.096464759419677
 50
45.1571857816151478
 51
79.4826691133499992
  0
ARC
  5
CCD6
  8
0
 10
4781.445375058807258
 20
274.1865245444402035
 30
0.0
 40
0.2974119097505729
 50
81.1322642607617865
 51
108.3977025547170996
  0
ARC
  5
CCD7
  8
0
 10
4782.1474808344619305
 20
272.7695619916560759
 30
0.0
 40
1.8763693299856099
 50
115.1005886079102964
 51
164.705012433897906
  0
ARC
  5
CCD8
  8
0
 10
4731.0952413862542016
 20
272.7999019554939082
 30
0.0
 40
51.4127695887685405
 50
0.8856952503772181
 51
1.8765457448691449
  0
ARC
  5
CCD9
  8
0
 10
4782.6364045764958064
 20
273.6049973643740145
 30
0.0
 40
0.1349355574298189
 50
184.4089466701684898
 51
266.1867055520316967
  0
LINE
  5
CCDA
  8
0
 10
4782.6274306305258506
 20
273.4703605456630271
 30
0.0
 11
4792.2926232125264505
 21
273.4703605456630271
 31
0.0
  0
ARC
  5
CCDB
  8
0
 10
4782.880534456928217
 20
274.4893996770549052
 30
0.0
 40
0.0648138936703681
 50
5.7687304580903822
 51
91.2706147260572891
  0
ARC
  5
CCDC
  8
0
 10
4766.4657154440874365
 20
273.6468261118267833
 30
0.0
 40
16.5011646022769192
 50
2.1132122092591041
 51
2.9495291367539029
  0
ARC
  5
CCDD
  8
0
 10
4769.8795300422807486
 20
273.6927549743334112
 30
0.0
 40
13.0882224910021492
 50
359.0263860956151234
 51
2.463356579385505
  0
ARC
  5
CCDE
  8
0
 10
4783.0501093839448004
 20
274.864165508104918
 30
0.0
 40
0.0781756888242176
 50
97.873456914248905
 51
180.0579649023019897
  0
ARC
  5
CCDF
  8
0
 10
4788.9236797957419185
 20
217.5702532885410108
 30
0.0
 40
57.6723213790626232
 50
91.4542528411346183
 51
95.8560513750212806
  0
ARC
  5
CCE0
  8
0
 10
4782.5152087286987808
 20
274.335407198489122
 30
0.0
 40
0.0073649271987676
 50
211.3957548025344977
 51
327.623462979255919
  0
ARC
  5
CCE1
  8
0
 10
4782.5991014173196163
 20
274.4582923267028036
 30
0.0
 40
0.0640607208207782
 50
100.2516271277354036
 51
177.706378381214904
  0
ARC
  5
CCE2
  8
0
 10
4822.8528911804851305
 20
275.9691746472771001
 30
0.0
 40
40.3711162288407408
 50
182.3297810175099016
 51
182.7838637898200034
  0
ARC
  5
CCE3
  8
0
 10
4778.3642229549222975
 20
273.8192548037056895
 30
0.0
 40
4.1861079369117258
 50
357.4618389103592904
 51
2.5898880692998012
  0
ARC
  5
CCE4
  8
0
 10
4783.0725965805986561
 20
273.8895847852699035
 30
0.0
 40
0.095364624087618
 50
87.2084791383176423
 51
152.9265038172646882
  0
ARC
  5
CCE5
  8
0
 10
4791.3910591285812188
 20
899.2836449148927613
 30
0.0
 40
625.3540754603565119
 50
269.2382543892103968
 51
269.6398311823709832
  0
ARC
  5
CCE6
  8
0
 10
4782.9001342432184174
 20
273.9315213517947996
 30
0.0
 40
0.0808236840853728
 50
37.1046676683645771
 51
90.6393416398905742
  0
ARC
  5
CCE7
  8
0
 10
4783.5721296774900111
 20
261.0225781941261971
 30
0.0
 40
13.0071788889805298
 50
92.9653926601670406
 51
94.2615244823733036
  0
ARC
  5
CCE8
  8
0
 10
4782.6088066479860572
 20
273.9279826372396087
 30
0.0
 40
0.0658920978678234
 50
92.8083559735825929
 51
156.9632601907046023
  0
ARC
  5
CCE9
  8
0
 10
4783.1437506327856681
 20
276.3869565547577167
 30
0.0
 40
0.5690480850819445
 50
93.0510672146555464
 51
178.0831483824416068
  0
ARC
  5
CCEA
  8
0
 10
4803.6170514985597038
 20
268.4134661853707939
 30
0.0
 40
23.7795495407786603
 50
168.2289533426296089
 51
172.680632833210808
  0
ARC
  5
CCEB
  8
0
 10
5207.3612790018378291
 20
264.671376753768925
 30
0.0
 40
427.3836569079521723
 50
179.0921496392471113
 51
180.3952388350118099
  0
LINE
  5
CCEC
  8
0
 10
4792.3845782045673332
 20
274.3557253574155084
 30
0.0
 11
4792.3986250851266959
 21
274.3314634199629154
 31
0.0
  0
LINE
  5
CCED
  8
0
 10
4792.3121762146802212
 20
274.5236061885507866
 30
0.0
 11
4792.3450328681255996
 21
276.4059907189629257
 31
0.0
  0
LINE
  5
CCEE
  8
0
 10
4792.4008760178257944
 20
273.5381730166740226
 30
0.0
 11
4792.4008761426257479
 21
274.1163496375630189
 31
0.0
  0
LINE
  5
CCEF
  8
0
 10
4791.9481201079261155
 20
274.8640864194629785
 30
0.0
 11
4791.9481201131820853
 21
274.2538685702418206
 31
0.0
  0
LINE
  5
CCF0
  8
0
 10
4791.9323721326272789
 20
273.4703605456630271
 30
0.0
 11
4791.9323721765267692
 21
274.2524908051628927
 31
0.0
  0
LINE
  5
CCF1
  8
0
 10
4792.4111317381257322
 20
274.3315704662629742
 30
0.0
 11
4792.4361603321613075
 21
274.374484313029086
 31
0.0
  0
LINE
  5
CCF2
  8
0
 10
4792.4008760384831476
 20
273.6338739272250109
 30
0.0
 11
4792.373829741278314
 21
273.6338739330628869
 31
0.0
  0
LINE
  5
CCF3
  8
0
 10
4792.4008761193281316
 20
274.0084111346928921
 30
0.0
 11
4792.3739988085262667
 21
274.0084111344629036
 31
0.0
  0
LINE
  5
CCF4
  8
0
 10
4791.9323721765267692
 20
274.2524908051628927
 30
0.0
 11
4791.9643959533268571
 21
274.2552925208630086
 31
0.0
  0
LINE
  5
CCF5
  8
0
 10
4792.0409566078260468
 20
274.5541976338628842
 30
0.0
 11
4792.3323534077262593
 21
274.521330359362878
 31
0.0
  0
LINE
  5
CCF6
  8
0
 10
4791.9481201124999643
 20
274.3329535577959746
 30
0.0
 11
4791.9674447449424406
 21
274.3329535579625258
 31
0.0
  0
LINE
  5
CCF7
  8
0
 10
4792.4289008966334222
 20
274.116394145919628
 30
0.0
 11
4792.4008761426257479
 21
274.1163496375630189
 31
0.0
  0
ARC
  5
CCF8
  8
0
 10
4774.5859153878263896
 20
261.7232140719630138
 30
0.0
 40
20.3463477851000007
 50
356.0050877508007829
 51
0.0
  0
ARC
  5
CCF9
  8
0
 10
4790.5289858210262537
 20
260.7141028758779839
 30
0.0
 40
4.4014658705637109
 50
281.3821455122622979
 51
324.0922201909087903
  0
ARC
  5
CCFA
  8
0
 10
4790.6884271450271626
 20
260.5986536144628758
 30
0.0
 40
4.2046155016000002
 50
324.092220126109396
 51
356.005087746898198
  0
ARC
  5
CCFB
  8
0
 10
4791.2929882161879505
 20
274.8682886865433943
 30
0.0
 40
1.24105983562335
 50
343.7498063613323893
 51
22.1428661779981901
  0
ARC
  5
CCFC
  8
0
 10
4792.4789579087164384
 20
274.4820181125235763
 30
0.0
 40
0.0393692659349588
 50
81.9569291432611635
 51
177.8910273969588047
  0
ARC
  5
CCFD
  8
0
 10
4787.4599311171259615
 20
275.9594343703628851
 30
0.0
 40
19.9526468273999988
 50
270.0002751107357994
 51
281.3821461895179254
  0
LINE
  5
CCFE
  8
0
 10
4792.3833108609787814
 20
274.0084111345425981
 30
0.0
 11
4792.3849618247259059
 21
274.460856072509614
 31
0.0
  0
ARC
  5
CCFF
  8
0
 10
4792.2564309518384107
 20
277.1314792719970228
 30
0.0
 40
0.2184556799966678
 50
4.5085207900634687
 51
84.4962495717196731
  0
ARC
  5
CD00
  8
0
 10
-320403.7628444728907198
 20
5962.576929796477998
 30
0.0
 40
325245.9326256400090642
 50
358.997960427016892
 51
358.998395969562921
  0
ARC
  5
CD01
  8
0
 10
4793.0241828270172846
 20
274.6660163965368042
 30
0.0
 40
0.5932950332455242
 50
178.9756231556202977
 51
195.2071740994491904
  0
ARC
  5
CD02
  8
0
 10
4789.5391653043070619
 20
253.6873895884048977
 30
0.0
 40
21.0407729335389284
 50
80.3015933187871838
 51
81.9532735043475355
  0
ARC
  5
CD03
  8
0
 10
4793.1985043594877425
 20
275.0292072269818959
 30
0.0
 40
0.6126030035326226
 50
259.2020305616690052
 51
280.2275066954824183
  0
ARC
  5
CD04
  8
0
 10
4793.2782202764119575
 20
274.6067302813885931
 30
0.0
 40
0.1827171772623356
 50
279.1501707797854124
 51
303.2549386520548751
  0
ARC
  5
CD05
  8
0
 10
4793.4464395369823251
 20
274.3855373124932839
 30
0.0
 40
0.096464759419677
 50
100.5173308866500008
 51
134.8428142183848024
  0
ARC
  5
CD06
  8
0
 10
4793.4746787842459526
 20
274.1865245444402035
 30
0.0
 40
0.2974119097505729
 50
71.6022974452828578
 51
98.8677357392382277
  0
ARC
  5
CD07
  8
0
 10
4792.7725730085912801
 20
272.7695619916560759
 30
0.0
 40
1.8763693299856099
 50
15.29498756610203
 51
64.899411392089732
  0
ARC
  5
CD08
  8
0
 10
4843.8248124567990089
 20
272.7999019554939082
 30
0.0
 40
51.4127695887685405
 50
178.1234542551308095
 51
179.1143047496227894
  0
ARC
  5
CD09
  8
0
 10
4792.2836492665574042
 20
273.6049973643740145
 30
0.0
 40
0.1349355574298189
 50
273.8132944479683033
 51
355.5910533298314817
  0
ARC
  5
CD0A
  8
0
 10
4792.0395193861240841
 20
274.4893996770549052
 30
0.0
 40
0.0648138936703681
 50
88.7293852739426967
 51
174.2312695419080057
  0
ARC
  5
CD0B
  8
0
 10
4808.4543383989657741
 20
273.6468261118267833
 30
0.0
 40
16.5011646022769192
 50
177.0504708632460904
 51
177.8867877907408968
  0
ARC
  5
CD0C
  8
0
 10
4805.0405238007715525
 20
273.6927549743334112
 30
0.0
 40
13.0882224910021492
 50
177.5366434206144959
 51
180.973613904384905
  0
ARC
  5
CD0D
  8
0
 10
4791.8699444591084102
 20
274.864165508104918
 30
0.0
 40
0.0781756888242176
 50
359.9420350976980103
 51
82.126543085751095
  0
ARC
  5
CD0E
  8
0
 10
4785.9963740473112921
 20
217.5702532885455867
 30
0.0
 40
57.6723213790581113
 50
84.1439486249787336
 51
88.5457471588653533
  0
ARC
  5
CD0F
  8
0
 10
4792.4048451143526108
 20
274.335407198489122
 30
0.0
 40
0.0073649271987676
 50
212.3765370207441094
 51
328.6042451974655023
  0
ARC
  5
CD10
  8
0
 10
4792.3209524257326848
 20
274.4582923267028036
 30
0.0
 40
0.0640607208207782
 50
2.2936216187834479
 51
79.7483728722646248
  0
ARC
  5
CD11
  8
0
 10
4752.0671626625689896
 20
275.9691746472771001
 30
0.0
 40
40.3711162288407408
 50
357.216136210180025
 51
357.6702189824899847
  0
ARC
  5
CD12
  8
0
 10
4796.5558308881309131
 20
273.8192548037056895
 30
0.0
 40
4.1861079369117258
 50
177.4101119307017882
 51
182.5381610896405959
  0
ARC
  5
CD13
  8
0
 10
4791.8474572624536449
 20
273.8895847852699035
 30
0.0
 40
0.095364624087618
 50
27.0734961827352514
 51
92.7915208616823577
  0
ARC
  5
CD14
  8
0
 10
4783.5289947144701728
 20
899.2836449149442615
 30
0.0
 40
625.3540754604077847
 50
270.3601688176290168
 51
270.7617456107897169
  0
ARC
  5
CD15
  8
0
 10
4792.0199195998347932
 20
273.9315213517947996
 30
0.0
 40
0.0808236840853728
 50
89.3606583601094258
 51
142.8953323316353874
  0
ARC
  5
CD16
  8
0
 10
4791.3479241655631995
 20
261.0225781941261971
 30
0.0
 40
13.0071788889805298
 50
85.7384755176267248
 51
87.0346073398329736
  0
ARC
  5
CD17
  8
0
 10
4792.3112471950671534
 20
273.9279826372396087
 30
0.0
 40
0.0658920978678234
 50
23.0367398092953799
 51
87.1916440264174071
  0
ARC
  5
CD18
  8
0
 10
4791.7763032102684519
 20
276.3869565547577167
 30
0.0
 40
0.5690480850819445
 50
1.916851617558349
 51
86.9489327853444678
  0
ARC
  5
CD19
  8
0
 10
4771.3030023444944163
 20
268.4134661853707939
 30
0.0
 40
23.7795495407786603
 50
7.3193671667892364
 51
11.7710466573704107
  0
ARC
  5
CD1A
  8
0
 10
4367.5587748412153815
 20
264.671376753768925
 30
0.0
 40
427.3836569079521723
 50
359.6047611649864848
 51
0.9078503607528936
  0
LINE
  5
CD1B
  8
0
 10
4782.6426706085258047
 20
277.3489278543630121
 30
0.0
 11
4792.2773832345255869
 21
277.3489278543630121
 31
0.0
  0
LINE
  5
CD1C
  8
0
 10
4783.1134624766264096
 20
276.9551980093630164
 30
0.0
 11
4791.806591366426801
 21
276.9551980093630164
 31
0.0
  0
LINE
  5
CD1D
  8
0
 10
4779.2821116359391453
 20
269.8092870063605915
 30
0.0
 11
4777.9429488676987603
 21
269.8092870063605915
 31
0.0
  0
ARC
  5
CD1E
  8
0
 10
4778.5877354354843192
 20
265.7933837995474278
 30
0.0
 40
1.0599343610072109
 50
261.8749131269876784
 51
276.9069914343339178
  0
ARC
  5
CD1F
  8
0
 10
4778.5178457709571376
 20
265.1930574560772129
 30
0.0
 40
0.4560252603254244
 50
194.3510229906981976
 51
259.9071233486877759
  0
ARC
  5
CD20
  8
0
 10
4779.6699859189138806
 20
265.5480202818142175
 30
0.0
 40
1.661218908670903
 50
181.6140139926723123
 51
196.3627246257426862
  0
ARC
  5
CD21
  8
0
 10
4462.8331752563726695
 20
261.3136941576917138
 30
0.0
 40
315.2040681002011979
 50
0.7612059061863024
 51
1.540790142877722
  0
ARC
  5
CD22
  8
0
 10
4778.6642371688622006
 20
265.1712200821866077
 30
0.0
 40
0.4330874089576372
 50
276.7579749150095267
 51
330.2908233050533227
  0
ARC
  5
CD23
  8
0
 10
4777.4378348900609126
 20
265.612034111935202
 30
0.0
 40
1.731421067903772
 50
337.7553273503795026
 51
1.452647470832624
  0
ARC
  5
CD24
  8
0
 10
4939.5994583390729531
 20
262.7286985685881859
 30
0.0
 40
160.4574617914817054
 50
177.4780214033249024
 51
178.9546940664035901
  0
ARC
  5
CD25
  8
0
 10
4777.9429961954419923
 20
269.7895621874180279
 30
0.0
 40
0.0197248757216358
 50
90.1374752693771768
 51
181.3526787012899888
  0
ARC
  5
CD26
  8
0
 10
4777.945386776511441
 20
269.8297279318044275
 30
0.0
 40
0.0204546541157457
 50
183.9049246818184997
 51
267.900672868524623
  0
ARC
  5
CD27
  8
0
 10
4779.2769351721053681
 20
269.7888202794650283
 30
0.0
 40
0.0204823934852828
 50
1.193627048282323
 51
87.7588950350438921
  0
ARC
  5
CD28
  8
0
 10
4779.2807368352614503
 20
269.8304707840969741
 30
0.0
 40
0.0212283422831125
 50
273.7132170989996212
 51
354.2256706891232056
  0
ARC
  5
CD29
  8
0
 10
5670.9558567025042066
 20
298.0863484296432944
 30
0.0
 40
893.4778468253781512
 50
181.7630992114530102
 51
181.8123951850054993
  0
ARC
  5
CD2A
  8
0
 10
4780.4813839777698377
 20
270.6622713258383897
 30
0.0
 40
2.5812196656436508
 50
130.3377441582969141
 51
181.4559082029456931
  0
ARC
  5
CD2B
  8
0
 10
4780.5517564862211657
 20
270.5984377879360068
 30
0.0
 40
2.6754562150573271
 50
94.5870650195211056
 51
130.6016236324497868
  0
ARC
  5
CD2C
  8
0
 10
2873.9385279877469657
 20
329.4656225641916762
 30
0.0
 40
1906.2964154025200969
 50
358.2072449654663728
 51
358.2303498193513178
  0
ARC
  5
CD2D
  8
0
 10
4780.4616999867193954
 20
270.558717898996008
 30
0.0
 40
1.136582799568167
 50
110.9843979798041005
 51
178.0855203209814874
  0
ENDSEC
  0
EOF
