  0
SECTION
  2
HEADER
  9
$ACADVER
  1
AC1009
  9
$INSBASE
 10
549.7689307509631362
 20
68.3383162000305902
 30
0.0
  9
$EXTMIN
 10
546.9773323531370579
 20
64.0689281753725339
 30
-0.0015258207003583
  9
$EXTMAX
 10
552.5416992690866209
 20
71.8838171071000716
 30
0.0000000349246037
  9
$LIMMIN
 10
0.0
 20
0.0
  9
$LIMMAX
 10
11.6929133858000007
 20
8.2677165353999982
  9
$ORTHOMODE
 70
     0
  9
$REGENMODE
 70
     1
  9
$FILLMODE
 70
     1
  9
$QTEXTMODE
 70
     0
  9
$MIRRTEXT
 70
     0
  9
$DRAGMODE
 70
     2
  9
$LTSCALE
 40
0.6431102362
  9
$OSMODE
 70
  4095
  9
$ATTMODE
 70
     1
  9
$TEXTSIZE
 40
0.2
  9
$TRACEWID
 40
0.05
  9
$TEXTSTYLE
  7
STANDARD
  9
$CLAYER
  8
0
  9
$CELTYPE
  6
BYLAYER
  9
$CECOLOR
 62
   256
  9
$DIMSCALE
 40
1.0
  9
$DIMASZ
 40
0.1875
  9
$DIMEXO
 40
0.0625
  9
$DIMDLI
 40
0.4443307087
  9
$DIMRND
 40
0.0
  9
$DIMDLE
 40
0.0
  9
$DIMEXE
 40
0.125
  9
$DIMTP
 40
0.01
  9
$DIMTM
 40
0.01
  9
$DIMTXT
 40
1.0
  9
$DIMCEN
 40
0.1052362205
  9
$DIMTSZ
 40
0.0
  9
$DIMTOL
 70
     1
  9
$DIMLIM
 70
     0
  9
$DIMTIH
 70
     0
  9
$DIMTOH
 70
     1
  9
$DIMSE1
 70
     0
  9
$DIMSE2
 70
     0
  9
$DIMTAD
 70
     0
  9
$DIMZIN
 70
     0
  9
$DIMBLK
  1

  9
$DIMASO
 70
     1
  9
$DIMSHO
 70
     1
  9
$DIMPOST
  1
\X
  9
$DIMAPOST
  1

  9
$DIMALT
 70
     1
  9
$DIMALTD
 70
     2
  9
$DIMALTF
 40
25.3999999999999986
  9
$DIMLFAC
 40
1.0
  9
$DIMTOFL
 70
     0
  9
$DIMTVP
 40
0.0
  9
$DIMTIX
 70
     0
  9
$DIMSOXD
 70
     0
  9
$DIMSAH
 70
     0
  9
$DIMBLK1
  1

  9
$DIMBLK2
  1

  9
$DIMSTYLE
  2
STANDARD
  9
$DIMCLRD
 70
     0
  9
$DIMCLRE
 70
     0
  9
$DIMCLRT
 70
     0
  9
$DIMTFAC
 40
1.0
  9
$DIMGAP
 40
0.09
  9
$LUNITS
 70
     2
  9
$LUPREC
 70
     4
  9
$SKETCHINC
 40
0.1
  9
$FILLETRAD
 40
0.0
  9
$AUNITS
 70
     0
  9
$AUPREC
 70
     0
  9
$MENU
  1
.
  9
$ELEVATION
 40
0.0
  9
$PELEVATION
 40
0.0
  9
$THICKNESS
 40
0.0
  9
$LIMCHECK
 70
     0
  9
$BLIPMODE
 70
     0
  9
$CHAMFERA
 40
0.0
  9
$CHAMFERB
 40
0.0
  9
$SKPOLY
 70
     0
  9
$TDCREATE
 40
2458171.8957638889551163
  9
$TDUPDATE
 40
2459057.083032407797873
  9
$TDINDWG
 40
0.3236234028
  9
$TDUSRTIMER
 40
0.3236234028
  9
$USRTIMER
 70
     1
  9
$ANGBASE
 50
0.0
  9
$ANGDIR
 70
     0
  9
$PDMODE
 70
     0
  9
$PDSIZE
 40
0.3125
  9
$PLINEWID
 40
0.0
  9
$COORDS
 70
     1
  9
$SPLFRAME
 70
     0
  9
$SPLINETYPE
 70
     6
  9
$SPLINESEGS
 70
     8
  9
$ATTDIA
 70
     1
  9
$ATTREQ
 70
     1
  9
$HANDLING
 70
     1
  9
$HANDSEED
  5
8E90
  9
$SURFTAB1
 70
     6
  9
$SURFTAB2
 70
     6
  9
$SURFTYPE
 70
     6
  9
$SURFU
 70
     6
  9
$SURFV
 70
     6
  9
$UCSNAME
  2

  9
$UCSORG
 10
0.0
 20
0.0
 30
0.0
  9
$UCSXDIR
 10
1.0
 20
0.0
 30
0.0
  9
$UCSYDIR
 10
0.0
 20
1.0
 30
0.0
  9
$PUCSNAME
  2

  9
$PUCSORG
 10
0.0
 20
0.0
 30
0.0
  9
$PUCSXDIR
 10
1.0
 20
0.0
 30
0.0
  9
$PUCSYDIR
 10
0.0
 20
1.0
 30
0.0
  9
$USERI1
 70
     0
  9
$USERI2
 70
     0
  9
$USERI3
 70
     0
  9
$USERI4
 70
     0
  9
$USERI5
 70
     0
  9
$USERR1
 40
0.0
  9
$USERR2
 40
0.0
  9
$USERR3
 40
0.0
  9
$USERR4
 40
0.0
  9
$USERR5
 40
0.0
  9
$WORLDVIEW
 70
     1
  9
$SHADEDGE
 70
     3
  9
$SHADEDIF
 70
    70
  9
$TILEMODE
 70
     1
  9
$MAXACTVP
 70
    64
  9
$PLIMCHECK
 70
     0
  9
$PEXTMIN
 10
1.0000000000000000E+20
 20
1.0000000000000000E+20
 30
1.0000000000000000E+20
  9
$PEXTMAX
 10
-1.0000000000000000E+20
 20
-1.0000000000000000E+20
 30
-1.0000000000000000E+20
  9
$PLIMMIN
 10
0.0
 20
0.0
  9
$PLIMMAX
 10
12.0
 20
9.0
  9
$UNITMODE
 70
     0
  9
$VISRETAIN
 70
     1
  9
$PLINEGEN
 70
     0
  9
$PSLTSCALE
 70
     1
  0
ENDSEC
  0
SECTION
  2
TABLES
  0
TABLE
  2
VPORT
 70
     1
  0
VPORT
  2
*ACTIVE
 70
     0
 10
0.0
 20
0.0
 11
1.0
 21
1.0
 12
83.0173141032818194
 22
-21.1567744786934817
 13
0.0
 23
0.0
 14
1.0
 24
1.0
 15
0.0
 25
0.0
 16
0.0
 26
0.0
 36
24.1179433675886514
 17
466.74220170783002
 27
89.133147119929788
 37
0.0
 40
7.9075433079865736
 41
2.6410256410256401
 42
50.0
 43
0.0
 44
0.0
 50
0.0
 51
0.0
 71
     0
 72
   100
 73
     1
 74
     1
 75
     0
 76
     0
 77
     0
 78
     0
  0
ENDTAB
  0
TABLE
  2
LTYPE
 70
     2
  0
LTYPE
  2
CONTINUOUS
 70
     0
  3
Solid line
 72
    65
 73
     0
 40
0.0
  0
LTYPE
  2
PHANTOM2
 70
     0
  3
___ _ _ ___ _ _ ___ _ _ ___ _ _
 72
    65
 73
     6
 40
1.25
 49
0.625
 49
-0.125
 49
0.125
 49
-0.125
 49
0.125
 49
-0.125
  0
ENDTAB
  0
TABLE
  2
LAYER
 70
     2
  0
LAYER
  2
0
 70
     0
 62
   255
  6
CONTINUOUS
  0
LAYER
  2
DEFPOINTS
 70
     0
 62
     7
  6
CONTINUOUS
  0
ENDTAB
  0
TABLE
  2
STYLE
 70
     1
  0
STYLE
  2
STANDARD
 70
     0
 40
0.0
 41
0.8
 50
0.0
 71
     0
 42
0.2
  3
txt
  4

  0
ENDTAB
  0
TABLE
  2
VIEW
 70
     0
  0
ENDTAB
  0
TABLE
  2
UCS
 70
     0
  0
ENDTAB
  0
TABLE
  2
APPID
 70
    10
  0
APPID
  2
ACAD
 70
     0
  0
APPID
  2
ACAD_MLEADERVER
 70
     0
  0
APPID
  2
ACAD_EXEMPT_FROM_CAD_STANDARDS
 70
     0
  0
APPID
  2
ACAD_DSTYLE_DIMJAG
 70
     0
  0
APPID
  2
ACAD_DSTYLE_DIMTALN
 70
     0
  0
APPID
  2
ACAD_NAV_VCDISPLAY
 70
     0
  0
APPID
  2
ACAECLAYERSTANDARD
 70
     0
  0
APPID
  2
ACCMTRANSPARENCY
 70
     0
  0
APPID
  2
DCO15
 70
     0
  0
APPID
  2
ACDBATTR
 70
     0
  0
ENDTAB
  0
TABLE
  2
DIMSTYLE
 70
     1
  0
DIMSTYLE
  2
STANDARD
 70
     0
  3

  4

  5

  6

  7

 40
1.0
 41
0.1875
 42
0.0625
 43
0.38
 44
0.125
 45
0.0
 46
0.0
 47
0.01
 48
0.01
140
0.15625
141
0.09
142
0.0
143
25.3999999999999986
144
1.0
145
0.0
146
1.0
147
0.09
 71
     1
 72
     0
 73
     1
 74
     1
 75
     0
 76
     0
 77
     0
 78
     4
170
     0
171
     2
172
     0
173
     0
174
     0
175
     0
176
     0
177
     0
178
     0
  0
ENDTAB
  0
ENDSEC
  0
SECTION
  2
BLOCKS
  0
BLOCK
  8
0
  2
$MODEL_SPACE
 70
     0
 10
0.0
 20
0.0
 30
0.0
  3
$MODEL_SPACE
  1

  0
ENDBLK
  5
21
  8
0
  0
BLOCK
 67
     1
  8
0
  2
$PAPER_SPACE
 70
     0
 10
0.0
 20
0.0
 30
0.0
  3
$PAPER_SPACE
  1

  0
ENDBLK
  5
1D
 67
     1
  8
0
  0
ENDSEC
  0
SECTION
  2
ENTITIES
  0
ATTDEF
  5
829
  8
DEFPOINTS
 10
549.7662218523934143
 20
68.3448291102000667
 30
0.0
 40
0.001
  1
K-99975T-4A
  3

  2
MODELNUMBER
 70
     0
1001
ACDBATTR
1070
     0
1070
     1
  0
ATTDEF
  5
82A
  8
DEFPOINTS
 10
549.7662218523934143
 20
68.3431624435334015
 30
0.0
 40
0.001
  1
MODULO
  3

  2
TRADENAME
 70
     0
1001
ACDBATTR
1070
     0
1070
     1
  0
ATTDEF
  5
82B
  8
DEFPOINTS
 10
549.7662218523934143
 20
68.3414957768667364
 30
0.0
 40
0.001
  1
VALVE TRIM 
  3

  2
PRODUCT
 70
     0
1001
ACDBATTR
1070
     0
1070
     1
  0
LINE
  5
8CE8
  8
0
 10
552.4660058672631067
 20
64.795009113380587
 30
0.0
 11
550.33044516006305
 21
64.795009113380587
 31
0.0
  0
LINE
  5
8CE9
  8
0
 10
549.2074163418632224
 20
64.795009113380587
 30
0.0
 11
547.0785964926584484
 21
64.795009113380587
 31
0.0
  0
LINE
  5
8CEA
  8
0
 10
550.3201118533630734
 20
64.8053424201805939
 30
0.0
 11
550.0481502364165181
 21
64.8053424201805939
 31
0.0
  0
LINE
  5
8CEB
  8
0
 10
549.4896600132346975
 20
64.8053424201805939
 30
0.0
 11
549.2177496486631298
 21
64.8053424201805939
 31
0.0
  0
LINE
  5
8CEC
  8
0
 10
552.4486464032237336
 20
64.8111982778805924
 30
0.0
 11
550.047985253765205
 21
64.8111982778805924
 31
0.0
  0
LINE
  5
8CED
  8
0
 10
549.4898249958861243
 20
64.8111982778805924
 30
0.0
 11
547.0892151079874566
 21
64.8111982778805924
 31
0.0
  0
LINE
  5
8CEE
  8
0
 10
547.0130252391631984
 20
64.860675883016043
 30
0.0
 11
547.0130252391631984
 21
71.8227652774234571
 31
0.0
  0
LINE
  5
8CEF
  8
0
 10
547.029214403663218
 20
64.8711990441990451
 30
0.0
 11
547.029214403663218
 21
71.805433365218164
 31
0.0
  0
LINE
  5
8CF0
  8
0
 10
547.6672834388631372
 20
65.3943657906805953
 30
0.0
 11
549.4732767198630654
 21
65.3943657906805953
 31
0.0
  0
LINE
  5
8CF1
  8
0
 10
550.0645847820630934
 20
65.3943657906805953
 30
0.0
 11
551.870578063163066
 21
65.3943657906805953
 31
0.0
  0
LINE
  5
8CF2
  8
0
 10
547.6123819163631197
 20
71.2273646082717562
 30
0.0
 11
547.6123819163631197
 21
65.4492672958795936
 31
0.0
  0
LINE
  5
8CF3
  8
0
 10
550.3201118533630734
 20
64.8053424201805939
 30
0.0
 11
550.33044516006305
 21
64.795009113380587
 31
0.0
  0
LINE
  5
8CF4
  8
0
 10
549.922194815663147
 20
66.4325681685805876
 30
0.0
 11
549.6156666863630562
 21
66.4325681685805876
 31
0.0
  0
LINE
  5
8CF5
  8
0
 10
549.3847850468631577
 20
66.6551705832805936
 30
0.0
 11
549.6015331657630441
 21
66.4384224644805954
 31
0.0
  0
LINE
  5
8CF6
  8
0
 10
549.6156662710260434
 20
67.2125681685805745
 30
0.0
 11
549.922194815663147
 21
67.2125681685805745
 31
0.0
  0
LINE
  5
8CF7
  8
0
 10
550.1530764550632284
 20
66.989965753780595
 30
0.0
 11
549.9363283362630455
 21
67.2067138725805933
 31
0.0
  0
LINE
  5
8CF8
  8
0
 10
549.3789307509631499
 20
66.6693041038805916
 30
0.0
 11
549.3789307509631499
 21
66.9758322331805971
 31
0.0
  0
LINE
  5
8CF9
  8
0
 10
549.4933401997632245
 20
65.9750196695805897
 30
0.0
 11
549.4933401997632245
 21
66.0112847909805964
 31
0.0
  0
LINE
  5
8CFA
  8
0
 10
549.6708613444631055
 20
70.256719023480585
 30
0.0
 11
549.6418481093630817
 21
71.1113300504805892
 31
0.0
  0
LINE
  5
8CFB
  8
0
 10
549.8960133925630771
 20
71.1113300504805892
 30
0.0
 11
549.8670001575630977
 21
70.256719023480585
 31
0.0
  0
LINE
  5
8CFC
  8
0
 10
549.8670014981630629
 20
70.2567363960805835
 30
0.0
 11
549.8670001575630977
 21
70.2567190233805832
 31
0.0
  0
LINE
  5
8CFD
  8
0
 10
549.6708613444631055
 20
70.2567190233805832
 30
0.0
 11
549.6708600949631318
 21
70.2567337109805976
 31
0.0
  0
LINE
  5
8CFE
  8
0
 10
550.0445213021630479
 20
65.9750196695805897
 30
0.0
 11
550.0445213021630479
 21
66.011468619928408
 31
0.0
  0
LINE
  5
8CFF
  8
0
 10
550.1589307509631226
 20
66.9758322331805971
 30
0.0
 11
550.1589307509631226
 21
66.6693041038805916
 31
0.0
  0
LINE
  5
8D00
  8
0
 10
549.601533459495613
 20
67.206714166313148
 30
0.0
 11
549.3847847532126707
 21
66.9899654601302501
 31
0.0
  0
LINE
  5
8D01
  8
0
 10
549.9363283362630455
 20
66.4384224644805954
 30
0.0
 11
550.1530764550632284
 21
66.6551705832805936
 31
0.0
  0
LINE
  5
8D02
  8
0
 10
549.2177496486631298
 20
64.8053424201805939
 30
0.0
 11
549.2074163418632224
 21
64.795009113380587
 31
0.0
  0
LINE
  5
8D03
  8
0
 10
551.9254795880631264
 20
65.449267313380787
 30
0.0
 11
551.9254795880631264
 21
71.2273650901706645
 31
0.0
  0
LINE
  5
8D04
  8
0
 10
552.5086470982630544
 20
71.8054334274408603
 30
0.0
 11
552.5086470982630544
 21
64.8711989909328537
 31
0.0
  0
LINE
  5
8D05
  8
0
 10
552.5248362627631877
 20
71.8227928910805957
 30
0.0
 11
552.5248362627631877
 21
64.8538395089805846
 31
0.0
  0
LINE
  5
8D06
  8
0
 10
549.8763402339632194
 20
71.1316762265805949
 30
0.0
 11
549.6615212680632112
 21
71.1316762265805949
 31
0.0
  0
LINE
  5
8D07
  8
0
 10
551.8705780629522906
 20
71.282266611880587
 30
0.0
 11
547.6672834390740263
 21
71.282266611880587
 31
0.0
  0
LINE
  5
8D08
  8
0
 10
547.0892150455879346
 20
71.8654341221805879
 30
0.0
 11
552.4486464745818921
 21
71.8654341221805879
 31
0.0
  0
LINE
  5
8D09
  8
0
 10
547.0718354906796321
 20
71.8816232866805933
 30
0.0
 11
552.4660058672631067
 21
71.8816232866805933
 31
0.0
  0
ARC
  5
8D0A
  8
0
 10
547.0884968521630753
 20
64.870537099980595
 30
0.0
 40
0.059286144
 50
179.3602653928429902
 51
225.0385230590977983
  0
ARC
  5
8D0B
  8
0
 10
547.0885532264632047
 20
64.8704807270805901
 30
0.0
 40
0.059286144
 50
224.9614769128008049
 51
270.6396740140543216
  0
ARC
  5
8D0C
  8
0
 10
549.5130319821790863
 20
65.9750237261285974
 30
0.0
 40
0.0196918562364216
 50
180.0118029422237953
 51
252.9606892569221088
  0
ARC
  5
8D0D
  8
0
 10
549.7689301491631113
 20
69.9720903205805911
 30
0.0
 40
0.2758382004
 50
115.2232872043987015
 51
270.0001244086985253
  0
ARC
  5
8D0E
  8
0
 10
547.0885532267632243
 20
71.8061516722805919
 30
0.0
 40
0.059286144
 50
89.3603865843770677
 51
135.0385227990020098
  0
ARC
  5
8D0F
  8
0
 10
547.0884968522632334
 20
71.8060953004805924
 30
0.0
 40
0.059286144
 50
134.9614772996980037
 51
180.6397259512474989
  0
ARC
  5
8D10
  8
0
 10
549.6311102503632355
 20
70.2555580480805872
 30
0.0
 40
0.0398016722
 50
338.8338589852003793
 51
340.5341111917007879
  0
ARC
  5
8D11
  8
0
 10
549.631156796863138
 20
70.2555378559805916
 30
0.0
 40
0.039750975
 50
334.7276559913998994
 51
338.8367751027000736
  0
ARC
  5
8D12
  8
0
 10
549.6312953332632105
 20
70.2554153348805954
 30
0.0
 40
0.0395878825
 50
352.7803863903999968
 51
353.3368580118004161
  0
ARC
  5
8D13
  8
0
 10
549.6313140686630732
 20
70.2554867876805957
 30
0.0
 40
0.0395857569
 50
340.5330482264989769
 51
343.8090473775991995
  0
ARC
  5
8D14
  8
0
 10
549.6313571919630476
 20
70.2554100693805879
 30
0.0
 40
0.0395258307
 50
353.3340346602003024
 51
1.8976142107997731
  0
ARC
  5
8D15
  8
0
 10
549.6313772035631473
 20
70.2554346595805868
 30
0.0
 40
0.0395076071
 50
333.5520220811987997
 51
334.7265290762003929
  0
ARC
  5
8D16
  8
0
 10
549.6334865672290562
 20
70.2539101987381542
 30
0.0
 40
0.0369104021735454
 50
299.0025535487505977
 51
328.6181116487135796
  0
ARC
  5
8D17
  8
0
 10
549.6315302029630629
 20
70.2553819816805856
 30
0.0
 40
0.0393506834
 50
348.8040264199996727
 51
352.7855872637998118
  0
ARC
  5
8D18
  8
0
 10
549.6319243945630433
 20
70.2553075216805922
 30
0.0
 40
0.0389496516
 50
343.8119496104005748
 51
348.803682444399783
  0
ARC
  5
8D19
  8
0
 10
549.631961852263089
 20
70.2551324667805943
 30
0.0
 40
0.0388495574
 50
328.8610025957989933
 51
333.5670228563006958
  0
ARC
  5
8D1A
  8
0
 10
549.6320986770631407
 20
70.2550537009805964
 30
0.0
 40
0.038691716
 50
328.2427236662006749
 51
328.8560603113006096
  0
ARC
  5
8D1B
  8
0
 10
549.661526859163132
 20
71.111978399680595
 30
0.0
 40
0.0196971665
 50
90.0162632052973066
 51
181.9106758120996972
  0
ARC
  5
8D1C
  8
0
 10
550.0248314594631438
 20
65.9750230918805869
 30
0.0
 40
0.0196899164
 50
286.3219706197958772
 51
359.990041370799986
  0
ARC
  5
8D1D
  8
0
 10
549.7689307509631362
 20
66.7818661865805865
 30
0.0
 40
0.8661417323
 50
287.5842929593989084
 51
287.5973366081026938
  0
ARC
  5
8D1E
  8
0
 10
552.4493082759630624
 20
64.8704807271805919
 30
0.0
 40
0.059286144
 50
269.3603344765109
 51
315.0385227170002054
  0
ARC
  5
8D1F
  8
0
 10
552.4493646491630443
 20
64.8705371002805862
 30
0.0
 40
0.059286144
 50
314.9614772181989224
 51
0.6396828360330341
  0
ARC
  5
8D20
  8
0
 10
549.7689307509631362
 20
69.9721744677805901
 30
0.0
 40
0.6977910853
 50
99.2202701391967423
 51
80.7797298606977705
  0
ARC
  5
8D21
  8
0
 10
549.7689307509631362
 20
69.9721744677805901
 30
0.0
 40
0.6692913386
 50
99.5309647493030809
 51
80.4690967542986613
  0
ARC
  5
8D22
  8
0
 10
549.7689307509631362
 20
69.9721744677805901
 30
0.0
 40
0.3626435283
 50
106.0531432570977017
 51
73.9490441204986411
  0
ARC
  5
8D23
  8
0
 10
549.76893140516313
 20
69.9720903843805928
 30
0.0
 40
0.275838205
 50
269.9998646023984747
 51
64.7683126795027846
  0
ARC
  5
8D24
  8
0
 10
549.906747429563211
 20
70.2555565915805857
 30
0.0
 40
0.0397975856
 50
199.2740667424006915
 51
201.231410826300106
  0
ARC
  5
8D25
  8
0
 10
549.9067025962631305
 20
70.255536918880594
 30
0.0
 40
0.0397486712
 50
201.2283813405989008
 51
205.2884214860989971
  0
ARC
  5
8D26
  8
0
 10
549.9065156254630438
 20
70.2554763411805823
 30
0.0
 40
0.0395522844
 50
195.908975254199504
 51
199.2751722123001059
  0
ARC
  5
8D27
  8
0
 10
549.9065093168630938
 20
70.2554101047805943
 30
0.0
 40
0.0395308353
 50
178.1026790340999924
 51
190.6979127720998122
  0
ARC
  5
8D28
  8
0
 10
549.9064789541630489
 20
70.255432076480588
 30
0.0
 40
0.0395016749
 50
205.2894935687997133
 51
206.5109015159999046
  0
ARC
  5
8D29
  8
0
 10
549.8924329520226593
 20
70.2356677910960912
 30
0.0
 40
0.0152512575455869
 50
230.6517784436130114
 51
247.1705072493867874
  0
ARC
  5
8D2A
  8
0
 10
549.9063315614630483
 20
70.2554157436805866
 30
0.0
 40
0.0393658686
 50
211.8251988452994965
 51
216.9600729661007108
  0
ARC
  5
8D2B
  8
0
 10
549.9062931164630754
 20
70.2553336495805922
 30
0.0
 40
0.0392858121
 50
216.8981152836990134
 51
233.205791376301903
  0
ARC
  5
8D2C
  8
0
 10
549.9059339951631955
 20
70.2553073728805941
 30
0.0
 40
0.0389466157
 50
190.7016860444994961
 51
195.9044648692002113
  0
ARC
  5
8D2D
  8
0
 10
549.9058910661631216
 20
70.2551276025805862
 30
0.0
 40
0.0388396975
 50
206.4960848476999047
 51
211.1717618520004009
  0
ARC
  5
8D2E
  8
0
 10
549.9057734010631293
 20
70.2550601618805928
 30
0.0
 40
0.0387041135
 50
211.1764997828985884
 51
211.8136676245997023
  0
ARC
  5
8D2F
  8
0
 10
549.8763346428630712
 20
71.111978399680595
 30
0.0
 40
0.0196971665
 50
358.0893242074999989
 51
89.9837370197015645
  0
ARC
  5
8D30
  8
0
 10
552.4493646489631828
 20
71.8060953001805871
 30
0.0
 40
0.059286144
 50
359.3603344762182132
 51
45.038522412700118
  0
ARC
  5
8D31
  8
0
 10
552.4493082756631566
 20
71.8061516720805884
 30
0.0
 40
0.059286144
 50
44.9614775609991284
 51
90.6395962667981649
  0
LINE
  5
8D32
  8
0
 10
549.9345791940631898
 20
66.4426452672805965
 30
0.0
 11
550.1488534851290524
 21
66.6569198935317644
 31
0.0
  0
LINE
  5
8D33
  8
0
 10
549.6174158251632207
 20
66.4367909630805968
 30
0.0
 11
549.9204456795630449
 21
66.4367909565805945
 31
0.0
  0
LINE
  5
8D34
  8
0
 10
549.3890078421632097
 20
66.6569197281805828
 30
0.0
 11
549.6032823059631482
 21
66.4426452625805837
 31
0.0
  0
LINE
  5
8D35
  8
0
 10
549.3831535517631437
 20
66.9740830917805852
 30
0.0
 11
549.3831535510630601
 21
66.6710532378805851
 31
0.0
  0
LINE
  5
8D36
  8
0
 10
549.6032823079631271
 20
67.2024910697805922
 30
0.0
 11
549.3890078478631267
 21
66.9882166123805973
 31
0.0
  0
LINE
  5
8D37
  8
0
 10
549.9204456768632099
 20
67.2083453739805918
 30
0.0
 11
549.6174158224630446
 21
67.2083453804805941
 31
0.0
  0
LINE
  5
8D38
  8
0
 10
550.1488536598632209
 20
66.9882166088805917
 30
0.0
 11
549.9345791959631242
 21
67.2024910744805908
 31
0.0
  0
LINE
  5
8D39
  8
0
 10
550.1547079501631288
 20
66.6710532452805751
 30
0.0
 11
550.154707950963143
 21
66.9740830992805911
 31
0.0
  0
ARC
  5
8D3A
  8
0
 10
551.8618525898779126
 20
65.4579927892154814
 30
0.0
 40
0.0642224947087122
 50
277.8085371909988908
 51
352.1914605132445786
  0
ARC
  5
8D3B
  8
0
 10
547.6760089121484043
 20
65.4579927892154814
 30
0.0
 40
0.0642224947087122
 50
187.8085552464820012
 51
262.1914628090011092
  0
ARC
  5
8D3C
  8
0
 10
551.8708498992181148
 20
71.2276369230523301
 30
0.0
 40
0.0546303651509873
 50
359.7149032212998918
 51
90.2851003280138968
  0
ARC
  5
8D3D
  8
0
 10
547.6670116028083157
 20
71.2276369230523301
 30
0.0
 40
0.0546303651509873
 50
89.7148996720577543
 51
180.2856021957047119
  0
LINE
  5
8D3E
  8
0
 10
551.9103195669365505
 20
65.4164058735912448
 30
0.0
 11
552.4912580881576787
 21
64.82858728932041
 31
0.0
  0
LINE
  5
8D3F
  8
0
 10
547.6247064240632199
 20
65.4196389616805902
 30
0.0
 11
547.0466034152797192
 21
64.8285872883095919
 31
0.0
  0
LINE
  5
8D40
  8
0
 10
547.6283819319688746
 20
71.2662662555262898
 30
0.0
 11
547.046573042227692
 21
71.8480147592377421
 31
0.0
  0
LINE
  5
8D41
  8
0
 10
551.9094793996783892
 20
71.2662664259057834
 30
0.0
 11
552.4912884722091349
 21
71.8480147457259761
 31
0.0
  0
ARC
  5
8D42
  8
0
 10
549.6174256297905458
 20
67.1883330768821736
 30
0.0
 40
0.0200120542480029
 50
90.028063575078221
 51
134.9702985398126884
  0
ARC
  5
8D43
  8
0
 10
549.6156662710260434
 20
67.1925813547763369
 30
0.0
 40
0.0199868137963108
 50
90.0
 51
134.9999999867814893
  0
ARC
  5
8D44
  8
0
 10
549.4031671897190563
 20
66.974072396006477
 30
0.0
 40
0.0200136408139877
 50
135.0306189837372131
 51
179.9693797470208096
  0
ARC
  5
8D45
  8
0
 10
549.3989175647984666
 20
66.9758326485502948
 30
0.0
 40
0.0199868138395803
 50
135.0000000114523004
 51
180.0011907316103077
  0
ARC
  5
8D46
  8
0
 10
549.4031672039177465
 20
66.6710639457250238
 30
0.0
 40
0.0200136557190725
 50
180.0306547855174983
 51
224.969343126783599
  0
ARC
  5
8D47
  8
0
 10
549.3989175646642025
 20
66.6693036884841916
 30
0.0
 40
0.0199868137053915
 50
179.9988091918656892
 51
225.0011906932080876
  0
ARC
  5
8D48
  8
0
 10
549.6174265505103449
 20
66.4568046608265632
 30
0.0
 40
0.0200137006198337
 50
225.0306760124425978
 51
269.9692951757479022
  0
ARC
  5
8D49
  8
0
 10
549.6156662706383713
 20
66.4525549814888592
 30
0.0
 40
0.019986812912597
 50
224.9988083653286992
 51
270.0011917495442049
  0
ARC
  5
8D4A
  8
0
 10
549.9204349333871278
 20
66.4568046659259011
 30
0.0
 40
0.0200137122303345
 50
270.0307644355896741
 51
314.9693556443941134
  0
ARC
  5
8D4B
  8
0
 10
549.9221952311954738
 20
66.4525549819532984
 30
0.0
 40
0.0199868133770232
 50
269.9988088019575798
 51
315.0011910831727846
  0
ARC
  5
8D4C
  8
0
 10
550.1346958850416513
 20
66.6710636277625213
 30
0.0
 40
0.0200120678147316
 50
315.0280712911318801
 51
359.9702743150718902
  0
ARC
  5
8D4D
  8
0
 10
550.1389439372619563
 20
66.6693036884842058
 30
0.0
 40
0.0199868137054316
 50
314.9988093068309922
 51
0.0011908080808892
  0
ARC
  5
8D4E
  8
0
 10
550.1346942969837528
 20
66.9740723908702051
 30
0.0
 40
0.020013656844071
 50
0.0306564039899728
 51
44.9693417949711929
  0
ARC
  5
8D4F
  8
0
 10
550.1389439372619563
 20
66.9758326485769686
 30
0.0
 40
0.0199868137054333
 50
359.998809191919122
 51
45.0011906931672101
  0
ARC
  5
8D50
  8
0
 10
549.9204349514155865
 20
67.1883316762342844
 30
0.0
 40
0.0200137006202037
 50
45.0306760126634273
 51
89.9692948888681485
  0
ARC
  5
8D51
  8
0
 10
549.9221952308234904
 20
67.1925813545510948
 30
0.0
 40
0.019986814033814
 50
44.9988092913617379
 51
90.0011901314571077
  0
ARC
  5
8D52
  8
0
 10
549.7689307509631362
 20
66.8225681685305943
 30
0.0
 40
0.4177853876639392
 50
293.9861281089271756
 51
336.013871891069698
  0
ARC
  5
8D53
  8
0
 10
549.7689307509631362
 20
66.8225681685305943
 30
0.0
 40
0.4177853876639392
 50
338.9861281023040078
 51
21.0138718976959495
  0
ARC
  5
8D54
  8
0
 10
549.7689307509631362
 20
66.8225681685305943
 30
0.0
 40
0.4177853876639392
 50
23.9861281089303091
 51
66.0138718910726681
  0
ARC
  5
8D55
  8
0
 10
549.7689307509631362
 20
66.8225681685305943
 30
0.0
 40
0.4177853876639392
 50
68.9861281214279245
 51
111.0138718785721039
  0
ARC
  5
8D56
  8
0
 10
549.7689307509631362
 20
66.8225681685305943
 30
0.0
 40
0.4177853876639392
 50
113.9861280821910015
 51
156.0138718913750893
  0
ARC
  5
8D57
  8
0
 10
549.7689307509631362
 20
66.8225681685305943
 30
0.0
 40
0.4177853876639392
 50
158.9861281023028994
 51
201.0138718976967027
  0
ARC
  5
8D58
  8
0
 10
549.7689307509631362
 20
66.8225681685305943
 30
0.0
 40
0.4177853876639392
 50
203.9861281086245128
 51
246.013871917809098
  0
ARC
  5
8D59
  8
0
 10
549.7689307509631362
 20
66.8225681685305943
 30
0.0
 40
0.4177853876639392
 50
248.9861280831823933
 51
291.013871916817493
  0
LINE
  5
8D5A
  8
0
 10
549.7209307509631344
 20
64.1294254023611785
 30
0.0
 11
549.7209307509631344
 21
66.2794289553669671
 31
0.0
  0
LINE
  5
8D5B
  8
0
 10
549.7409307509631162
 20
66.2794262642416641
 30
0.0
 11
549.7409307509631162
 21
64.1288884699517467
 31
0.0
  0
LINE
  5
8D5C
  8
0
 10
549.7589307509631453
 20
64.1287395920773093
 30
0.0
 11
549.7589307509631453
 21
66.2794289553671945
 31
0.0
  0
LINE
  5
8D5D
  8
0
 10
549.7789307509631271
 20
66.2794262642428436
 30
0.0
 11
549.7789307509631271
 21
64.1287422831999692
 31
0.0
  0
LINE
  5
8D5E
  8
0
 10
549.7969307509631562
 20
64.128739592077423
 30
0.0
 11
549.7969307509631562
 21
66.2794289553671945
 31
0.0
  0
LINE
  5
8D5F
  8
0
 10
549.8169307509631381
 20
66.279426264241593
 30
0.0
 11
549.8169307509631381
 21
64.1287840073827056
 31
0.0
  0
ARC
  5
8D60
  8
0
 10
549.5102204901033929
 20
64.1126148402433529
 30
0.0
 40
0.0400614932073235
 50
178.305517584482601
 51
271.917054456687481
  0
ARC
  5
8D61
  8
0
 10
549.7309307585632041
 20
66.2794840917805885
 30
0.0
 40
0.0100001596
 50
359.6686760493068959
 51
180.31590493856541
  0
ARC
  5
8D62
  8
0
 10
550.0276704598658171
 20
64.1125338258252242
 30
0.0
 40
0.0399833106823368
 50
267.9634836181921855
 51
1.813944339983586
  0
ARC
  5
8D63
  8
0
 10
549.8069307585632259
 20
66.2794840917805885
 30
0.0
 40
0.0100001596
 50
359.6686760489478161
 51
180.3159049372422942
  0
ARC
  5
8D64
  8
0
 10
549.7689307585631013
 20
66.2794840917805885
 30
0.0
 40
0.0100001596
 50
359.668676056212405
 51
180.315904937262701
  0
LINE
  5
8D65
  8
0
 10
550.0676337343586511
 20
64.1137994580493285
 30
0.0
 11
549.9965597381632278
 21
66.3769729303805747
 31
0.0
  0
ARC
  5
8D66
  8
0
 10
549.7309184278434486
 20
64.1286979167505535
 30
0.0
 40
0.0100141362472856
 50
175.8340286591131019
 51
1.09031402201556
  0
ARC
  5
8D67
  8
0
 10
549.8069309223977825
 20
64.1286846034910951
 30
0.0
 40
0.0100003226183006
 50
179.6849471846865072
 51
0.5695333508879317
  0
ARC
  5
8D68
  8
0
 10
549.7689307585651477
 20
64.1286844407601251
 30
0.0
 40
0.0100001596842795
 50
179.6840096730942946
 51
0.331409323921564
  0
ARC
  5
8D69
  8
0
 10
549.5281963195527624
 20
64.1289848369865894
 30
0.0
 40
0.0409774182690003
 50
177.4464921158653965
 51
270.500012192655106
  0
LINE
  5
8D6A
  8
0
 10
549.5285539191677344
 20
64.0880089790882295
 30
0.0
 11
550.008556281570236
 21
64.0880089790882437
 31
0.0
  0
LINE
  5
8D6B
  8
0
 10
549.9814753583631273
 20
66.407625375780583
 30
0.0
 11
550.0505506598511829
 21
64.1308104780093942
 31
0.0
  0
ARC
  5
8D6C
  8
0
 10
550.0091401119730108
 20
64.1294381464879706
 30
0.0
 40
0.0414332809390586
 50
269.1926266920341959
 51
1.8980680742501039
  0
ARC
  5
8D6D
  8
0
 10
549.5118455591550628
 20
66.4449646528963029
 30
0.0
 40
0.0391094952157864
 50
354.8801152917000081
 51
52.1841485226344872
  0
ARC
  5
8D6E
  8
0
 10
549.7689247208269308
 20
66.8220798892763952
 30
0.0
 40
0.4644518061017366
 50
302.8188138484713932
 51
235.7660787570096943
  0
ARC
  5
8D6F
  8
0
 10
550.1406408520664399
 20
67.9993292763839037
 30
0.0
 40
2.0906715114894219
 50
250.6129751994990897
 51
253.0019256280438071
  0
ARC
  5
8D70
  8
0
 10
549.6453721274522195
 20
66.4505684126437615
 30
0.0
 40
0.4676851778087541
 50
244.854980056974
 51
251.0299888134082948
  0
ARC
  5
8D71
  8
0
 10
549.3969740996599285
 20
67.9993292763839037
 30
0.0
 40
2.0906715114894219
 50
287.0048482113151067
 51
289.3870248005009103
  0
ARC
  5
8D72
  8
0
 10
549.8922428242741489
 20
66.4505684126437615
 30
0.0
 40
0.4676851778087541
 50
289.0019536021032991
 51
295.145019943026
  0
LINE
  5
8D73
  8
0
 10
550.0262495956477551
 20
64.0725757693409861
 30
0.0
 11
549.5115606540028921
 21
64.0725757693409861
 31
0.0
  0
LINE
  5
8D74
  8
0
 10
550.0676337343586511
 20
64.1137994580493285
 30
0.0
 11
549.9967595575818677
 21
66.3706101812458229
 31
0.0
  0
LINE
  5
8D75
  8
0
 10
549.981652853526839
 20
66.4017748963158567
 30
0.0
 11
550.0505506598511829
 21
64.1308104780093942
 31
0.0
  0
LINE
  5
8D76
  8
0
 10
549.4701765152924509
 20
64.1137994580493285
 30
0.0
 11
549.5413020567807507
 21
66.3769583554001628
 31
0.0
  0
LINE
  5
8D77
  8
0
 10
549.5562886508214433
 20
66.4025264079653965
 30
0.0
 11
549.4872595898001464
 21
64.1308104780093942
 31
0.0
  0
ARC
  5
8D78
  8
0
 10
549.4743090962676888
 20
66.3799059652952366
 30
0.0
 40
0.0670577748093945
 50
357.4806793103512064
 51
60.1983875135706583
  0
ARC
  5
8D79
  8
0
 10
550.063169899858508
 20
66.3799059652952366
 30
0.0
 40
0.0670577748093945
 50
129.3513942754356094
 51
187.9682024749168079
  0
CIRCLE
  5
8D7A
  8
0
 10
549.7689307509631362
 20
66.8225681685305943
 30
0.0
 40
0.4473906850606247
  0
ARC
  5
8D7B
  8
0
 10
549.517577738864361
 20
66.4062673767704723
 30
0.0
 40
0.0388912529001075
 50
354.4801561159871994
 51
59.9234981124395674
  0
ARC
  5
8D7C
  8
0
 10
550.0202837630617978
 20
66.4062673767704723
 30
0.0
 40
0.0388912529001075
 50
120.0765018875603971
 51
186.6332671236945089
  0
LINE
  5
8D7D
  8
0
 10
550.0303650098984463
 20
65.956126726425282
 30
0.0
 11
550.0099716232538185
 21
65.9499050268458973
 31
0.0
  0
LINE
  5
8D7E
  8
0
 10
549.5072617216882236
 20
65.9561962649109574
 30
0.0
 11
549.5278806819128476
 21
65.9499007427390751
 31
0.0
  0
ARC
  5
8D7F
  8
0
 10
549.7689307509631362
 20
66.8225681685305943
 30
0.0
 40
0.8946414789777739
 50
287.9178287264123242
 51
252.0821774527973105
  0
ARC
  5
8D80
  8
0
 10
549.7689307509631362
 20
66.8226037508562456
 30
0.0
 40
0.8661061499243448
 50
288.5537945610292923
 51
251.4462054389709067
  0
ARC
  5
8D81
  8
0
 10
549.7689307509666605
 20
66.8225689334750115
 30
0.0
 40
0.8522368694150987
 50
286.3089590767805248
 51
253.6904991912072944
  0
ARC
  5
8D83
  8
0
 10
552.4599158317397496
 20
71.8167028556675149
 30
0.0
 40
0.0652054514254548
 50
5.3591013974686579
 51
84.6408985051404557
  0
ARC
  5
8D84
  8
0
 10
552.4626141397874335
 20
64.8572312363506143
 30
0.0
 40
0.0623144959232287
 50
273.1201046776134262
 51
356.8798954197815192
  0
ARC
  5
8D85
  8
0
 10
547.0779484558362356
 20
71.8167050107285547
 30
0.0
 40
0.0652054514254548
 50
95.3793384677110083
 51
174.6671705366827894
  0
ARC
  5
8D86
  8
0
 10
547.0836586977195566
 20
64.8656352781319328
 30
0.0
 40
0.0708073517903501
 50
184.0163237837496126
 51
265.9002755279312282
  0
ENDSEC
  0
EOF
