  0
SECTION
  2
HEADER
  9
$ACADVER
  1
AC1009
  9
$INSBASE
 10
-10.1605157830293393
 20
12.43280619000552
 30
0.0
  9
$EXTMIN
 10
-12.9164206406293491
 20
8.4035829714706907
 30
0.0
  9
$EXTMAX
 10
-7.4046109254293482
 20
12.4374467739944894
 30
0.0
  9
$LIMMIN
 10
0.0
 20
0.0
  9
$LIMMAX
 10
22.0
 20
17.0
  9
$ORTHOMODE
 70
     0
  9
$REGENMODE
 70
     1
  9
$FILLMODE
 70
     1
  9
$QTEXTMODE
 70
     0
  9
$MIRRTEXT
 70
     0
  9
$DRAGMODE
 70
     2
  9
$LTSCALE
 40
1.2099999999999991
  9
$OSMODE
 70
  3839
  9
$ATTMODE
 70
     1
  9
$TEXTSIZE
 40
0.2
  9
$TRACEWID
 40
0.05
  9
$TEXTSTYLE
  7
STANDARD
  9
$CLAYER
  8
0
  9
$CELTYPE
  6
BYLAYER
  9
$CECOLOR
 62
   256
  9
$DIMSCALE
 40
1.0
  9
$DIMASZ
 40
0.1875
  9
$DIMEXO
 40
0.0625
  9
$DIMDLI
 40
0.8359999999999999
  9
$DIMRND
 40
0.0
  9
$DIMDLE
 40
0.0
  9
$DIMEXE
 40
0.125
  9
$DIMTP
 40
0.0
  9
$DIMTM
 40
0.0
  9
$DIMTXT
 40
0.15625
  9
$DIMCEN
 40
0.198
  9
$DIMTSZ
 40
0.0
  9
$DIMTOL
 70
     0
  9
$DIMLIM
 70
     0
  9
$DIMTIH
 70
     1
  9
$DIMTOH
 70
     1
  9
$DIMSE1
 70
     0
  9
$DIMSE2
 70
     0
  9
$DIMTAD
 70
     0
  9
$DIMZIN
 70
     0
  9
$DIMBLK
  1

  9
$DIMASO
 70
     1
  9
$DIMSHO
 70
     1
  9
$DIMPOST
  1

  9
$DIMAPOST
  1

  9
$DIMALT
 70
     0
  9
$DIMALTD
 70
     2
  9
$DIMALTF
 40
25.3999999999999986
  9
$DIMLFAC
 40
1.0
  9
$DIMTOFL
 70
     0
  9
$DIMTVP
 40
0.0
  9
$DIMTIX
 70
     0
  9
$DIMSOXD
 70
     0
  9
$DIMSAH
 70
     0
  9
$DIMBLK1
  1

  9
$DIMBLK2
  1

  9
$DIMSTYLE
  2
STANDARD
  9
$DIMCLRD
 70
     0
  9
$DIMCLRE
 70
     0
  9
$DIMCLRT
 70
     0
  9
$DIMTFAC
 40
1.0
  9
$DIMGAP
 40
0.09
  9
$LUNITS
 70
     2
  9
$LUPREC
 70
     4
  9
$SKETCHINC
 40
0.1
  9
$FILLETRAD
 40
0.0
  9
$AUNITS
 70
     0
  9
$AUPREC
 70
     0
  9
$MENU
  1
.
  9
$ELEVATION
 40
0.0
  9
$PELEVATION
 40
0.0
  9
$THICKNESS
 40
0.0
  9
$LIMCHECK
 70
     0
  9
$BLIPMODE
 70
     0
  9
$CHAMFERA
 40
0.0
  9
$CHAMFERB
 40
0.0
  9
$SKPOLY
 70
     0
  9
$TDCREATE
 40
2457564.58648148085922
  9
$TDUPDATE
 40
2459058.7643055561929941
  9
$TDINDWG
 40
0.245077662
  9
$TDUSRTIMER
 40
0.245077662
  9
$USRTIMER
 70
     1
  9
$ANGBASE
 50
0.0
  9
$ANGDIR
 70
     0
  9
$PDMODE
 70
     0
  9
$PDSIZE
 40
0.3125
  9
$PLINEWID
 40
0.0
  9
$COORDS
 70
     1
  9
$SPLFRAME
 70
     0
  9
$SPLINETYPE
 70
     6
  9
$SPLINESEGS
 70
     8
  9
$ATTDIA
 70
     1
  9
$ATTREQ
 70
     1
  9
$HANDLING
 70
     1
  9
$HANDSEED
  5
19B9
  9
$SURFTAB1
 70
     6
  9
$SURFTAB2
 70
     6
  9
$SURFTYPE
 70
     6
  9
$SURFU
 70
     6
  9
$SURFV
 70
     6
  9
$UCSNAME
  2

  9
$UCSORG
 10
0.0
 20
0.0
 30
0.0
  9
$UCSXDIR
 10
1.0
 20
0.0
 30
0.0
  9
$UCSYDIR
 10
0.0
 20
1.0
 30
0.0
  9
$PUCSNAME
  2

  9
$PUCSORG
 10
0.0
 20
0.0
 30
0.0
  9
$PUCSXDIR
 10
1.0
 20
0.0
 30
0.0
  9
$PUCSYDIR
 10
0.0
 20
1.0
 30
0.0
  9
$USERI1
 70
     0
  9
$USERI2
 70
     0
  9
$USERI3
 70
     0
  9
$USERI4
 70
     0
  9
$USERI5
 70
     0
  9
$USERR1
 40
0.0
  9
$USERR2
 40
0.0
  9
$USERR3
 40
0.0
  9
$USERR4
 40
0.0
  9
$USERR5
 40
0.0
  9
$WORLDVIEW
 70
     1
  9
$SHADEDGE
 70
     3
  9
$SHADEDIF
 70
    70
  9
$TILEMODE
 70
     1
  9
$MAXACTVP
 70
    48
  9
$PLIMCHECK
 70
     0
  9
$PEXTMIN
 10
1.0000000000000000E+20
 20
1.0000000000000000E+20
 30
1.0000000000000000E+20
  9
$PEXTMAX
 10
-1.0000000000000000E+20
 20
-1.0000000000000000E+20
 30
-1.0000000000000000E+20
  9
$PLIMMIN
 10
0.0
 20
0.0
  9
$PLIMMAX
 10
12.0
 20
9.0
  9
$UNITMODE
 70
     0
  9
$VISRETAIN
 70
     1
  9
$PLINEGEN
 70
     0
  9
$PSLTSCALE
 70
     1
  0
ENDSEC
  0
SECTION
  2
TABLES
  0
TABLE
  2
VPORT
 70
     1
  0
VPORT
  2
*ACTIVE
 70
     0
 10
0.0
 20
0.0
 11
1.0
 21
1.0
 12
0.0
 22
0.0
 13
0.0
 23
0.0
 14
1.0
 24
1.0
 15
0.0
 25
0.0
 16
-0.0000000000000071
 26
0.0
 36
28.3557138344186512
 17
-10.1605160236358607
 27
10.4205823843422198
 37
0.0
 40
6.8301548607514668
 41
3.314341846758349
 42
50.0
 43
0.0
 44
0.0
 50
0.0
 51
0.0
 71
     0
 72
   100
 73
     1
 74
     1
 75
     0
 76
     0
 77
     0
 78
     0
  0
ENDTAB
  0
TABLE
  2
LTYPE
 70
     1
  0
LTYPE
  2
CONTINUOUS
 70
     0
  3
Solid line
 72
    65
 73
     0
 40
0.0
  0
ENDTAB
  0
TABLE
  2
LAYER
 70
     2
  0
LAYER
  2
0
 70
     0
 62
     7
  6
CONTINUOUS
  0
LAYER
  2
DEFPOINTS
 70
     0
 62
     7
  6
CONTINUOUS
  0
ENDTAB
  0
TABLE
  2
STYLE
 70
     1
  0
STYLE
  2
STANDARD
 70
     0
 40
0.0
 41
0.8
 50
0.0
 71
     0
 42
0.2
  3
txt
  4

  0
ENDTAB
  0
TABLE
  2
VIEW
 70
     0
  0
ENDTAB
  0
TABLE
  2
UCS
 70
     0
  0
ENDTAB
  0
TABLE
  2
APPID
 70
     5
  0
APPID
  2
ACAD
 70
     0
  0
APPID
  2
ACAD_MLEADERVER
 70
     0
  0
APPID
  2
ACAD_EXEMPT_FROM_CAD_STANDARDS
 70
     0
  0
APPID
  2
ACAD_NAV_VCDISPLAY
 70
     0
  0
APPID
  2
ACDBATTR
 70
     0
  0
ENDTAB
  0
TABLE
  2
DIMSTYLE
 70
     1
  0
DIMSTYLE
  2
STANDARD
 70
     0
  3

  4

  5

  6

  7

 40
1.0
 41
0.1875
 42
0.0625
 43
0.38
 44
0.125
 45
0.0
 46
0.0
 47
1.5
 48
1.5
140
0.15625
141
0.09
142
0.0
143
25.3999999999999986
144
1.0
145
0.0
146
1.0
147
0.09
 71
     0
 72
     0
 73
     1
 74
     1
 75
     0
 76
     0
 77
     0
 78
     4
170
     0
171
     2
172
     0
173
     0
174
     0
175
     0
176
     0
177
     0
178
     0
  0
ENDTAB
  0
ENDSEC
  0
SECTION
  2
BLOCKS
  0
BLOCK
  8
0
  2
$MODEL_SPACE
 70
     0
 10
0.0
 20
0.0
 30
0.0
  3
$MODEL_SPACE
  1

  0
ENDBLK
  5
21
  8
0
  0
BLOCK
 67
     1
  8
0
  2
$PAPER_SPACE
 70
     0
 10
0.0
 20
0.0
 30
0.0
  3
$PAPER_SPACE
  1

  0
ENDBLK
  5
1D
 67
     1
  8
0
  0
BLOCK
  8
0
  2
_FILLED
 70
     0
 10
0.0
 20
0.0
 30
0.0
  3
_FILLED
  1

  0
SOLID
  5
12AF
  8
0
  6
BYBLOCK
 62
     0
 10
0.0
 20
0.0
 30
0.0
 11
-1.0
 21
0.1666666667
 31
0.0
 12
-1.0
 22
-0.1666666667
 32
0.0
 13
-1.0
 23
-0.1666666667
 33
0.0
  0
ENDBLK
  5
12B0
  8
0
  6
BYBLOCK
 62
     0
  0
ENDSEC
  0
SECTION
  2
ENTITIES
  0
ATTDEF
  5
10E7
  8
DEFPOINTS
 10
-10.1601365327039606
 20
12.4364467739944899
 30
0.0
 40
0.001
  1
K-99971T-3
  3

  2
MODELNUMBER
 70
     0
1001
ACDBATTR
1070
     0
1070
     1
  0
ATTDEF
  5
10E8
  8
DEFPOINTS
 10
-10.1601365327039606
 20
12.4347801073278301
 30
0.0
 40
0.001
  1
MODULO
  3

  2
TRADENAME
 70
     0
1001
ACDBATTR
1070
     0
1070
     1
  0
ATTDEF
  5
10E9
  8
DEFPOINTS
 10
-10.1601365327039606
 20
12.4331134406611596
 30
0.0
 40
0.001
  1
VALVE TRIM
  3

  2
PRODUCT
 70
     0
1001
ACDBATTR
1070
     0
1070
     1
  0
LINE
  5
169D
  8
0
 10
-8.0588691559293473
 20
11.7614282372055197
 30
0.0
 11
-12.2621624101293492
 21
11.7614282372055197
 31
0.0
  0
LINE
  5
169E
  8
0
 10
-7.4046109254293482
 20
12.43280619000552
 30
0.0
 11
-12.9164206406293491
 21
12.43280619000552
 31
0.0
  0
LINE
  5
169F
  8
0
 10
-7.4743779054025721
 20
12.1940891234899897
 30
0.0
 11
-12.8466536606561306
 21
12.1940891234899897
 31
0.0
  0
LINE
  5
16A0
  8
0
 10
-9.4912250986293465
 20
11.0942235128055202
 30
0.0
 11
-9.4912250986293465
 21
11.7614282372055197
 31
0.0
  0
LINE
  5
16A1
  8
0
 10
-9.4912250986293731
 20
11.0233573711055204
 30
0.0
 11
-9.5051632423214016
 21
9.4262043029055231
 31
0.0
  0
LINE
  5
16A2
  8
0
 10
-9.2943747049293464
 20
11.0942235128055202
 30
0.0
 11
-9.2943747049293464
 21
11.7614282372055197
 31
0.0
  0
LINE
  5
16A3
  8
0
 10
-9.3140577601276018
 20
11.0745384735055197
 30
0.0
 11
-11.0069738059310893
 21
11.0745384735055197
 31
0.0
  0
LINE
  5
16A4
  8
0
 10
-9.4912250986293465
 20
11.0942235128055202
 30
0.0
 11
-11.0266568611293394
 21
11.0942235128055202
 31
0.0
  0
LINE
  5
16A5
  8
0
 10
-9.3023177360293481
 20
11.0233573711055204
 30
0.0
 11
-11.0187138298594896
 21
11.0233573711055204
 31
0.0
  0
LINE
  5
16A6
  8
0
 10
-9.4912250986293465
 20
11.0942235128055202
 30
0.0
 11
-9.5104184592755487
 21
11.0745384735055197
 31
0.0
  0
ARC
  5
16A7
  8
0
 10
-9.3166089754141233
 20
11.0967724869472502
 30
0.0
 40
0.0223799028855185
 50
276.5457086406764802
 51
353.4600666277329992
  0
ARC
  5
16A8
  8
0
 10
-9.3023177361992033
 20
11.0154833552356699
 30
0.0
 40
0.0078740158698558
 50
0.0000005083189972
 51
89.9999987640245251
  0
LINE
  5
16A9
  8
0
 10
-9.2944437203293475
 20
11.0154833553055198
 30
0.0
 11
-9.3082797749970325
 21
9.4299941606684694
 31
0.0
  0
ARC
  5
16AA
  8
0
 10
-9.3485359561826318
 20
9.4306125802666205
 30
0.0
 40
0.0402609310181382
 50
282.6841115546600918
 51
359.1198855684083924
  0
LINE
  5
16AB
  8
0
 10
-9.3829573821293462
 20
11.0233573711055204
 30
0.0
 11
-9.3829573821293462
 21
11.0745384735055197
 31
0.0
  0
LINE
  5
16AC
  8
0
 62
     1
 10
-9.5798077758293481
 20
11.0325291914781207
 30
0.0
 11
-9.5798077758293481
 21
11.0325291914781207
 31
0.0
  0
LINE
  5
16AD
  8
0
 10
-9.5798077758293481
 20
11.0233573711055204
 30
0.0
 11
-9.5798077758293481
 21
11.0745384735055197
 31
0.0
  0
LINE
  5
16AE
  8
0
 10
-9.3396956350931237
 20
9.3913341983055254
 30
0.0
 11
-10.9813359309655691
 21
9.3913341983055254
 31
0.0
  0
LINE
  5
16AF
  8
0
 10
-9.6825941533360655
 20
9.2517038278055246
 30
0.0
 11
-10.6384374127226309
 21
9.2517038278055246
 31
0.0
  0
LINE
  5
16B0
  8
0
 10
-9.8076555247765231
 20
9.2517038278055246
 30
0.0
 11
-9.5267628771134891
 21
9.3913341983055254
 31
0.0
  0
LINE
  5
16B1
  8
0
 10
-9.6825941533360655
 20
9.2517038278055246
 30
0.0
 11
-9.3396956350931237
 21
9.3913341983055254
 31
0.0
  0
ARC
  5
16B2
  8
0
 10
-9.5461579250251773
 20
9.4274728957687621
 30
0.0
 40
0.0410143065019524
 50
298.2217278521491721
 51
358.2275303973340215
  0
LINE
  5
16B3
  8
0
 10
-9.9242977035375901
 20
9.2517038278055246
 30
0.0
 11
-9.9242753842848952
 21
9.1428732557262347
 31
0.0
  0
ARC
  5
16B4
  8
0
 10
-9.8651791027842144
 20
9.1428853753431287
 30
0.0
 40
0.0590962827434427
 50
180.0117503651665913
 51
240.1635035748101075
  0
ARC
  5
16B5
  8
0
 10
-9.9044051290653883
 20
9.0744939260734245
 30
0.0
 40
0.0197457838899359
 50
359.6303440133348772
 51
60.1635035748110809
  0
LINE
  5
16B6
  8
0
 10
-9.8846597561293468
 20
9.0743665328055236
 30
0.0
 11
-9.8884388564551724
 21
8.6412964324876889
 31
0.0
  0
ARC
  5
16B7
  8
0
 10
-9.908175132967429
 20
8.6415200964452161
 30
0.0
 40
0.0197375438222213
 50
270.0712998691944904
 51
359.3507158137986721
  0
LINE
  5
16B8
  8
0
 10
-9.869942435043999
 20
9.0916291914607008
 30
0.0
 11
-10.4510891310146903
 21
9.091629191460699
 31
0.0
  0
ARC
  5
16B9
  8
0
 10
-10.0531069541594
 20
9.0659561042754682
 30
0.0
 40
0.0196850392300547
 50
359.9999997964164891
 51
90.0000004946460592
  0
LINE
  5
16BA
  8
0
 10
-10.0334219149293506
 20
9.0659561042055241
 30
0.0
 11
-10.0371751446350697
 21
8.6500159670247481
 31
0.0
  0
ARC
  5
16BB
  8
0
 10
-10.0568595404080305
 20
8.6501766975805197
 30
0.0
 40
0.0196850519749947
 50
270.000015074209216
 51
359.5321686309458187
  0
ARC
  5
16BC
  8
0
 10
-9.9045030313293392
 20
9.2217038278055288
 30
0.0
 40
0.0299999999999929
 50
2.0000015553927488
 51
90.0
  0
LINE
  5
16BD
  8
0
 10
-9.8745213065471962
 20
9.2227508135205092
 30
0.0
 11
-9.8645606757259365
 21
8.9375158884717099
 31
0.0
  0
ARC
  5
16BE
  8
0
 10
-9.7446337729459387
 20
8.9417038314591402
 30
0.0
 40
0.1200000036536209
 50
182.0000015553927994
 51
269.9999806008693213
  0
ARC
  5
16BF
  8
0
 10
-9.7446956107289004
 20
-173.6976413953896952
 30
0.0
 40
182.5193452232055904
 50
89.8973992678073017
 51
90.0311313516153575
  0
LINE
  5
16C0
  8
0
 10
-9.4178546355293484
 20
8.8214111873055252
 30
0.0
 11
-8.6451360262293466
 21
8.8178826289055241
 31
0.0
  0
ARC
  5
16C1
  8
0
 10
-8.6453506245545384
 20
8.7878833881606333
 30
0.0
 40
0.0300000082951837
 50
358.0313468523589222
 51
89.5901440071297088
  0
LINE
  5
16C2
  8
0
 10
-8.6153683231293474
 20
8.7868528063055251
 30
0.0
 11
-8.6273673702293472
 21
8.4432450634055236
 31
0.0
  0
ARC
  5
16C3
  8
0
 10
-8.6574251131427822
 20
8.4443677173821996
 30
0.0
 40
0.0300787011189229
 50
272.4018215597765789
 51
357.8610020977035902
  0
ARC
  5
16C4
  8
0
 10
-9.1790680416343271
 20
21.1473050120858694
 30
0.0
 40
12.7437220406151805
 50
266.7300539331067739
 51
272.3516343228466781
  0
ARC
  5
16C5
  8
0
 10
-9.9084851577514783
 20
8.4573273418208395
 30
0.0
 40
0.0330913721108683
 50
274.3514273710417228
 51
357.371685745580919
  0
LINE
  5
16C6
  8
0
 10
-9.8754285967558388
 20
8.4558098823249885
 30
0.0
 11
-9.8637457055293467
 21
8.7903641141055253
 31
0.0
  0
ARC
  5
16C7
  8
0
 10
-9.8937174605625575
 20
8.7917015544686592
 30
0.0
 40
0.0300015807332838
 50
357.4449649027823739
 51
76.8096247863392136
  0
ARC
  5
16C8
  8
0
 10
-9.8407537282551694
 20
7.4380280965048051
 30
0.0
 40
1.3836522907065301
 50
90.1288973122598236
 51
91.9100478141021853
  0
ARC
  5
16C9
  8
0
 10
-8.0585688504162878
 20
11.8195066184204904
 30
0.0
 40
0.0580791576036761
 50
269.7037437207628159
 51
336.9759353723138133
  0
ARC
  5
16CA
  8
0
 10
-7.4179038435941038
 20
11.5654996963490806
 30
0.0
 40
0.6311212146414354
 50
95.1338143194442551
 51
158.501518682010186
  0
ARC
  5
16CB
  8
0
 10
-7.479484297694925
 20
12.25259921677136
 30
0.0
 40
0.0587324974612678
 50
274.9877767922891962
 51
354.93399796094252
  0
LINE
  5
16CC
  8
0
 10
-7.4209812306398364
 20
12.2474129461280796
 30
0.0
 11
-7.4046109254293482
 21
12.43280619000552
 31
0.0
  0
LINE
  5
16CD
  8
0
 10
-10.0531069543293405
 20
9.0856411435055247
 30
0.0
 11
-10.2679246118992893
 21
9.0856411435055229
 31
0.0
  0
LINE
  5
16CE
  8
0
 10
-10.2641720256506606
 20
8.6304916456055238
 30
0.0
 11
-10.056859535229
 21
8.6304916456055238
 31
0.0
  0
LINE
  5
16CF
  8
0
 10
-10.4128809948290009
 20
8.6217825679055267
 30
0.0
 11
-9.9081505712293474
 21
8.6217825679055267
 31
0.0
  0
LINE
  5
16D0
  8
0
 10
-10.8298064674293393
 20
11.0942235128055202
 30
0.0
 11
-10.8298064674293393
 21
11.7614282372055197
 31
0.0
  0
LINE
  5
16D1
  8
0
 10
-10.8298064674293197
 20
11.0233573711055204
 30
0.0
 11
-10.8158683237372895
 21
9.4262043029055231
 31
0.0
  0
LINE
  5
16D2
  8
0
 10
-11.0266568611293394
 20
11.0942235128055202
 30
0.0
 11
-11.0266568611293394
 21
11.7614282372055197
 31
0.0
  0
LINE
  5
16D3
  8
0
 10
-10.8298064674293393
 20
11.0942235128055202
 30
0.0
 11
-10.8106131067831406
 21
11.0745384735055197
 31
0.0
  0
ARC
  5
16D4
  8
0
 10
-11.0044225906445696
 20
11.0967724869472502
 30
0.0
 40
0.0223799028855185
 50
186.5399333722668871
 51
263.4542913593235198
  0
ARC
  5
16D5
  8
0
 10
-11.0187138298594896
 20
11.0154833552356699
 30
0.0
 40
0.0078740158698558
 50
90.0000012359754606
 51
179.9999994916809953
  0
LINE
  5
16D6
  8
0
 10
-11.02658784572934
 20
11.0154833553055198
 30
0.0
 11
-11.0127517910616604
 21
9.4299941606684694
 31
0.0
  0
ARC
  5
16D7
  8
0
 10
-10.9724956098760593
 20
9.4306125802666205
 30
0.0
 40
0.0402609310181382
 50
180.8801144315916076
 51
257.3158884453399082
  0
LINE
  5
16D8
  8
0
 10
-10.9380741839293503
 20
11.0233573711055204
 30
0.0
 11
-10.9380741839293396
 21
11.0745384735055197
 31
0.0
  0
LINE
  5
16D9
  8
0
 62
     1
 10
-10.7412237902293501
 20
11.0325291914781207
 30
0.0
 11
-10.7412237902293501
 21
11.0325291914781207
 31
0.0
  0
LINE
  5
16DA
  8
0
 10
-10.7412237902293501
 20
11.0233573711055204
 30
0.0
 11
-10.7412237902293501
 21
11.0745384735055197
 31
0.0
  0
LINE
  5
16DB
  8
0
 10
-10.5133760412821697
 20
9.2517038278055246
 30
0.0
 11
-10.7942686889452002
 21
9.3913341983055254
 31
0.0
  0
LINE
  5
16DC
  8
0
 10
-10.6384374127226202
 20
9.2517038278055246
 30
0.0
 11
-10.9813359309655691
 21
9.3913341983055254
 31
0.0
  0
ARC
  5
16DD
  8
0
 10
-10.7748736410335102
 20
9.4274728957687621
 30
0.0
 40
0.0410143065019524
 50
181.772469602665808
 51
241.7782721478507995
  0
LINE
  5
16DE
  8
0
 10
-10.3967338625210992
 20
9.2517038278055246
 30
0.0
 11
-10.3967561817737995
 21
9.1428732557262347
 31
0.0
  0
ARC
  5
16DF
  8
0
 10
-10.4558524632744803
 20
9.1428853753431287
 30
0.0
 40
0.0590962827434427
 50
299.836496425189921
 51
359.9882496348333234
  0
ARC
  5
16E0
  8
0
 10
-10.4166264369933099
 20
9.0744939260734245
 30
0.0
 40
0.0197457838899359
 50
119.8364964251888978
 51
180.3696559866650091
  0
LINE
  5
16E1
  8
0
 10
-10.4363718099293497
 20
9.0743665328055236
 30
0.0
 11
-10.4325927096035205
 21
8.6412964324876889
 31
0.0
  0
ARC
  5
16E2
  8
0
 10
-10.4128564330912692
 20
8.6415200964452161
 30
0.0
 40
0.0197375438222213
 50
180.6492841862011005
 51
269.9287001308053959
  0
ARC
  5
16E3
  8
0
 10
-10.2679246118992893
 20
9.0659561042754682
 30
0.0
 40
0.0196850392300547
 50
89.9999995053539266
 51
180.0000002035835109
  0
LINE
  5
16E4
  8
0
 10
-10.2876096511293493
 20
9.0659561042055241
 30
0.0
 11
-10.2838564214236197
 21
8.6500159670247481
 31
0.0
  0
ARC
  5
16E5
  8
0
 10
-10.2641720256506606
 20
8.6501766975805197
 30
0.0
 40
0.0196850519749947
 50
180.4678313690540108
 51
269.999984925790784
  0
ARC
  5
16E6
  8
0
 10
-10.4165285347293501
 20
9.2217038278055288
 30
0.0
 40
0.0299999999999929
 50
90.0
 51
177.9999984446072858
  0
LINE
  5
16E7
  8
0
 10
-10.4465102595115003
 20
9.2227508135205092
 30
0.0
 11
-10.4564708903327599
 21
8.9375158884717099
 31
0.0
  0
ARC
  5
16E8
  8
0
 10
-10.5763977931127506
 20
8.9417038314591402
 30
0.0
 40
0.1200000036536209
 50
270.0000193991306787
 51
357.9999984446071153
  0
ARC
  5
16E9
  8
0
 10
-10.5763359553297907
 20
-173.6976413953896952
 30
0.0
 40
182.5193452232055904
 50
89.9688686483846567
 51
90.1026007321927125
  0
LINE
  5
16EA
  8
0
 10
-10.9031769305293498
 20
8.8214111873055252
 30
0.0
 11
-11.6758955398293498
 21
8.8178826289055241
 31
0.0
  0
ARC
  5
16EB
  8
0
 10
-11.6756809415041491
 20
8.7878833881606333
 30
0.0
 40
0.0300000082951837
 50
90.4098559928703054
 51
181.9686531476411062
  0
LINE
  5
16EC
  8
0
 10
-11.7056632429293401
 20
8.7868528063055251
 30
0.0
 11
-11.6936641958293404
 21
8.4432450634055236
 31
0.0
  0
ARC
  5
16ED
  8
0
 10
-11.6636064529159107
 20
8.4443677173821996
 30
0.0
 40
0.0300787011189229
 50
182.1389979022962962
 51
267.5981784402233075
  0
ARC
  5
16EE
  8
0
 10
-11.1419635244243604
 20
21.1473050120858694
 30
0.0
 40
12.7437220406151805
 50
267.6483656771533219
 51
273.2699460668932261
  0
ARC
  5
16EF
  8
0
 10
-10.4125464083072199
 20
8.4573273418208395
 30
0.0
 40
0.0330913721108683
 50
182.6283142544191094
 51
265.6485726289582203
  0
LINE
  5
16F0
  8
0
 10
-10.4456029693028505
 20
8.4558098823249885
 30
0.0
 11
-10.4572858605293497
 21
8.7903641141055253
 31
0.0
  0
ARC
  5
16F1
  8
0
 10
-10.42731410549613
 20
8.7917015544686592
 30
0.0
 40
0.0300015807332838
 50
103.1903752136608006
 51
182.5550350972173987
  0
ARC
  5
16F2
  8
0
 10
-10.48027783780352
 20
7.4380280965048051
 30
0.0
 40
1.3836522907065301
 50
88.0899521858978147
 51
89.871102687740148
  0
ARC
  5
16F3
  8
0
 10
-12.2624627156424104
 20
11.8195066184204904
 30
0.0
 40
0.0580791576036761
 50
203.0240646276861014
 51
270.2962562792372978
  0
ARC
  5
16F4
  8
0
 10
-12.9031277224645908
 20
11.5654996963490806
 30
0.0
 40
0.6311212146414354
 50
21.4984813179899099
 51
84.8661856805557733
  0
ARC
  5
16F5
  8
0
 10
-12.8415472683637706
 20
12.25259921677136
 30
0.0
 40
0.0587324974612678
 50
185.0660020390573095
 51
265.0122232077108038
  0
LINE
  5
16F6
  8
0
 10
-12.9000503354188591
 20
12.2474129461280796
 30
0.0
 11
-12.9164206406293491
 21
12.43280619000552
 31
0.0
  0
ARC
  5
16F7
  8
0
 10
-10.1605157830293393
 20
9.9856309653977355
 30
0.0
 40
1.5819126981920739
 50
260.7404336077739799
 51
279.2595663922260201
  0
ENDSEC
  0
EOF
