  0
SECTION
  2
HEADER
  9
$ACADVER
  1
AC1009
  9
$INSBASE
 10
-3.4295568679102639
 20
11.8338845432708606
 30
0.0
  9
$EXTMIN
 10
-6.1854617255102653
 20
7.7999380393182882
 30
0.0
  9
$EXTMAX
 10
-0.673652010310267
 20
11.8394344601940205
 30
0.0
  9
$LIMMIN
 10
0.0
 20
0.0
  9
$LIMMAX
 10
22.0
 20
17.0
  9
$ORTHOMODE
 70
     0
  9
$REGENMODE
 70
     1
  9
$FILLMODE
 70
     1
  9
$QTEXTMODE
 70
     0
  9
$MIRRTEXT
 70
     0
  9
$DRAGMODE
 70
     2
  9
$LTSCALE
 40
1.2099999999999991
  9
$OSMODE
 70
  3839
  9
$ATTMODE
 70
     1
  9
$TEXTSIZE
 40
0.2
  9
$TRACEWID
 40
0.05
  9
$TEXTSTYLE
  7
STANDARD
  9
$CLAYER
  8
0
  9
$CELTYPE
  6
BYLAYER
  9
$CECOLOR
 62
   256
  9
$DIMSCALE
 40
1.0
  9
$DIMASZ
 40
0.1875
  9
$DIMEXO
 40
0.0625
  9
$DIMDLI
 40
0.8359999999999999
  9
$DIMRND
 40
0.0
  9
$DIMDLE
 40
0.0
  9
$DIMEXE
 40
0.125
  9
$DIMTP
 40
0.0
  9
$DIMTM
 40
0.0
  9
$DIMTXT
 40
0.15625
  9
$DIMCEN
 40
0.198
  9
$DIMTSZ
 40
0.0
  9
$DIMTOL
 70
     0
  9
$DIMLIM
 70
     0
  9
$DIMTIH
 70
     1
  9
$DIMTOH
 70
     1
  9
$DIMSE1
 70
     0
  9
$DIMSE2
 70
     0
  9
$DIMTAD
 70
     0
  9
$DIMZIN
 70
     0
  9
$DIMBLK
  1

  9
$DIMASO
 70
     1
  9
$DIMSHO
 70
     1
  9
$DIMPOST
  1

  9
$DIMAPOST
  1

  9
$DIMALT
 70
     0
  9
$DIMALTD
 70
     2
  9
$DIMALTF
 40
25.3999999999999986
  9
$DIMLFAC
 40
1.0
  9
$DIMTOFL
 70
     0
  9
$DIMTVP
 40
0.0
  9
$DIMTIX
 70
     0
  9
$DIMSOXD
 70
     0
  9
$DIMSAH
 70
     0
  9
$DIMBLK1
  1

  9
$DIMBLK2
  1

  9
$DIMSTYLE
  2
STANDARD
  9
$DIMCLRD
 70
     0
  9
$DIMCLRE
 70
     0
  9
$DIMCLRT
 70
     0
  9
$DIMTFAC
 40
1.0
  9
$DIMGAP
 40
0.09
  9
$LUNITS
 70
     2
  9
$LUPREC
 70
     4
  9
$SKETCHINC
 40
0.1
  9
$FILLETRAD
 40
0.0
  9
$AUNITS
 70
     0
  9
$AUPREC
 70
     0
  9
$MENU
  1
.
  9
$ELEVATION
 40
0.0
  9
$PELEVATION
 40
0.0
  9
$THICKNESS
 40
0.0
  9
$LIMCHECK
 70
     0
  9
$BLIPMODE
 70
     0
  9
$CHAMFERA
 40
0.0
  9
$CHAMFERB
 40
0.0
  9
$SKPOLY
 70
     0
  9
$TDCREATE
 40
2457564.58648148085922
  9
$TDUPDATE
 40
2459058.755879629869014
  9
$TDINDWG
 40
0.2557373843
  9
$TDUSRTIMER
 40
0.2557373843
  9
$USRTIMER
 70
     1
  9
$ANGBASE
 50
0.0
  9
$ANGDIR
 70
     0
  9
$PDMODE
 70
     0
  9
$PDSIZE
 40
0.3125
  9
$PLINEWID
 40
0.0
  9
$COORDS
 70
     1
  9
$SPLFRAME
 70
     0
  9
$SPLINETYPE
 70
     6
  9
$SPLINESEGS
 70
     8
  9
$ATTDIA
 70
     1
  9
$ATTREQ
 70
     1
  9
$HANDLING
 70
     1
  9
$HANDSEED
  5
1A09
  9
$SURFTAB1
 70
     6
  9
$SURFTAB2
 70
     6
  9
$SURFTYPE
 70
     6
  9
$SURFU
 70
     6
  9
$SURFV
 70
     6
  9
$UCSNAME
  2

  9
$UCSORG
 10
0.0
 20
0.0
 30
0.0
  9
$UCSXDIR
 10
1.0
 20
0.0
 30
0.0
  9
$UCSYDIR
 10
0.0
 20
1.0
 30
0.0
  9
$PUCSNAME
  2

  9
$PUCSORG
 10
0.0
 20
0.0
 30
0.0
  9
$PUCSXDIR
 10
1.0
 20
0.0
 30
0.0
  9
$PUCSYDIR
 10
0.0
 20
1.0
 30
0.0
  9
$USERI1
 70
     0
  9
$USERI2
 70
     0
  9
$USERI3
 70
     0
  9
$USERI4
 70
     0
  9
$USERI5
 70
     0
  9
$USERR1
 40
0.0
  9
$USERR2
 40
0.0
  9
$USERR3
 40
0.0
  9
$USERR4
 40
0.0
  9
$USERR5
 40
0.0
  9
$WORLDVIEW
 70
     1
  9
$SHADEDGE
 70
     3
  9
$SHADEDIF
 70
    70
  9
$TILEMODE
 70
     1
  9
$MAXACTVP
 70
    48
  9
$PLIMCHECK
 70
     0
  9
$PEXTMIN
 10
1.0000000000000000E+20
 20
1.0000000000000000E+20
 30
1.0000000000000000E+20
  9
$PEXTMAX
 10
-1.0000000000000000E+20
 20
-1.0000000000000000E+20
 30
-1.0000000000000000E+20
  9
$PLIMMIN
 10
0.0
 20
0.0
  9
$PLIMMAX
 10
12.0
 20
9.0
  9
$UNITMODE
 70
     0
  9
$VISRETAIN
 70
     1
  9
$PLINEGEN
 70
     0
  9
$PSLTSCALE
 70
     1
  0
ENDSEC
  0
SECTION
  2
TABLES
  0
TABLE
  2
VPORT
 70
     1
  0
VPORT
  2
*ACTIVE
 70
     0
 10
0.0
 20
0.0
 11
1.0
 21
1.0
 12
0.0
 22
0.0
 13
0.0
 23
0.0
 14
1.0
 24
1.0
 15
0.0
 25
0.0
 16
-0.0000000000000049
 26
0.0
 36
22.7880850607223593
 17
-3.4295567572116852
 27
9.8211959974920262
 37
0.0
 40
6.831777970695569
 41
2.5834609494640119
 42
50.0
 43
0.0
 44
0.0
 50
0.0
 51
0.0
 71
     0
 72
   100
 73
     1
 74
     1
 75
     0
 76
     0
 77
     0
 78
     0
  0
ENDTAB
  0
TABLE
  2
LTYPE
 70
     1
  0
LTYPE
  2
CONTINUOUS
 70
     0
  3
Solid line
 72
    65
 73
     0
 40
0.0
  0
ENDTAB
  0
TABLE
  2
LAYER
 70
     2
  0
LAYER
  2
0
 70
     0
 62
     7
  6
CONTINUOUS
  0
LAYER
  2
DEFPOINTS
 70
     0
 62
     7
  6
CONTINUOUS
  0
ENDTAB
  0
TABLE
  2
STYLE
 70
     1
  0
STYLE
  2
STANDARD
 70
     0
 40
0.0
 41
0.8
 50
0.0
 71
     0
 42
0.2
  3
txt
  4

  0
ENDTAB
  0
TABLE
  2
VIEW
 70
     0
  0
ENDTAB
  0
TABLE
  2
UCS
 70
     0
  0
ENDTAB
  0
TABLE
  2
APPID
 70
     5
  0
APPID
  2
ACAD
 70
     0
  0
APPID
  2
ACAD_MLEADERVER
 70
     0
  0
APPID
  2
ACAD_EXEMPT_FROM_CAD_STANDARDS
 70
     0
  0
APPID
  2
ACAD_NAV_VCDISPLAY
 70
     0
  0
APPID
  2
ACDBATTR
 70
     0
  0
ENDTAB
  0
TABLE
  2
DIMSTYLE
 70
     1
  0
DIMSTYLE
  2
STANDARD
 70
     0
  3

  4

  5

  6

  7

 40
1.0
 41
0.1875
 42
0.0625
 43
0.38
 44
0.125
 45
0.0
 46
0.0
 47
1.5
 48
1.5
140
0.15625
141
0.09
142
0.0
143
25.3999999999999986
144
1.0
145
0.0
146
1.0
147
0.09
 71
     0
 72
     0
 73
     1
 74
     1
 75
     0
 76
     0
 77
     0
 78
     4
170
     0
171
     2
172
     0
173
     0
174
     0
175
     0
176
     0
177
     0
178
     0
  0
ENDTAB
  0
ENDSEC
  0
SECTION
  2
BLOCKS
  0
BLOCK
  8
0
  2
$MODEL_SPACE
 70
     0
 10
0.0
 20
0.0
 30
0.0
  3
$MODEL_SPACE
  1

  0
ENDBLK
  5
21
  8
0
  0
BLOCK
 67
     1
  8
0
  2
$PAPER_SPACE
 70
     0
 10
0.0
 20
0.0
 30
0.0
  3
$PAPER_SPACE
  1

  0
ENDBLK
  5
1D
 67
     1
  8
0
  0
BLOCK
  8
0
  2
_FILLED
 70
     0
 10
0.0
 20
0.0
 30
0.0
  3
_FILLED
  1

  0
SOLID
  5
12AF
  8
0
  6
BYBLOCK
 62
     0
 10
0.0
 20
0.0
 30
0.0
 11
-1.0
 21
0.1666666667
 31
0.0
 12
-1.0
 22
-0.1666666667
 32
0.0
 13
-1.0
 23
-0.1666666667
 33
0.0
  0
ENDBLK
  5
12B0
  8
0
  6
BYBLOCK
 62
     0
  0
ENDSEC
  0
SECTION
  2
ENTITIES
  0
ATTDEF
  5
10E7
  8
DEFPOINTS
 10
-3.4285611567408121
 20
11.8384344601940104
 30
0.0
 40
0.001
  1
K-99970T-4
  3

  2
MODELNUMBER
 70
     0
1001
ACDBATTR
1070
     0
1070
     1
  0
ATTDEF
  5
10E8
  8
DEFPOINTS
 10
-3.4285611567408121
 20
11.8367677935273505
 30
0.0
 40
0.001
  1
MODULO
  3

  2
TRADENAME
 70
     0
1001
ACDBATTR
1070
     0
1070
     1
  0
ATTDEF
  5
10E9
  8
DEFPOINTS
 10
-3.4285611567408121
 20
11.8351011268606801
 30
0.0
 40
0.001
  1
VALVE TRIM
  3

  2
PRODUCT
 70
     0
1001
ACDBATTR
1070
     0
1070
     1
  0
LINE
  5
1804
  8
0
 10
-1.327910240810265
 20
11.1625065904708602
 30
0.0
 11
-5.5312034950102653
 21
11.1625065904708496
 31
0.0
  0
LINE
  5
1805
  8
0
 10
-0.673652010310267
 20
11.8338845432708606
 30
0.0
 11
-6.1854617255102653
 21
11.8338845432708606
 31
0.0
  0
LINE
  5
1806
  8
0
 10
-0.7434189902834909
 20
11.5951674767553197
 30
0.0
 11
-6.1156947455370476
 21
11.5951674767553197
 31
0.0
  0
LINE
  5
1807
  8
0
 10
-2.760266183510264
 20
10.4953018660708608
 30
0.0
 11
-2.760266183510264
 21
11.1625065904708602
 31
0.0
  0
LINE
  5
1808
  8
0
 10
-2.760266183510292
 20
10.4244357243708503
 30
0.0
 11
-2.7742043272023191
 21
8.8272826561708584
 31
0.0
  0
LINE
  5
1809
  8
0
 10
-2.5634157898102639
 20
10.4953018660708608
 30
0.0
 11
-2.5634157898102639
 21
11.1625065904708602
 31
0.0
  0
LINE
  5
180A
  8
0
 10
-2.583098845008521
 20
10.4756168267708496
 30
0.0
 11
-4.2760148908120073
 21
10.4756168267708496
 31
0.0
  0
LINE
  5
180B
  8
0
 10
-2.760266183510264
 20
10.4953018660708608
 30
0.0
 11
-4.2956979460102636
 21
10.4953018660708608
 31
0.0
  0
LINE
  5
180C
  8
0
 10
-2.571358820910266
 20
10.4244357243708503
 30
0.0
 11
-4.2877549147404066
 21
10.4244357243708503
 31
0.0
  0
LINE
  5
180D
  8
0
 10
-2.760266183510264
 20
10.4953018660708608
 30
0.0
 11
-2.7794595441564658
 21
10.4756168267708496
 31
0.0
  0
ARC
  5
180E
  8
0
 10
-2.5856500602950412
 20
10.4978508402125907
 30
0.0
 40
0.0223799028855185
 50
276.5457086406765939
 51
353.4600666277329992
  0
ARC
  5
180F
  8
0
 10
-2.5713588210801208
 20
10.4165617085009998
 30
0.0
 40
0.0078740158698558
 50
0.0000005083189972
 51
89.9999987640246388
  0
LINE
  5
1810
  8
0
 10
-2.563484805210265
 20
10.4165617085708497
 30
0.0
 11
-2.57732085987795
 21
8.8310725139338011
 31
0.0
  0
ARC
  5
1811
  8
0
 10
-2.617577041063547
 20
8.8316909335319558
 30
0.0
 40
0.0402609310181382
 50
282.6841115546600918
 51
359.1198855684083924
  0
LINE
  5
1812
  8
0
 10
-2.651998467010265
 20
10.4244357243708503
 30
0.0
 11
-2.651998467010265
 21
10.4756168267708496
 31
0.0
  0
LINE
  5
1813
  8
0
 62
     1
 10
-2.8488488607102651
 20
10.4336075447434595
 30
0.0
 11
-2.8488488607102651
 21
10.4336075447434595
 31
0.0
  0
LINE
  5
1814
  8
0
 10
-2.8488488607102651
 20
10.4244357243708503
 30
0.0
 11
-2.8488488607102651
 21
10.4756168267708496
 31
0.0
  0
LINE
  5
1815
  8
0
 10
-2.608736719974039
 20
8.7924125515708589
 30
0.0
 11
-4.250377015846488
 21
8.7924125515708589
 31
0.0
  0
LINE
  5
1816
  8
0
 10
-2.951635238216983
 20
8.6527821810708581
 30
0.0
 11
-3.9074784976035479
 21
8.6527821810708581
 31
0.0
  0
LINE
  5
1817
  8
0
 10
-3.0766966096574389
 20
8.6527821810708581
 30
0.0
 11
-2.7958039619944079
 21
8.7924125515708589
 31
0.0
  0
LINE
  5
1818
  8
0
 10
-2.951635238216983
 20
8.6527821810708581
 30
0.0
 11
-2.608736719974039
 21
8.7924125515708589
 31
0.0
  0
ARC
  5
1819
  8
0
 10
-2.8151990099060948
 20
8.8285512490340956
 30
0.0
 40
0.0410143065019524
 50
298.2217278521491153
 51
358.2275303973340215
  0
LINE
  5
181A
  8
0
 10
-3.193338788418508
 20
8.6527821810708581
 30
0.0
 11
-3.193316469165814
 21
8.5439516089915664
 31
0.0
  0
ARC
  5
181B
  8
0
 10
-3.1342201876651319
 20
8.5439637286084622
 30
0.0
 40
0.0590962827434427
 50
180.0117503651665913
 51
240.1635035748101075
  0
ARC
  5
181C
  8
0
 10
-3.1734462139463062
 20
8.4755722793387598
 30
0.0
 40
0.0197457838899359
 50
359.6303440133348772
 51
60.1635035748110809
  0
LINE
  5
181D
  8
0
 10
-3.153700841010262
 20
8.4754448860708571
 30
0.0
 11
-3.1574799413360921
 21
8.0423747857530223
 31
0.0
  0
ARC
  5
181E
  8
0
 10
-3.1772162178483461
 20
8.0425984497105496
 30
0.0
 40
0.0197375438222213
 50
270.0712998691943767
 51
359.3507158137986721
  0
LINE
  5
181F
  8
0
 10
-3.1389835199249161
 20
8.4927075447260343
 30
0.0
 11
-3.7201302158956149
 21
8.4927075447260343
 31
0.0
  0
ARC
  5
1820
  8
0
 10
-3.3221480390403211
 20
8.4670344575408016
 30
0.0
 40
0.0196850392300547
 50
359.9999997964164891
 51
90.0000004946461871
  0
LINE
  5
1821
  8
0
 10
-3.3024629998102659
 20
8.4670344574708594
 30
0.0
 11
-3.3062162295159889
 21
8.0510943202900798
 31
0.0
  0
ARC
  5
1822
  8
0
 10
-3.325900625288952
 20
8.0512550508458531
 30
0.0
 40
0.0196850519749947
 50
270.0000150742091023
 51
359.532168630945705
  0
ARC
  5
1823
  8
0
 10
-3.173544116210258
 20
8.622782181070864
 30
0.0
 40
0.0299999999999929
 50
2.000001555392751
 51
90.0
  0
LINE
  5
1824
  8
0
 10
-3.143562391428115
 20
8.6238291667858427
 30
0.0
 11
-3.133601760606854
 21
8.3385942417370451
 31
0.0
  0
ARC
  5
1825
  8
0
 10
-3.0136748578268562
 20
8.3427821847244736
 30
0.0
 40
0.1200000036536209
 50
182.0000015553927994
 51
269.9999806008692076
  0
ARC
  5
1826
  8
0
 10
-3.0137366956098179
 20
-174.2965630421242906
 30
0.0
 40
182.5193452232055904
 50
89.9850798702615577
 51
90.0446292949154099
  0
LINE
  5
1827
  8
0
 10
-2.9662076750979138
 20
8.2227759926747712
 30
0.0
 11
-2.9780671201102642
 21
7.8454717128708591
 31
0.0
  0
ARC
  5
1828
  8
0
 10
-3.008145954017944
 20
7.8466191785118564
 30
0.0
 40
0.0301007130587108
 50
270.1563121456301246
 51
357.8153051690583766
  0
ARC
  5
1829
  8
0
 10
-2.608279919822869
 20
13.3188650209102004
 30
0.0
 40
5.5168508736481501
 50
264.1700842664894822
 51
265.8443636070061871
  0
ARC
  5
182A
  8
0
 10
-3.1879517013089611
 20
7.8600582545230067
 30
0.0
 40
0.035257289059967
 50
292.8734080715706796
 51
354.3363746362123265
  0
LINE
  5
182B
  8
0
 10
-3.1528665234102631
 20
7.8565787827708577
 30
0.0
 11
-3.1398806284837479
 21
8.2227385903767942
 31
0.0
  0
ARC
  5
182C
  8
0
 10
-1.3276099352972031
 20
11.2205849716858204
 30
0.0
 40
0.0580791576036761
 50
269.7037437207627022
 51
336.9759353723138133
  0
ARC
  5
182D
  8
0
 10
-0.6869449284750218
 20
10.9665780496144105
 30
0.0
 40
0.6311212146414354
 50
95.1338143194441557
 51
158.5015186820101007
  0
ARC
  5
182E
  8
0
 10
-0.748525382575842
 20
11.6536775700366899
 30
0.0
 40
0.0587324974612678
 50
274.9877767922893099
 51
354.93399796094252
  0
LINE
  5
182F
  8
0
 10
-0.6900223155207535
 20
11.6484912993934202
 30
0.0
 11
-0.673652010310267
 21
11.8338845432708606
 31
0.0
  0
LINE
  5
1830
  8
0
 10
-3.3221480392102651
 20
8.4867194967708564
 30
0.0
 11
-3.5369656967802099
 21
8.4867194967708564
 31
0.0
  0
LINE
  5
1831
  8
0
 10
-3.5332131105315758
 20
8.0315699988708573
 30
0.0
 11
-3.3259006201099188
 21
8.0315699988708573
 31
0.0
  0
LINE
  5
1832
  8
0
 10
-3.6819220797099201
 20
8.0228609211708601
 30
0.0
 11
-3.1771916561102671
 21
8.0228609211708601
 31
0.0
  0
LINE
  5
1833
  8
0
 10
-4.0988475523102643
 20
10.4953018660708608
 30
0.0
 11
-4.0988475523102643
 21
11.1625065904708602
 31
0.0
  0
LINE
  5
1834
  8
0
 10
-4.0988475523102386
 20
10.4244357243708503
 30
0.0
 11
-4.0849094086182118
 21
8.8272826561708584
 31
0.0
  0
LINE
  5
1835
  8
0
 10
-4.2956979460102636
 20
10.4953018660708608
 30
0.0
 11
-4.2956979460102636
 21
11.1625065904708602
 31
0.0
  0
LINE
  5
1836
  8
0
 10
-4.0988475523102643
 20
10.4953018660708608
 30
0.0
 11
-4.0796541916640621
 21
10.4756168267708496
 31
0.0
  0
ARC
  5
1837
  8
0
 10
-4.2734636755254867
 20
10.4978508402125907
 30
0.0
 40
0.0223799028855185
 50
186.5399333722668871
 51
263.4542913593234061
  0
ARC
  5
1838
  8
0
 10
-4.2877549147404066
 20
10.4165617085009998
 30
0.0
 40
0.0078740158698558
 50
90.000001235975347
 51
179.9999994916809953
  0
LINE
  5
1839
  8
0
 10
-4.2956289306102633
 20
10.4165617085708497
 30
0.0
 11
-4.2817928759425783
 21
8.8310725139338011
 31
0.0
  0
ARC
  5
183A
  8
0
 10
-4.2415366947569799
 20
8.8316909335319558
 30
0.0
 40
0.0402609310181382
 50
180.8801144315914939
 51
257.3158884453399082
  0
LINE
  5
183B
  8
0
 10
-4.2071152688102664
 20
10.4244357243708503
 30
0.0
 11
-4.207115268810262
 21
10.4756168267708496
 31
0.0
  0
LINE
  5
183C
  8
0
 62
     1
 10
-4.0102648751102663
 20
10.4336075447434595
 30
0.0
 11
-4.0102648751102663
 21
10.4336075447434595
 31
0.0
  0
LINE
  5
183D
  8
0
 10
-4.0102648751102663
 20
10.4244357243708503
 30
0.0
 11
-4.0102648751102663
 21
10.4756168267708496
 31
0.0
  0
LINE
  5
183E
  8
0
 10
-3.782417126163089
 20
8.6527821810708581
 30
0.0
 11
-4.063309773826119
 21
8.7924125515708589
 31
0.0
  0
LINE
  5
183F
  8
0
 10
-3.9074784976035448
 20
8.6527821810708581
 30
0.0
 11
-4.250377015846488
 21
8.7924125515708589
 31
0.0
  0
ARC
  5
1840
  8
0
 10
-4.0439147259144326
 20
8.8285512490340956
 30
0.0
 40
0.0410143065019524
 50
181.772469602665808
 51
241.7782721478507142
  0
LINE
  5
1841
  8
0
 10
-3.6657749474020198
 20
8.6527821810708581
 30
0.0
 11
-3.6657972666547169
 21
8.5439516089915664
 31
0.0
  0
ARC
  5
1842
  8
0
 10
-3.7248935481553991
 20
8.5439637286084622
 30
0.0
 40
0.0590962827434427
 50
299.836496425189921
 51
359.9882496348333234
  0
ARC
  5
1843
  8
0
 10
-3.6856675218742261
 20
8.4755722793387598
 30
0.0
 40
0.0197457838899359
 50
119.8364964251888978
 51
180.3696559866650091
  0
LINE
  5
1844
  8
0
 10
-3.7054128948102649
 20
8.4754448860708571
 30
0.0
 11
-3.7016337944844402
 21
8.0423747857530223
 31
0.0
  0
ARC
  5
1845
  8
0
 10
-3.6818975179721849
 20
8.0425984497105496
 30
0.0
 40
0.0197375438222213
 50
180.6492841862009868
 51
269.9287001308055096
  0
ARC
  5
1846
  8
0
 10
-3.5369656967802099
 20
8.4670344575408016
 30
0.0
 40
0.0196850392300547
 50
89.9999995053538271
 51
180.0000002035835109
  0
LINE
  5
1847
  8
0
 10
-3.556650736010265
 20
8.4670344574708594
 30
0.0
 11
-3.552897506304542
 21
8.0510943202900798
 31
0.0
  0
ARC
  5
1848
  8
0
 10
-3.5332131105315758
 20
8.0512550508458531
 30
0.0
 40
0.0196850519749947
 50
180.4678313690540108
 51
269.9999849257907272
  0
ARC
  5
1849
  8
0
 10
-3.685569619610269
 20
8.622782181070864
 30
0.0
 40
0.0299999999999929
 50
90.0
 51
177.9999984446072858
  0
LINE
  5
184A
  8
0
 10
-3.715551344392416
 20
8.6238291667858427
 30
0.0
 11
-3.7255119752136769
 21
8.3385942417370451
 31
0.0
  0
ARC
  5
184B
  8
0
 10
-3.8454388779936748
 20
8.3427821847244736
 30
0.0
 40
0.1200000036536209
 50
270.0000193991306219
 51
357.9999984446071153
  0
ARC
  5
184C
  8
0
 10
-3.845377040210713
 20
-174.2965630421242906
 30
0.0
 40
182.5193452232055904
 50
89.9553707050845617
 51
90.0149201297384423
  0
ARC
  5
184D
  8
0
 10
-3.6611262604530639
 20
7.8668527083679427
 30
0.0
 40
0.0459623324419435
 50
188.8131075209082894
 51
239.3855797906659859
  0
LINE
  5
184E
  8
0
 10
-3.7065459320494591
 20
7.859810731686701
 30
0.0
 11
-3.7192222891153279
 21
8.2227385828996695
 31
0.0
  0
ARC
  5
184F
  8
0
 10
-5.5315038005233239
 20
11.2205849716858204
 30
0.0
 40
0.0580791576036761
 50
203.0240646276859877
 51
270.2962562792371273
  0
ARC
  5
1850
  8
0
 10
-6.1721688073455061
 20
10.9665780496144105
 30
0.0
 40
0.6311212146414354
 50
21.4984813179899099
 51
84.866185680555887
  0
ARC
  5
1851
  8
0
 10
-6.1105883532446859
 20
11.6536775700366899
 30
0.0
 40
0.0587324974612678
 50
185.0660020390571958
 51
265.0122232077106901
  0
LINE
  5
1852
  8
0
 10
-6.1690914202997753
 20
11.6484912993934202
 30
0.0
 11
-6.1854617255102653
 21
11.8338845432708606
 31
0.0
  0
ARC
  5
1853
  8
0
 10
-3.4300241006933581
 20
8.9974164663695628
 30
0.0
 40
1.1974784270512751
 50
257.7289131773047188
 51
282.3331794392406096
  0
LINE
  5
1855
  8
0
 10
-3.892906060722614
 20
8.2227759926747712
 30
0.0
 11
-3.8810466157102641
 21
7.8454717128708591
 31
0.0
  0
ARC
  5
1856
  8
0
 10
-3.8509677818025838
 20
7.8466191785118564
 30
0.0
 40
0.0301007130587108
 50
182.184694830941595
 51
269.8436878543698185
  0
ARC
  5
1857
  8
0
 10
-4.250833815997658
 20
13.3188650209102004
 30
0.0
 40
5.5168508736481501
 50
274.1556363929936992
 51
275.8404552540724239
  0
LINE
  5
1858
  8
0
 10
-3.008063834499326
 20
7.8165185774700641
 30
0.0
 11
-3.1230170680245268
 21
7.8639854153934747
 31
0.0
  0
ARC
  5
1859
  8
0
 10
-3.127845561938118
 20
7.8524226392465097
 30
0.0
 40
0.0125304487428985
 50
67.3350970110672051
 51
113.7927711726693047
  0
LINE
  5
185A
  8
0
 10
-3.1329007190647271
 20
7.8638881323507661
 30
0.0
 11
-3.1528640898625908
 21
7.8566474008640137
 31
0.0
  0
LINE
  5
185B
  8
0
 10
-3.8510499013212018
 20
7.8165185774700641
 30
0.0
 11
-3.736096667796001
 21
7.8639854153934747
 31
0.0
  0
ARC
  5
185C
  8
0
 10
-3.7312681738824098
 20
7.8524226392465097
 30
0.0
 40
0.0125304487428985
 50
66.2072288273305531
 51
112.6649029889327949
  0
LINE
  5
185D
  8
0
 10
-3.7262130167558012
 20
7.8638881323507661
 30
0.0
 11
-3.706249645957937
 21
7.8566474008640137
 31
0.0
  0
ENDSEC
  0
EOF
