  0
SECTION
  2
HEADER
  9
$ACADVER
  1
AC1009
  9
$INSBASE
 10
4143.5269225807551265
 20
42.6498941848023918
 30
0.0
  9
$EXTMIN
 10
4130.7615015978226438
 20
34.9785593192382294
 30
0.0
  9
$EXTMAX
 10
4149.2393750288802039
 20
49.8930042979797719
 30
0.0
  9
$LIMMIN
 10
0.0
 20
0.0
  9
$LIMMAX
 10
11.6929133858000007
 20
8.2677165353999982
  9
$ORTHOMODE
 70
     0
  9
$REGENMODE
 70
     1
  9
$FILLMODE
 70
     1
  9
$QTEXTMODE
 70
     0
  9
$MIRRTEXT
 70
     0
  9
$DRAGMODE
 70
     2
  9
$LTSCALE
 40
0.6431102362
  9
$OSMODE
 70
  4095
  9
$ATTMODE
 70
     1
  9
$TEXTSIZE
 40
0.2
  9
$TRACEWID
 40
0.05
  9
$TEXTSTYLE
  7
STANDARD
  9
$CLAYER
  8
0
  9
$CELTYPE
  6
BYLAYER
  9
$CECOLOR
 62
   256
  9
$DIMSCALE
 40
1.0
  9
$DIMASZ
 40
0.1875
  9
$DIMEXO
 40
0.0625
  9
$DIMDLI
 40
0.4443307087
  9
$DIMRND
 40
0.0
  9
$DIMDLE
 40
0.0
  9
$DIMEXE
 40
0.125
  9
$DIMTP
 40
0.01
  9
$DIMTM
 40
0.01
  9
$DIMTXT
 40
2.0
  9
$DIMCEN
 40
0.1052362205
  9
$DIMTSZ
 40
0.0
  9
$DIMTOL
 70
     1
  9
$DIMLIM
 70
     0
  9
$DIMTIH
 70
     1
  9
$DIMTOH
 70
     1
  9
$DIMSE1
 70
     0
  9
$DIMSE2
 70
     0
  9
$DIMTAD
 70
     0
  9
$DIMZIN
 70
     0
  9
$DIMBLK
  1

  9
$DIMASO
 70
     1
  9
$DIMSHO
 70
     1
  9
$DIMPOST
  1
\X
  9
$DIMAPOST
  1

  9
$DIMALT
 70
     1
  9
$DIMALTD
 70
     2
  9
$DIMALTF
 40
25.3999999999999986
  9
$DIMLFAC
 40
1.0
  9
$DIMTOFL
 70
     0
  9
$DIMTVP
 40
0.0
  9
$DIMTIX
 70
     0
  9
$DIMSOXD
 70
     0
  9
$DIMSAH
 70
     0
  9
$DIMBLK1
  1

  9
$DIMBLK2
  1

  9
$DIMSTYLE
  2
STANDARD
  9
$DIMCLRD
 70
     0
  9
$DIMCLRE
 70
     0
  9
$DIMCLRT
 70
     0
  9
$DIMTFAC
 40
1.0
  9
$DIMGAP
 40
0.09
  9
$LUNITS
 70
     2
  9
$LUPREC
 70
     4
  9
$SKETCHINC
 40
0.1
  9
$FILLETRAD
 40
0.0
  9
$AUNITS
 70
     0
  9
$AUPREC
 70
     0
  9
$MENU
  1
.
  9
$ELEVATION
 40
0.0
  9
$PELEVATION
 40
0.0
  9
$THICKNESS
 40
0.0
  9
$LIMCHECK
 70
     0
  9
$BLIPMODE
 70
     0
  9
$CHAMFERA
 40
0.0
  9
$CHAMFERB
 40
0.0
  9
$SKPOLY
 70
     0
  9
$TDCREATE
 40
2458060.468368056230247
  9
$TDUPDATE
 40
2459091.6461574072018266
  9
$TDINDWG
 40
0.4265116898
  9
$TDUSRTIMER
 40
0.4265116898
  9
$USRTIMER
 70
     1
  9
$ANGBASE
 50
0.0
  9
$ANGDIR
 70
     0
  9
$PDMODE
 70
     0
  9
$PDSIZE
 40
0.3125
  9
$PLINEWID
 40
0.0
  9
$COORDS
 70
     1
  9
$SPLFRAME
 70
     0
  9
$SPLINETYPE
 70
     6
  9
$SPLINESEGS
 70
     8
  9
$ATTDIA
 70
     1
  9
$ATTREQ
 70
     1
  9
$HANDLING
 70
     1
  9
$HANDSEED
  5
A4F2
  9
$SURFTAB1
 70
     6
  9
$SURFTAB2
 70
     6
  9
$SURFTYPE
 70
     6
  9
$SURFU
 70
     6
  9
$SURFV
 70
     6
  9
$UCSNAME
  2

  9
$UCSORG
 10
0.0
 20
0.0
 30
0.0
  9
$UCSXDIR
 10
1.0
 20
0.0
 30
0.0
  9
$UCSYDIR
 10
0.0
 20
1.0
 30
0.0
  9
$PUCSNAME
  2

  9
$PUCSORG
 10
0.0
 20
0.0
 30
0.0
  9
$PUCSXDIR
 10
1.0
 20
0.0
 30
0.0
  9
$PUCSYDIR
 10
0.0
 20
1.0
 30
0.0
  9
$USERI1
 70
     0
  9
$USERI2
 70
     0
  9
$USERI3
 70
     0
  9
$USERI4
 70
     0
  9
$USERI5
 70
     0
  9
$USERR1
 40
0.0
  9
$USERR2
 40
0.0
  9
$USERR3
 40
0.0
  9
$USERR4
 40
0.0
  9
$USERR5
 40
0.0
  9
$WORLDVIEW
 70
     1
  9
$SHADEDGE
 70
     3
  9
$SHADEDIF
 70
    70
  9
$TILEMODE
 70
     1
  9
$MAXACTVP
 70
    64
  9
$PLIMCHECK
 70
     0
  9
$PEXTMIN
 10
1.0000000000000000E+20
 20
1.0000000000000000E+20
 30
1.0000000000000000E+20
  9
$PEXTMAX
 10
-1.0000000000000000E+20
 20
-1.0000000000000000E+20
 30
-1.0000000000000000E+20
  9
$PLIMMIN
 10
0.0
 20
0.0
  9
$PLIMMAX
 10
12.0
 20
9.0
  9
$UNITMODE
 70
     0
  9
$VISRETAIN
 70
     1
  9
$PLINEGEN
 70
     0
  9
$PSLTSCALE
 70
     1
  0
ENDSEC
  0
SECTION
  2
TABLES
  0
TABLE
  2
VPORT
 70
     1
  0
VPORT
  2
*ACTIVE
 70
     0
 10
0.0
 20
0.0
 11
1.0
 21
1.0
 12
371.510139050979376
 22
-78.8438129821582976
 13
0.0
 23
0.0
 14
1.0
 24
1.0
 15
0.0
 25
0.0
 16
0.0
 26
0.0
 36
5.1040778033513332
 17
3792.35791015625
 27
120.1806564331053977
 37
0.0
 40
46.5278573007459713
 41
2.005224660397074
 42
50.0
 43
0.0
 44
0.0
 50
0.0
 51
0.0
 71
     0
 72
   100
 73
     1
 74
     1
 75
     0
 76
     0
 77
     0
 78
     0
  0
ENDTAB
  0
TABLE
  2
LTYPE
 70
     2
  0
LTYPE
  2
CONTINUOUS
 70
     0
  3
Solid line
 72
    65
 73
     0
 40
0.0
  0
LTYPE
  2
PHANTOM2
 70
     0
  3
___ _ _ ___ _ _ ___ _ _ ___ _ _
 72
    65
 73
     6
 40
1.25
 49
0.625
 49
-0.125
 49
0.125
 49
-0.125
 49
0.125
 49
-0.125
  0
ENDTAB
  0
TABLE
  2
LAYER
 70
     2
  0
LAYER
  2
0
 70
     0
 62
   255
  6
CONTINUOUS
  0
LAYER
  2
DEFPOINTS
 70
     0
 62
     7
  6
CONTINUOUS
  0
ENDTAB
  0
TABLE
  2
STYLE
 70
     1
  0
STYLE
  2
STANDARD
 70
     0
 40
0.0
 41
0.8
 50
0.0
 71
     0
 42
0.2
  3
txt
  4

  0
ENDTAB
  0
TABLE
  2
VIEW
 70
     0
  0
ENDTAB
  0
TABLE
  2
UCS
 70
     0
  0
ENDTAB
  0
TABLE
  2
APPID
 70
     9
  0
APPID
  2
ACAD
 70
     0
  0
APPID
  2
ACAD_MLEADERVER
 70
     0
  0
APPID
  2
ACAD_EXEMPT_FROM_CAD_STANDARDS
 70
     0
  0
APPID
  2
ACAD_NAV_VCDISPLAY
 70
     0
  0
APPID
  2
ACAECLAYERSTANDARD
 70
     0
  0
APPID
  2
ACCMTRANSPARENCY
 70
     0
  0
APPID
  2
ACAD_DSTYLE_DIMJAG
 70
     0
  0
APPID
  2
ACAD_DSTYLE_DIMTALN
 70
     0
  0
APPID
  2
ACDBATTR
 70
     0
  0
ENDTAB
  0
TABLE
  2
DIMSTYLE
 70
     1
  0
DIMSTYLE
  2
STANDARD
 70
     0
  3

  4

  5

  6

  7

 40
1.0
 41
0.1875
 42
0.0625
 43
0.38
 44
0.125
 45
0.0
 46
0.0
 47
0.01
 48
0.01
140
0.15625
141
0.09
142
0.0
143
25.3999999999999986
144
1.0
145
0.0
146
1.0
147
0.09
 71
     1
 72
     0
 73
     1
 74
     1
 75
     0
 76
     0
 77
     0
 78
     4
170
     0
171
     2
172
     0
173
     0
174
     0
175
     0
176
     0
177
     0
178
     0
  0
ENDTAB
  0
ENDSEC
  0
SECTION
  2
BLOCKS
  0
BLOCK
  8
0
  2
$MODEL_SPACE
 70
     0
 10
0.0
 20
0.0
 30
0.0
  3
$MODEL_SPACE
  1

  0
ENDBLK
  5
21
  8
0
  0
BLOCK
 67
     1
  8
0
  2
$PAPER_SPACE
 70
     0
 10
0.0
 20
0.0
 30
0.0
  3
$PAPER_SPACE
  1

  0
ENDBLK
  5
1D
 67
     1
  8
0
  0
BLOCK
  8
0
  2
_FILLED
 70
     0
 10
0.0
 20
0.0
 30
0.0
  3
_FILLED
  1

  0
SOLID
  5
69B4
  8
0
  6
BYBLOCK
 62
     0
 10
0.0
 20
0.0
 30
0.0
 11
-1.0
 21
0.1666666667
 31
0.0
 12
-1.0
 22
-0.1666666667
 32
0.0
 13
-1.0
 23
-0.1666666667
 33
0.0
  0
ENDBLK
  5
69B5
  8
0
  6
BYBLOCK
 62
     0
  0
BLOCK
  8
0
  2
A$CDFAF6206
 70
     0
 10
0.0
 20
0.0
 30
0.0
  3
A$CDFAF6206
  1

  0
LINE
  5
6A0E
  8
0
 10
7.4646650085734834
 20
10.9287685970688493
 30
0.0
 11
7.4646650085734896
 21
10.8905784766688498
 31
0.0
  0
ARC
  5
6A0F
  8
0
 10
7.7269027075262349
 20
10.8926811525838598
 30
0.0
 40
0.2622461286616791
 50
180.4593995232625048
 51
217.0214027758331099
  0
LINE
  5
6A10
  8
0
 10
9.767814609867095
 20
10.9287685970688493
 30
0.0
 11
9.767814609867095
 21
10.8905433757650094
 31
0.0
  0
ARC
  5
6A11
  8
0
 10
9.5068669568548287
 20
10.8922438613003703
 30
0.0
 40
0.2609531936261092
 50
322.8847083717149076
 51
359.6266329125650145
  0
LINE
  5
6A12
  8
0
 10
7.517522606271406
 20
10.7347792678688396
 30
0.0
 11
9.7149570120691777
 21
10.7347792678688396
 31
0.0
  0
LINE
  5
6A13
  8
0
 10
7.4646650085734834
 20
10.9287685970688493
 30
0.0
 11
9.7678146123202936
 21
10.9287685970688493
 31
0.0
  0
ARC
  5
6A14
  8
0
 10
4.0826771419203629
 20
8.527951346868889
 30
0.0
 40
4.0826771653999172
 50
13.3117747050523896
 51
32.7200330051415591
  0
ARC
  5
6A15
  8
0
 10
4.0826771460567306
 20
8.5279513475907933
 30
0.0
 40
4.0826771612084691
 50
359.6656501984817851
 51
13.3117747085593798
  0
ARC
  5
6A16
  8
0
 10
13.1498041284835097
 20
8.5279508235212234
 30
0.0
 40
4.0826788382043553
 50
147.2799733478981068
 51
166.6882233021349862
  0
ARC
  5
6A17
  8
0
 10
13.1498064934207992
 20
8.5279506557033251
 30
0.0
 40
4.0826811782395342
 50
166.688228652086309
 51
180.3343397625230011
  0
LINE
  5
6A18
  8
0
 10
8.1652847935202928
 20
8.504127000268852
 30
0.0
 11
9.0671948248202892
 21
8.5041270002687881
 31
0.0
  0
LINE
  5
6A19
  8
0
 10
8.1652847935202786
 20
8.5041270002667204
 30
0.0
 11
8.1652847935202928
 21
8.3607006934688481
 31
0.0
  0
ARC
  5
6A1A
  8
0
 10
5.6196779630382627
 20
8.3631022096452732
 30
0.0
 40
2.545607963272567
 50
342.0511668832173768
 51
359.945947387132378
  0
LINE
  5
6A1B
  8
0
 10
9.0671948248202892
 20
8.5041270002687881
 30
0.0
 11
9.0671948248202892
 21
8.2885990108688503
 31
0.0
  0
ARC
  5
6A1C
  8
0
 10
9.4521885297801163
 20
7.9614488056228501
 30
0.0
 40
0.5052201595850959
 50
139.6436242991769916
 51
174.6757930071850069
  0
ARC
  5
6A1D
  8
0
 10
9.9238413395551746
 20
8.1492417579399508
 30
0.0
 40
0.9848265662939324
 50
188.2263441834095943
 51
209.5593615864376034
  0
ARC
  5
6A1E
  8
0
 10
8.0788764238271256
 20
7.5665710856463297
 30
0.0
 40
0.0393715937169877
 50
162.1669117288323037
 51
227.2023190037006088
  0
ARC
  5
6A1F
  8
0
 10
8.7223682141740682
 20
8.2079667397440517
 30
0.0
 40
0.947895137885075
 50
225.0018610752970858
 51
261.4598823366255829
  0
ARC
  5
6A20
  8
0
 10
8.6645157662702701
 20
8.1695128573935332
 30
0.0
 40
0.9027466462812931
 50
264.7303071214498118
 51
281.8608311947915013
  0
ARC
  5
6A21
  8
0
 10
8.6645157662698935
 20
8.1695128573999671
 30
0.0
 40
0.9027466462876658
 50
299.1741886792128753
 51
299.1743179154552195
  0
ARC
  5
6A22
  8
0
 10
9.0843330931590316
 20
7.4150554710086141
 30
0.0
 40
0.0393703053609601
 50
251.9700352025496954
 51
252.4698971938937859
  0
ARC
  5
6A23
  8
0
 10
9.0843330931590316
 20
7.4150554710086141
 30
0.0
 40
0.0393703053609601
 50
297.2453716727138726
 51
6.8376113572703074
  0
LINE
  5
6A24
  8
0
 10
9.0671948248202892
 20
7.663402160468852
 30
0.0
 11
9.1234233799329516
 21
7.419742732911689
 31
0.0
  0
ARC
  5
6A25
  8
0
 10
8.8843741880892395
 20
9.8961379890094676
 30
0.0
 40
2.5255097382132701
 50
263.792800240752797
 51
274.9514951129821156
  0
ARC
  5
6A26
  8
0
 10
8.8258167405968848
 20
9.2763025889666508
 30
0.0
 40
1.9029970832759311
 50
246.0108363320686067
 51
263.5276935074397215
  0
ARC
  5
6A27
  8
0
 10
8.607491361665744
 20
8.3225444804829642
 30
0.0
 40
1.064510137163637
 50
283.1717405874071005
 51
297.7022170607311864
  0
LINE
  5
6A28
  8
0
 10
9.0671948248202892
 20
8.2885990108688503
 30
0.0
 11
26.2014378595979593
 21
8.2885990108689942
 31
0.0
  0
LINE
  5
6A29
  8
0
 10
26.2014378595979913
 20
7.6634021604689053
 30
0.0
 11
9.0671948248202892
 21
7.6634021604688618
 31
0.0
  0
LINE
  5
6A2A
  8
0
 10
27.8039676758446994
 20
10.9287685970690802
 30
0.0
 11
27.8039676758446888
 21
10.8905784766690807
 31
0.0
  0
ARC
  5
6A2B
  8
0
 10
27.5417299768919399
 20
10.8926811525840801
 30
0.0
 40
0.2622461286616791
 50
322.9785972241680838
 51
359.5406004767386889
  0
LINE
  5
6A2C
  8
0
 10
25.5008180745510913
 20
10.9287685970690305
 30
0.0
 11
25.5008180745510913
 21
10.8905433757651799
 31
0.0
  0
ARC
  5
6A2D
  8
0
 10
25.7617657275633505
 20
10.8922438613005497
 30
0.0
 40
0.2609531936261092
 50
180.3733670874362929
 51
217.1152916282862861
  0
LINE
  5
6A2E
  8
0
 10
27.7511100781467803
 20
10.7347792678690706
 30
0.0
 11
25.5536756723490015
 21
10.7347792678690208
 31
0.0
  0
LINE
  5
6A2F
  8
0
 10
27.8039676758446888
 20
10.9287685970686006
 30
0.0
 11
25.5008180745510806
 21
10.9287685970686006
 31
0.0
  0
ARC
  5
6A30
  8
0
 10
31.1859555424978616
 20
8.5279513468691981
 30
0.0
 40
4.0826771653999172
 50
147.2799669948597057
 51
166.6882252949490066
  0
ARC
  5
6A31
  8
0
 10
31.185955538361501
 20
8.5279513475911024
 30
0.0
 40
4.0826771612084691
 50
166.6882252914419098
 51
180.3343498015194086
  0
ARC
  5
6A32
  8
0
 10
22.1188285559344706
 20
8.5279508235212251
 30
0.0
 40
4.0826788382046102
 50
13.3117766978667795
 51
32.7200266521023977
  0
ARC
  5
6A33
  8
0
 10
22.1188261909974315
 20
8.5279506557034264
 30
0.0
 40
4.0826811782395342
 50
359.665660237478221
 51
13.31177134791497
  0
LINE
  5
6A34
  8
0
 10
27.1033478908979397
 20
8.5041270002690652
 30
0.0
 11
26.2014378595979416
 21
8.5041270002689835
 31
0.0
  0
LINE
  5
6A35
  8
0
 10
27.1033478908979504
 20
8.5041270002669354
 30
0.0
 11
27.1033478908979397
 21
8.3607006934690649
 31
0.0
  0
ARC
  5
6A36
  8
0
 10
29.6489547213799689
 20
8.3631022096455467
 30
0.0
 40
2.545607963272567
 50
180.0540526128687873
 51
197.9488331167837032
  0
LINE
  5
6A37
  8
0
 10
26.2014378595979416
 20
8.5041270002689835
 30
0.0
 11
26.2014378595979487
 21
8.2885990108690457
 31
0.0
  0
ARC
  5
6A38
  8
0
 10
25.8164441546381305
 20
7.9614488056230366
 30
0.0
 40
0.5052201595850959
 50
5.324206992816312
 51
40.3563757008241879
  0
ARC
  5
6A39
  8
0
 10
25.3447913448601803
 20
8.149241757940846
 30
0.0
 40
0.9848265662968968
 50
330.4406384136033807
 51
351.7736558165743759
  0
ARC
  5
6A3A
  8
0
 10
27.1897562605911212
 20
7.5665710856465473
 30
0.0
 40
0.0393715937169877
 50
312.7976809963004143
 51
17.8330882711689185
  0
ARC
  5
6A3B
  8
0
 10
26.5462644702441715
 20
8.2079667397442542
 30
0.0
 40
0.947895137885075
 50
278.5401176633754972
 51
314.9981389247041079
  0
ARC
  5
6A3C
  8
0
 10
26.6041169181479695
 20
8.1695128573937392
 30
0.0
 40
0.9027466462812931
 50
258.139168805210204
 51
275.2696928785518935
  0
ARC
  5
6A3D
  8
0
 10
26.6041169181483497
 20
8.1695128574001732
 30
0.0
 40
0.9027466462876658
 50
240.8256820845460027
 51
240.8258113207880058
  0
ARC
  5
6A3E
  8
0
 10
26.1842995912592293
 20
7.4150554710088086
 30
0.0
 40
0.0393703053609601
 50
287.5301028061073794
 51
288.0299647974517825
  0
ARC
  5
6A3F
  8
0
 10
26.1842995912592293
 20
7.4150554710088086
 30
0.0
 40
0.0393703053609601
 50
173.1623886427310026
 51
242.7546283272870085
  0
LINE
  5
6A40
  8
0
 10
26.2014378595981192
 20
7.6634021604690448
 30
0.0
 11
26.1452093044853093
 21
7.4197427329118826
 31
0.0
  0
ARC
  5
6A41
  8
0
 10
26.384258496328961
 20
9.8961379890096666
 30
0.0
 40
2.5255097382132701
 50
265.0485048870193054
 51
276.2071997592482262
  0
ARC
  5
6A42
  8
0
 10
26.4428159438213299
 20
9.2763025889668516
 30
0.0
 40
1.9029970832759311
 50
276.4723064925619838
 51
293.9891636679327007
  0
ARC
  5
6A43
  8
0
 10
26.6611413227524885
 20
8.3225444804831703
 30
0.0
 40
1.064510137163637
 50
242.2977829392704052
 51
256.8282594125943774
  0
LINE
  5
6A44
  8
0
 62
     4
 10
17.9031473532159602
 20
10.9287685970686006
 30
0.0
 11
24.6329820359843588
 21
20.0952817181593808
 31
0.0
  0
LINE
  5
6A45
  8
0
 62
     4
 10
17.9031473532159602
 20
-0.0000000300842942
 30
0.0
 11
22.3963351323106608
 21
4.993614497796286
 31
0.0
  0
ENDBLK
  5
6A49
  8
0
  0
ENDSEC
  0
SECTION
  2
ENTITIES
  0
ATTDEF
  5
3930
  8
DEFPOINTS
 10
4143.5270586143196851
 20
42.6516621487382324
 30
0.0
 40
0.001
  1
K-99965T-4A
  3

  2
MODELNUMBER
 70
     0
1001
ACDBATTR
1070
     0
1070
     1
  0
ATTDEF
  5
3931
  8
DEFPOINTS
 10
4143.5270586143196851
 20
42.6499954820715601
 30
0.0
 40
0.001
  1
MODULO
  3

  2
TRADENAME
 70
     0
1001
ACDBATTR
1070
     0
1070
     1
  0
ATTDEF
  5
3932
  8
DEFPOINTS
 10
4143.5270586143196851
 20
42.6483288154049021
 30
0.0
 40
0.001
  1
VALVE TRIM
  3

  2
PRODUCT
 70
     0
1001
ACDBATTR
1070
     0
1070
     1
  0
ARC
  5
A428
  8
0
 10
4143.3470264838706498
 20
46.1181818033396524
 30
0.0
 40
0.0590550175540044
 50
95.0301997809508237
 51
174.8978703083681125
  0
ARC
  5
A429
  8
0
 10
4142.9166863602558806
 20
45.5397737418631365
 30
0.0
 40
0.0590551181000107
 50
111.8037479893891941
 51
180.0
  0
ARC
  5
A42A
  8
0
 10
4142.6607808487206057
 20
46.1794618049706287
 30
0.0
 40
0.6299212595181096
 50
291.8037479744536995
 51
354.8971003059896816
  0
LINE
  5
A42B
  8
0
 10
4143.3418484920657647
 20
46.177009377649533
 30
0.0
 11
4143.5269225807551265
 21
46.1932013443836311
 31
0.0
  0
LINE
  5
A42C
  8
0
 10
4143.5269225807551265
 20
46.1932013443836311
 30
0.0
 11
4143.5269225807551265
 21
39.1065870252211596
 31
0.0
  0
ARC
  5
A42D
  8
0
 10
4141.7169637109564064
 20
44.5789576412631376
 30
0.0
 40
0.0787401574999996
 50
270.7223627571225961
 51
344.9999884862297108
  0
ARC
  5
A42E
  8
0
 10
4141.829429017455368
 20
44.6183981209631426
 30
0.0
 40
0.0196850393999965
 50
90.000000291035505
 51
165.0000000720270918
  0
ARC
  5
A42F
  8
0
 10
4141.8655052578551476
 20
44.645957176063142
 30
0.0
 40
0.0118110236
 50
90.0
 51
180.0
  0
ARC
  5
A430
  8
0
 10
4141.3453329061603654
 20
44.6332012705776293
 30
0.0
 40
0.0299999999855434
 50
16.3789785456771995
 51
89.9999086004670943
  0
ARC
  5
A431
  8
0
 10
4141.7281315743202867
 20
43.6932012703368002
 30
0.0
 40
0.8070866144346629
 50
90.7223629037723782
 51
111.2591182125199936
  0
LINE
  5
A432
  8
0
 10
4141.7930208585557921
 20
44.5585781736038271
 30
0.0
 11
4141.8104147294998256
 21
44.623492984039558
 31
0.0
  0
LINE
  5
A433
  8
0
 10
4141.829429017455368
 20
44.6380831603631378
 30
0.0
 11
4141.8536942342561815
 21
44.6380831603631378
 31
0.0
  0
ARC
  5
A434
  8
0
 10
4140.5128280927428932
 20
44.2090293501360918
 30
0.0
 40
0.0300000001882197
 50
146.000000159595487
 51
179.999999948337603
  0
ARC
  5
A435
  8
0
 10
4140.7989356665766536
 20
44.6332012684146093
 30
0.0
 40
0.030000002148535
 50
90.0000021425111782
 51
145.9999977976277989
  0
ARC
  5
A436
  8
0
 10
4147.1043282838227242
 20
46.3256398259910185
 30
0.0
 40
5.9725308016046039
 50
196.376859427195086
 51
198.3499668531997884
  0
ARC
  5
A437
  8
0
 10
4147.1288005125352356
 20
46.3327861750422088
 30
0.0
 40
5.9980085356558721
 50
198.3411653207535039
 51
206.0425888498016889
  0
ARC
  5
A438
  8
0
 10
4141.7128280923761849
 20
43.6862545481425784
 30
0.0
 40
0.0300000001802138
 50
359.9999836144710912
 51
26.0428105925656013
  0
LINE
  5
A439
  8
0
 10
4140.7989356654552466
 20
44.6632012705631425
 30
0.0
 11
4141.3453329540161576
 21
44.6632012705631425
 31
0.0
  0
LINE
  5
A43A
  8
0
 10
4140.4879569653639919
 20
44.2258051372761898
 30
0.0
 11
4140.7740645382546063
 21
44.6499770576631434
 31
0.0
  0
ARC
  5
A43B
  8
0
 10
4139.7228280925546642
 20
44.1106102307631431
 30
0.0
 40
0.0299999999999976
 50
92.0000271344772074
 51
179.9999999999984084
  0
ARC
  5
A43C
  8
0
 10
4140.2537405865550681
 20
44.0362377551631425
 30
0.0
 40
0.060000000000003
 50
193.0018805609041976
 51
268.0000010486756992
  0
ARC
  5
A43D
  8
0
 10
4140.4528280925551371
 20
43.9392306073631431
 30
0.0
 40
0.0299999999999987
 50
359.9999999999984084
 51
88.000000026223745
  0
ARC
  5
A43E
  8
0
 10
4139.572358439785603
 20
44.0589807885972817
 30
0.0
 40
0.0200028690346522
 50
91.3049597050240322
 51
179.5328331893857126
  0
LINE
  5
A43F
  8
0
 10
4139.571902896958818
 20
44.078978469721612
 30
0.0
 11
4139.6928280925576473
 21
44.0832012705674572
 31
0.0
  0
LINE
  5
A440
  8
0
 10
4139.7217810934889712
 20
44.1405919550790387
 30
0.0
 11
4140.1953471535553035
 21
44.1571292463631409
 31
0.0
  0
LINE
  5
A441
  8
0
 10
4140.2516466178558403
 20
43.9762743055035017
 30
0.0
 11
4140.4538750774563596
 21
43.9692123321323223
 31
0.0
  0
LINE
  5
A442
  8
0
 10
4141.8655052578551476
 20
44.6577681996631384
 30
0.0
 11
4142.857631242154639
 21
44.6577681996631384
 31
0.0
  0
ARC
  5
A443
  8
0
 10
4141.7169637267834332
 20
42.8074449134212074
 30
0.0
 40
0.0787401394927423
 50
15.00000711188172
 51
70.8106671845836644
  0
ARC
  5
A444
  8
0
 10
4141.829429017455368
 20
42.7680044232172989
 30
0.0
 40
0.0196850393999965
 50
194.9999999279729082
 51
269.9999997089644808
  0
ARC
  5
A445
  8
0
 10
4141.8655052578551476
 20
42.7404453681173067
 30
0.0
 40
0.0118110236
 50
180.0
 51
270.0
  0
LINE
  5
A446
  8
0
 10
4141.7930208585557921
 20
42.8278243705766073
 30
0.0
 11
4141.8104147294998256
 21
42.7629095601408906
 31
0.0
  0
LINE
  5
A447
  8
0
 10
4141.829429017455368
 20
42.7483193838172966
 30
0.0
 11
4141.8536942342561815
 21
42.7483193838172966
 31
0.0
  0
ARC
  5
A448
  8
0
 10
4140.5128280927428932
 20
43.1773731940443497
 30
0.0
 40
0.0300000001882197
 50
180.000000051662397
 51
213.999999840404513
  0
ARC
  5
A449
  8
0
 10
4140.7989351976229955
 20
42.7532007549397477
 30
0.0
 40
0.0299993221260932
 50
213.9996783812646015
 51
270.0008935142457176
  0
LINE
  5
A44A
  8
0
 10
4140.7989356654552466
 20
42.7232014328173122
 30
0.0
 11
4140.9228280925553918
 21
42.7232012705631377
 31
0.0
  0
LINE
  5
A44B
  8
0
 10
4140.4879569653639919
 20
43.1605974069042588
 30
0.0
 11
4140.7740645382546063
 21
42.7364254865172981
 31
0.0
  0
ARC
  5
A44C
  8
0
 10
4139.7228293799607854
 20
43.2757928335625266
 30
0.0
 40
0.0300012874095354
 50
180.0009933615654916
 51
268.3968186021241991
  0
ARC
  5
A44D
  8
0
 10
4140.2536804122255489
 20
43.3503236203835414
 30
0.0
 40
0.0598391902415328
 50
91.9477248952548081
 51
167.1186189936713902
  0
ARC
  5
A44E
  8
0
 10
4140.4528280925551371
 20
43.4471719368172984
 30
0.0
 40
0.0299999999999987
 50
271.9999999737761982
 51
0.0000000000016284
  0
ARC
  5
A44F
  8
0
 10
4139.572358439785603
 20
43.3274217555831598
 30
0.0
 40
0.0200028690346522
 50
180.4671668106142022
 51
268.6950402949760246
  0
LINE
  5
A450
  8
0
 10
4139.571902896958818
 20
43.3074240744588366
 30
0.0
 11
4139.6928280925549188
 21
43.3032012705588301
 31
0.0
  0
LINE
  5
A451
  8
0
 10
4140.2516466178558403
 20
43.4101282386769398
 30
0.0
 11
4140.4538750774563596
 21
43.4171902120481192
 31
0.0
  0
LINE
  5
A452
  8
0
 10
4141.8655052578551476
 20
42.7286343445173031
 30
0.0
 11
4142.857631242154639
 21
42.7286343445173031
 31
0.0
  0
LINE
  5
A453
  8
0
 10
4139.5523562356556795
 20
44.0591438821631414
 30
0.0
 11
4139.5523562356556795
 21
43.3272586620173001
 31
0.0
  0
LINE
  5
A454
  8
0
 10
4139.5523562356556795
 20
43.844720046890501
 30
0.0
 11
4139.6928280925549188
 21
43.8464653351631384
 31
0.0
  0
LINE
  5
A455
  8
0
 10
4139.5523562356556795
 20
43.541632569083859
 30
0.0
 11
4139.6928280925549188
 21
43.5399372059631418
 31
0.0
  0
ARC
  5
A456
  8
0
 10
4139.7215587728487662
 20
43.2157953764559721
 30
0.0
 40
0.0300110120369688
 50
359.0699368272718743
 51
89.1766340538164712
  0
ARC
  5
A457
  8
0
 10
4139.7231301039619211
 20
43.2473410187775613
 30
0.0
 40
0.0290098284074361
 50
1.09460135541806
 51
89.8892223126817385
  0
ARC
  5
A458
  8
0
 10
4613.6883999066021715
 20
34.9590084724331334
 30
0.0
 40
474.0087437794937841
 50
178.9980302263520002
 51
179.001969773417386
  0
LINE
  5
A459
  8
0
 10
4139.7128991815561676
 20
40.9997483001631409
 30
0.0
 11
4139.7515658310312574
 21
43.2153082391578067
 31
0.0
  0
ARC
  5
A45A
  8
0
 10
4139.7528992469806326
 20
40.9997483633444091
 30
0.0
 40
0.0400000654261616
 50
180.0000905004114884
 51
267.9999094996769031
  0
LINE
  5
A45B
  8
0
 10
4139.7515032016872283
 20
40.9597726670823832
 30
0.0
 11
4140.225990213742989
 21
40.94320320777652
 31
0.0
  0
ARC
  5
A45C
  8
0
 10
4147.458134519437408
 20
43.3360408701619022
 30
0.0
 40
7.2628398954311271
 50
179.7820853163480876
 51
180.6976703687604981
  0
ARC
  5
A45D
  8
0
 10
8425.4856639634708699
 20
98.1757604451787103
 30
0.0
 40
4285.6418465701917739
 50
180.7343678513294094
 51
180.7651786069033051
  0
LINE
  5
A45E
  8
0
 10
4140.1953471535553035
 20
44.1571292463631409
 30
0.0
 11
4140.1953471535553035
 21
43.3636637711159167
 31
0.0
  0
LINE
  5
A45F
  8
0
 10
4140.4828280925548825
 20
44.2090293501631422
 30
0.0
 11
4140.4828280925548825
 21
43.1773731940443497
 31
0.0
  0
LINE
  5
A460
  8
0
 10
4139.6928280925549188
 20
44.1106102307631431
 30
0.0
 11
4139.6928280925549188
 21
43.2757923134172984
 31
0.0
  0
LINE
  5
A461
  8
0
 10
4140.7740645382546063
 20
44.6499770576631434
 30
0.0
 11
4140.7740645382637013
 21
42.7364254834500983
 31
0.0
  0
LINE
  5
A462
  8
0
 10
4141.8104147294998256
 20
42.7629095601408906
 30
0.0
 11
4141.8104147274552815
 21
44.6234837839631382
 31
0.0
  0
LINE
  5
A463
  8
0
 10
4141.8536942342561815
 20
44.6459571752631419
 30
0.0
 11
4141.8536942342561815
 21
42.7404453681173067
 31
0.0
  0
ARC
  5
A464
  8
0
 10
4143.3470266693866506
 20
39.1816065549641124
 30
0.0
 40
0.0590550175540044
 50
185.1021327563526029
 51
264.9698032837292203
  0
ARC
  5
A465
  8
0
 10
4142.9166868098172927
 20
39.7600149596168109
 30
0.0
 40
0.0590555676635736
 50
180.0003840576752907
 51
248.1961213171736063
  0
ARC
  5
A466
  8
0
 10
4142.6607810375153349
 20
39.1203265166262497
 30
0.0
 40
0.6299212595181096
 50
5.1029027587277254
 51
68.196255090268977
  0
LINE
  5
A467
  8
0
 10
4143.3418486807304362
 20
39.1227789803772481
 30
0.0
 11
4143.5269225807551265
 21
39.1065870252211596
 31
0.0
  0
LINE
  5
A468
  8
0
 10
4142.857631242154639
 20
45.5397737418631365
 30
0.0
 11
4142.857631242154639
 21
39.7600145637631428
 31
0.0
  0
ARC
  5
A469
  8
0
 10
4141.7128280925553554
 20
42.7532012705631317
 30
0.0
 40
0.0299999999999985
 50
270.0
 51
0.0000000000024427
  0
ARC
  5
A46A
  8
0
 10
4141.1028280925547733
 20
41.7700027822278486
 30
0.0
 40
0.9700450289366351
 50
79.306310142695466
 51
100.6936898573045056
  0
LINE
  5
A46B
  8
0
 10
4141.2828280925550644
 20
42.7232012705631305
 30
0.0
 11
4141.7128280925553554
 21
42.7232012705631305
 31
0.0
  0
LINE
  5
A46C
  8
0
 10
4141.7428280925551007
 20
43.6862545395631372
 30
0.0
 11
4141.7428280925551007
 21
42.7532012705631317
 31
0.0
  0
LINE
  5
A46D
  8
0
 10
4139.7231861925547491
 20
43.276350792963143
 30
0.0
 11
4139.6928280925549188
 21
43.2757923134172984
 31
0.0
  0
LINE
  5
A46E
  8
0
 10
4143.2882054989349854
 20
46.123434119585049
 30
0.0
 11
4143.2882056847329295
 21
39.1763542355724113
 31
0.0
  0
ENDSEC
  0
EOF
