  0
SECTION
  2
HEADER
  9
$ACADVER
  1
AC1009
  9
$INSBASE
 10
4143.0335385821981617
 20
42.7031736940545983
 30
0.0
  9
$EXTMIN
 10
4131.236209832755776
 20
38.7286073489546112
 30
0.0
  9
$EXTMAX
 10
4149.4442513579670049
 20
54.0610247953111411
 30
0.0
  9
$LIMMIN
 10
0.0
 20
0.0
  9
$LIMMAX
 10
11.6929133858000007
 20
8.2677165353999982
  9
$ORTHOMODE
 70
     0
  9
$REGENMODE
 70
     1
  9
$FILLMODE
 70
     1
  9
$QTEXTMODE
 70
     0
  9
$MIRRTEXT
 70
     0
  9
$DRAGMODE
 70
     2
  9
$LTSCALE
 40
0.6431102362
  9
$OSMODE
 70
  4095
  9
$ATTMODE
 70
     1
  9
$TEXTSIZE
 40
0.2
  9
$TRACEWID
 40
0.05
  9
$TEXTSTYLE
  7
STANDARD
  9
$CLAYER
  8
0
  9
$CELTYPE
  6
BYLAYER
  9
$CECOLOR
 62
   256
  9
$DIMSCALE
 40
1.0
  9
$DIMASZ
 40
0.1875
  9
$DIMEXO
 40
0.0625
  9
$DIMDLI
 40
0.4443307087
  9
$DIMRND
 40
0.0
  9
$DIMDLE
 40
0.0
  9
$DIMEXE
 40
0.125
  9
$DIMTP
 40
0.01
  9
$DIMTM
 40
0.01
  9
$DIMTXT
 40
2.0
  9
$DIMCEN
 40
0.1052362205
  9
$DIMTSZ
 40
0.0
  9
$DIMTOL
 70
     1
  9
$DIMLIM
 70
     0
  9
$DIMTIH
 70
     1
  9
$DIMTOH
 70
     1
  9
$DIMSE1
 70
     0
  9
$DIMSE2
 70
     0
  9
$DIMTAD
 70
     0
  9
$DIMZIN
 70
     0
  9
$DIMBLK
  1

  9
$DIMASO
 70
     1
  9
$DIMSHO
 70
     1
  9
$DIMPOST
  1
\X
  9
$DIMAPOST
  1

  9
$DIMALT
 70
     1
  9
$DIMALTD
 70
     2
  9
$DIMALTF
 40
25.3999999999999986
  9
$DIMLFAC
 40
1.0
  9
$DIMTOFL
 70
     0
  9
$DIMTVP
 40
0.0
  9
$DIMTIX
 70
     0
  9
$DIMSOXD
 70
     0
  9
$DIMSAH
 70
     0
  9
$DIMBLK1
  1

  9
$DIMBLK2
  1

  9
$DIMSTYLE
  2
STANDARD
  9
$DIMCLRD
 70
     0
  9
$DIMCLRE
 70
     0
  9
$DIMCLRT
 70
     0
  9
$DIMTFAC
 40
1.0
  9
$DIMGAP
 40
0.09
  9
$LUNITS
 70
     2
  9
$LUPREC
 70
     4
  9
$SKETCHINC
 40
0.1
  9
$FILLETRAD
 40
0.0
  9
$AUNITS
 70
     0
  9
$AUPREC
 70
     0
  9
$MENU
  1
.
  9
$ELEVATION
 40
0.0
  9
$PELEVATION
 40
0.0
  9
$THICKNESS
 40
0.0
  9
$LIMCHECK
 70
     0
  9
$BLIPMODE
 70
     0
  9
$CHAMFERA
 40
0.0
  9
$CHAMFERB
 40
0.0
  9
$SKPOLY
 70
     0
  9
$TDCREATE
 40
2458060.468368056230247
  9
$TDUPDATE
 40
2459091.6462268522009254
  9
$TDINDWG
 40
0.4262802083
  9
$TDUSRTIMER
 40
0.4262802083
  9
$USRTIMER
 70
     1
  9
$ANGBASE
 50
0.0
  9
$ANGDIR
 70
     0
  9
$PDMODE
 70
     0
  9
$PDSIZE
 40
0.3125
  9
$PLINEWID
 40
0.0
  9
$COORDS
 70
     1
  9
$SPLFRAME
 70
     0
  9
$SPLINETYPE
 70
     6
  9
$SPLINESEGS
 70
     8
  9
$ATTDIA
 70
     1
  9
$ATTREQ
 70
     1
  9
$HANDLING
 70
     1
  9
$HANDSEED
  5
A5E6
  9
$SURFTAB1
 70
     6
  9
$SURFTAB2
 70
     6
  9
$SURFTYPE
 70
     6
  9
$SURFU
 70
     6
  9
$SURFV
 70
     6
  9
$UCSNAME
  2

  9
$UCSORG
 10
0.0
 20
0.0
 30
0.0
  9
$UCSXDIR
 10
1.0
 20
0.0
 30
0.0
  9
$UCSYDIR
 10
0.0
 20
1.0
 30
0.0
  9
$PUCSNAME
  2

  9
$PUCSORG
 10
0.0
 20
0.0
 30
0.0
  9
$PUCSXDIR
 10
1.0
 20
0.0
 30
0.0
  9
$PUCSYDIR
 10
0.0
 20
1.0
 30
0.0
  9
$USERI1
 70
     0
  9
$USERI2
 70
     0
  9
$USERI3
 70
     0
  9
$USERI4
 70
     0
  9
$USERI5
 70
     0
  9
$USERR1
 40
0.0
  9
$USERR2
 40
0.0
  9
$USERR3
 40
0.0
  9
$USERR4
 40
0.0
  9
$USERR5
 40
0.0
  9
$WORLDVIEW
 70
     1
  9
$SHADEDGE
 70
     3
  9
$SHADEDIF
 70
    70
  9
$TILEMODE
 70
     1
  9
$MAXACTVP
 70
    64
  9
$PLIMCHECK
 70
     0
  9
$PEXTMIN
 10
1.0000000000000000E+20
 20
1.0000000000000000E+20
 30
1.0000000000000000E+20
  9
$PEXTMAX
 10
-1.0000000000000000E+20
 20
-1.0000000000000000E+20
 30
-1.0000000000000000E+20
  9
$PLIMMIN
 10
0.0
 20
0.0
  9
$PLIMMAX
 10
12.0
 20
9.0
  9
$UNITMODE
 70
     0
  9
$VISRETAIN
 70
     1
  9
$PLINEGEN
 70
     0
  9
$PSLTSCALE
 70
     1
  0
ENDSEC
  0
SECTION
  2
TABLES
  0
TABLE
  2
VPORT
 70
     1
  0
VPORT
  2
*ACTIVE
 70
     0
 10
0.0
 20
0.0
 11
1.0
 21
1.0
 12
361.3921663317054254
 22
-80.8086613343162554
 13
0.0
 23
0.0
 14
1.0
 24
1.0
 15
0.0
 25
0.0
 16
0.0
 26
0.0
 36
5.1040778033513332
 17
3792.35791015625
 27
120.1806564331053977
 37
0.0
 40
28.8227447677082615
 41
2.005224660397074
 42
50.0
 43
0.0
 44
0.0
 50
0.0
 51
0.0
 71
     0
 72
   100
 73
     1
 74
     1
 75
     0
 76
     0
 77
     0
 78
     0
  0
ENDTAB
  0
TABLE
  2
LTYPE
 70
     2
  0
LTYPE
  2
CONTINUOUS
 70
     0
  3
Solid line
 72
    65
 73
     0
 40
0.0
  0
LTYPE
  2
PHANTOM2
 70
     0
  3
___ _ _ ___ _ _ ___ _ _ ___ _ _
 72
    65
 73
     6
 40
1.25
 49
0.625
 49
-0.125
 49
0.125
 49
-0.125
 49
0.125
 49
-0.125
  0
ENDTAB
  0
TABLE
  2
LAYER
 70
     2
  0
LAYER
  2
0
 70
     0
 62
   255
  6
CONTINUOUS
  0
LAYER
  2
DEFPOINTS
 70
     0
 62
     7
  6
CONTINUOUS
  0
ENDTAB
  0
TABLE
  2
STYLE
 70
     1
  0
STYLE
  2
STANDARD
 70
     0
 40
0.0
 41
0.8
 50
0.0
 71
     0
 42
0.2
  3
txt
  4

  0
ENDTAB
  0
TABLE
  2
VIEW
 70
     0
  0
ENDTAB
  0
TABLE
  2
UCS
 70
     0
  0
ENDTAB
  0
TABLE
  2
APPID
 70
     9
  0
APPID
  2
ACAD
 70
     0
  0
APPID
  2
ACAD_MLEADERVER
 70
     0
  0
APPID
  2
ACAD_EXEMPT_FROM_CAD_STANDARDS
 70
     0
  0
APPID
  2
ACAD_NAV_VCDISPLAY
 70
     0
  0
APPID
  2
ACAECLAYERSTANDARD
 70
     0
  0
APPID
  2
ACCMTRANSPARENCY
 70
     0
  0
APPID
  2
ACAD_DSTYLE_DIMJAG
 70
     0
  0
APPID
  2
ACAD_DSTYLE_DIMTALN
 70
     0
  0
APPID
  2
ACDBATTR
 70
     0
  0
ENDTAB
  0
TABLE
  2
DIMSTYLE
 70
     1
  0
DIMSTYLE
  2
STANDARD
 70
     0
  3

  4

  5

  6

  7

 40
1.0
 41
0.1875
 42
0.0625
 43
0.38
 44
0.125
 45
0.0
 46
0.0
 47
0.01
 48
0.01
140
0.15625
141
0.09
142
0.0
143
25.3999999999999986
144
1.0
145
0.0
146
1.0
147
0.09
 71
     1
 72
     0
 73
     1
 74
     1
 75
     0
 76
     0
 77
     0
 78
     4
170
     0
171
     2
172
     0
173
     0
174
     0
175
     0
176
     0
177
     0
178
     0
  0
ENDTAB
  0
ENDSEC
  0
SECTION
  2
BLOCKS
  0
BLOCK
  8
0
  2
$MODEL_SPACE
 70
     0
 10
0.0
 20
0.0
 30
0.0
  3
$MODEL_SPACE
  1

  0
ENDBLK
  5
21
  8
0
  0
BLOCK
 67
     1
  8
0
  2
$PAPER_SPACE
 70
     0
 10
0.0
 20
0.0
 30
0.0
  3
$PAPER_SPACE
  1

  0
ENDBLK
  5
1D
 67
     1
  8
0
  0
BLOCK
  8
0
  2
_FILLED
 70
     0
 10
0.0
 20
0.0
 30
0.0
  3
_FILLED
  1

  0
SOLID
  5
69B4
  8
0
  6
BYBLOCK
 62
     0
 10
0.0
 20
0.0
 30
0.0
 11
-1.0
 21
0.1666666667
 31
0.0
 12
-1.0
 22
-0.1666666667
 32
0.0
 13
-1.0
 23
-0.1666666667
 33
0.0
  0
ENDBLK
  5
69B5
  8
0
  6
BYBLOCK
 62
     0
  0
BLOCK
  8
0
  2
A$CDFAF6206
 70
     0
 10
0.0
 20
0.0
 30
0.0
  3
A$CDFAF6206
  1

  0
LINE
  5
6A0E
  8
0
 10
7.4646650085734834
 20
10.9287685970688493
 30
0.0
 11
7.4646650085734896
 21
10.8905784766688498
 31
0.0
  0
ARC
  5
6A0F
  8
0
 10
7.7269027075262349
 20
10.8926811525838598
 30
0.0
 40
0.2622461286616791
 50
180.4593995232625048
 51
217.0214027758331099
  0
LINE
  5
6A10
  8
0
 10
9.767814609867095
 20
10.9287685970688493
 30
0.0
 11
9.767814609867095
 21
10.8905433757650094
 31
0.0
  0
ARC
  5
6A11
  8
0
 10
9.5068669568548287
 20
10.8922438613003703
 30
0.0
 40
0.2609531936261092
 50
322.8847083717149076
 51
359.6266329125650145
  0
LINE
  5
6A12
  8
0
 10
7.517522606271406
 20
10.7347792678688396
 30
0.0
 11
9.7149570120691777
 21
10.7347792678688396
 31
0.0
  0
LINE
  5
6A13
  8
0
 10
7.4646650085734834
 20
10.9287685970688493
 30
0.0
 11
9.7678146123202936
 21
10.9287685970688493
 31
0.0
  0
ARC
  5
6A14
  8
0
 10
4.0826771419203629
 20
8.527951346868889
 30
0.0
 40
4.0826771653999172
 50
13.3117747050523896
 51
32.7200330051415591
  0
ARC
  5
6A15
  8
0
 10
4.0826771460567306
 20
8.5279513475907933
 30
0.0
 40
4.0826771612084691
 50
359.6656501984817851
 51
13.3117747085593798
  0
ARC
  5
6A16
  8
0
 10
13.1498041284835097
 20
8.5279508235212234
 30
0.0
 40
4.0826788382043553
 50
147.2799733478981068
 51
166.6882233021349862
  0
ARC
  5
6A17
  8
0
 10
13.1498064934207992
 20
8.5279506557033251
 30
0.0
 40
4.0826811782395342
 50
166.688228652086309
 51
180.3343397625230011
  0
LINE
  5
6A18
  8
0
 10
8.1652847935202928
 20
8.504127000268852
 30
0.0
 11
9.0671948248202892
 21
8.5041270002687881
 31
0.0
  0
LINE
  5
6A19
  8
0
 10
8.1652847935202786
 20
8.5041270002667204
 30
0.0
 11
8.1652847935202928
 21
8.3607006934688481
 31
0.0
  0
ARC
  5
6A1A
  8
0
 10
5.6196779630382627
 20
8.3631022096452732
 30
0.0
 40
2.545607963272567
 50
342.0511668832173768
 51
359.945947387132378
  0
LINE
  5
6A1B
  8
0
 10
9.0671948248202892
 20
8.5041270002687881
 30
0.0
 11
9.0671948248202892
 21
8.2885990108688503
 31
0.0
  0
ARC
  5
6A1C
  8
0
 10
9.4521885297801163
 20
7.9614488056228501
 30
0.0
 40
0.5052201595850959
 50
139.6436242991769916
 51
174.6757930071850069
  0
ARC
  5
6A1D
  8
0
 10
9.9238413395551746
 20
8.1492417579399508
 30
0.0
 40
0.9848265662939324
 50
188.2263441834095943
 51
209.5593615864376034
  0
ARC
  5
6A1E
  8
0
 10
8.0788764238271256
 20
7.5665710856463297
 30
0.0
 40
0.0393715937169877
 50
162.1669117288323037
 51
227.2023190037006088
  0
ARC
  5
6A1F
  8
0
 10
8.7223682141740682
 20
8.2079667397440517
 30
0.0
 40
0.947895137885075
 50
225.0018610752970858
 51
261.4598823366255829
  0
ARC
  5
6A20
  8
0
 10
8.6645157662702701
 20
8.1695128573935332
 30
0.0
 40
0.9027466462812931
 50
264.7303071214498118
 51
281.8608311947915013
  0
ARC
  5
6A21
  8
0
 10
8.6645157662698935
 20
8.1695128573999671
 30
0.0
 40
0.9027466462876658
 50
299.1741886792128753
 51
299.1743179154552195
  0
ARC
  5
6A22
  8
0
 10
9.0843330931590316
 20
7.4150554710086141
 30
0.0
 40
0.0393703053609601
 50
251.9700352025496954
 51
252.4698971938937859
  0
ARC
  5
6A23
  8
0
 10
9.0843330931590316
 20
7.4150554710086141
 30
0.0
 40
0.0393703053609601
 50
297.2453716727138726
 51
6.8376113572703074
  0
LINE
  5
6A24
  8
0
 10
9.0671948248202892
 20
7.663402160468852
 30
0.0
 11
9.1234233799329516
 21
7.419742732911689
 31
0.0
  0
ARC
  5
6A25
  8
0
 10
8.8843741880892395
 20
9.8961379890094676
 30
0.0
 40
2.5255097382132701
 50
263.792800240752797
 51
274.9514951129821156
  0
ARC
  5
6A26
  8
0
 10
8.8258167405968848
 20
9.2763025889666508
 30
0.0
 40
1.9029970832759311
 50
246.0108363320686067
 51
263.5276935074397215
  0
ARC
  5
6A27
  8
0
 10
8.607491361665744
 20
8.3225444804829642
 30
0.0
 40
1.064510137163637
 50
283.1717405874071005
 51
297.7022170607311864
  0
LINE
  5
6A28
  8
0
 10
9.0671948248202892
 20
8.2885990108688503
 30
0.0
 11
26.2014378595979593
 21
8.2885990108689942
 31
0.0
  0
LINE
  5
6A29
  8
0
 10
26.2014378595979913
 20
7.6634021604689053
 30
0.0
 11
9.0671948248202892
 21
7.6634021604688618
 31
0.0
  0
LINE
  5
6A2A
  8
0
 10
27.8039676758446994
 20
10.9287685970690802
 30
0.0
 11
27.8039676758446888
 21
10.8905784766690807
 31
0.0
  0
ARC
  5
6A2B
  8
0
 10
27.5417299768919399
 20
10.8926811525840801
 30
0.0
 40
0.2622461286616791
 50
322.9785972241680838
 51
359.5406004767386889
  0
LINE
  5
6A2C
  8
0
 10
25.5008180745510913
 20
10.9287685970690305
 30
0.0
 11
25.5008180745510913
 21
10.8905433757651799
 31
0.0
  0
ARC
  5
6A2D
  8
0
 10
25.7617657275633505
 20
10.8922438613005497
 30
0.0
 40
0.2609531936261092
 50
180.3733670874362929
 51
217.1152916282862861
  0
LINE
  5
6A2E
  8
0
 10
27.7511100781467803
 20
10.7347792678690706
 30
0.0
 11
25.5536756723490015
 21
10.7347792678690208
 31
0.0
  0
LINE
  5
6A2F
  8
0
 10
27.8039676758446888
 20
10.9287685970686006
 30
0.0
 11
25.5008180745510806
 21
10.9287685970686006
 31
0.0
  0
ARC
  5
6A30
  8
0
 10
31.1859555424978616
 20
8.5279513468691981
 30
0.0
 40
4.0826771653999172
 50
147.2799669948597057
 51
166.6882252949490066
  0
ARC
  5
6A31
  8
0
 10
31.185955538361501
 20
8.5279513475911024
 30
0.0
 40
4.0826771612084691
 50
166.6882252914419098
 51
180.3343498015194086
  0
ARC
  5
6A32
  8
0
 10
22.1188285559344706
 20
8.5279508235212251
 30
0.0
 40
4.0826788382046102
 50
13.3117766978667795
 51
32.7200266521023977
  0
ARC
  5
6A33
  8
0
 10
22.1188261909974315
 20
8.5279506557034264
 30
0.0
 40
4.0826811782395342
 50
359.665660237478221
 51
13.31177134791497
  0
LINE
  5
6A34
  8
0
 10
27.1033478908979397
 20
8.5041270002690652
 30
0.0
 11
26.2014378595979416
 21
8.5041270002689835
 31
0.0
  0
LINE
  5
6A35
  8
0
 10
27.1033478908979504
 20
8.5041270002669354
 30
0.0
 11
27.1033478908979397
 21
8.3607006934690649
 31
0.0
  0
ARC
  5
6A36
  8
0
 10
29.6489547213799689
 20
8.3631022096455467
 30
0.0
 40
2.545607963272567
 50
180.0540526128687873
 51
197.9488331167837032
  0
LINE
  5
6A37
  8
0
 10
26.2014378595979416
 20
8.5041270002689835
 30
0.0
 11
26.2014378595979487
 21
8.2885990108690457
 31
0.0
  0
ARC
  5
6A38
  8
0
 10
25.8164441546381305
 20
7.9614488056230366
 30
0.0
 40
0.5052201595850959
 50
5.324206992816312
 51
40.3563757008241879
  0
ARC
  5
6A39
  8
0
 10
25.3447913448601803
 20
8.149241757940846
 30
0.0
 40
0.9848265662968968
 50
330.4406384136033807
 51
351.7736558165743759
  0
ARC
  5
6A3A
  8
0
 10
27.1897562605911212
 20
7.5665710856465473
 30
0.0
 40
0.0393715937169877
 50
312.7976809963004143
 51
17.8330882711689185
  0
ARC
  5
6A3B
  8
0
 10
26.5462644702441715
 20
8.2079667397442542
 30
0.0
 40
0.947895137885075
 50
278.5401176633754972
 51
314.9981389247041079
  0
ARC
  5
6A3C
  8
0
 10
26.6041169181479695
 20
8.1695128573937392
 30
0.0
 40
0.9027466462812931
 50
258.139168805210204
 51
275.2696928785518935
  0
ARC
  5
6A3D
  8
0
 10
26.6041169181483497
 20
8.1695128574001732
 30
0.0
 40
0.9027466462876658
 50
240.8256820845460027
 51
240.8258113207880058
  0
ARC
  5
6A3E
  8
0
 10
26.1842995912592293
 20
7.4150554710088086
 30
0.0
 40
0.0393703053609601
 50
287.5301028061073794
 51
288.0299647974517825
  0
ARC
  5
6A3F
  8
0
 10
26.1842995912592293
 20
7.4150554710088086
 30
0.0
 40
0.0393703053609601
 50
173.1623886427310026
 51
242.7546283272870085
  0
LINE
  5
6A40
  8
0
 10
26.2014378595981192
 20
7.6634021604690448
 30
0.0
 11
26.1452093044853093
 21
7.4197427329118826
 31
0.0
  0
ARC
  5
6A41
  8
0
 10
26.384258496328961
 20
9.8961379890096666
 30
0.0
 40
2.5255097382132701
 50
265.0485048870193054
 51
276.2071997592482262
  0
ARC
  5
6A42
  8
0
 10
26.4428159438213299
 20
9.2763025889668516
 30
0.0
 40
1.9029970832759311
 50
276.4723064925619838
 51
293.9891636679327007
  0
ARC
  5
6A43
  8
0
 10
26.6611413227524885
 20
8.3225444804831703
 30
0.0
 40
1.064510137163637
 50
242.2977829392704052
 51
256.8282594125943774
  0
LINE
  5
6A44
  8
0
 62
     4
 10
17.9031473532159602
 20
10.9287685970686006
 30
0.0
 11
24.6329820359843588
 21
20.0952817181593808
 31
0.0
  0
LINE
  5
6A45
  8
0
 62
     4
 10
17.9031473532159602
 20
-0.0000000300842942
 30
0.0
 11
22.3963351323106608
 21
4.993614497796286
 31
0.0
  0
ENDBLK
  5
6A49
  8
0
  0
ENDSEC
  0
SECTION
  2
ENTITIES
  0
ATTDEF
  5
3930
  8
DEFPOINTS
 10
4143.033734253403054
 20
42.7050089105661925
 30
0.0
 40
0.001
  1
K-99965T-4A
  3

  2
MODELNUMBER
 70
     0
1001
ACDBATTR
1070
     0
1070
     1
  0
ATTDEF
  5
3931
  8
DEFPOINTS
 10
4143.033734253403054
 20
42.7033422438995203
 30
0.0
 40
0.001
  1
MODULO
  3

  2
TRADENAME
 70
     0
1001
ACDBATTR
1070
     0
1070
     1
  0
ATTDEF
  5
3932
  8
DEFPOINTS
 10
4143.033734253403054
 20
42.7016755772328622
 30
0.0
 40
0.001
  1
VALVE TRIM
  3

  2
PRODUCT
 70
     0
1001
ACDBATTR
1070
     0
1070
     1
  0
ARC
  5
A50A
  8
0
 10
4142.1477822130291315
 20
40.8932148242546134
 30
0.0
 40
0.0787401574999996
 50
0.7223627570987143
 51
74.9999884862182142
  0
ARC
  5
A50B
  8
0
 10
4142.1083417333293255
 20
41.0056801307545982
 30
0.0
 40
0.0196850393999965
 50
180.0000002910522028
 51
255.000000072026495
  0
ARC
  5
A50C
  8
0
 10
4142.0807826782283882
 20
41.0417563711545981
 30
0.0
 40
0.0118110236
 50
180.0
 51
270.0
  0
ARC
  5
A50D
  8
0
 10
4143.033538583956215
 20
40.9043826876200285
 30
0.0
 40
0.8070866144346407
 50
180.7223629037727903
 51
193.9496958890950111
  0
LINE
  5
A50E
  8
0
 10
4142.1681616806890815
 20
40.969271971854603
 30
0.0
 11
4142.1032468702524056
 21
40.9866658428002211
 31
0.0
  0
LINE
  5
A50F
  8
0
 10
4142.0886566939279874
 20
41.0056801307545982
 30
0.0
 11
4142.0886566939279874
 21
41.0299453475546088
 31
0.0
  0
ARC
  5
A510
  8
0
 10
4142.5177105041548202
 20
39.6890792060428268
 30
0.0
 40
0.0300000001882197
 50
236.0000001595900017
 51
269.9999999483587771
  0
ARC
  5
A511
  8
0
 10
4142.0935385908733224
 20
39.9751867843748627
 30
0.0
 40
0.030000008671634
 50
180.0000532511209883
 51
235.9999946914655027
  0
LINE
  5
A512
  8
0
 10
4142.5009347170152978
 20
39.6642080786634068
 30
0.0
 11
4142.0767627966288273
 21
39.950315651554611
 31
0.0
  0
ARC
  5
A513
  8
0
 10
4142.61612962352865
 20
38.899079205854612
 30
0.0
 40
0.0299999999999976
 50
182.0000271344754879
 51
270.0
  0
ARC
  5
A514
  8
0
 10
4142.6905020991289348
 20
39.4299916998546109
 30
0.0
 40
0.060000000000003
 50
283.0018805609246897
 51
358.0000010486994029
  0
ARC
  5
A515
  8
0
 10
4142.7875092469275842
 20
39.6290792058546089
 30
0.0
 40
0.0299999999999987
 50
90.0
 51
178.0000000262108131
  0
ARC
  5
A516
  8
0
 10
4142.6677590656936445
 20
38.7486095530858066
 30
0.0
 40
0.0200028690346522
 50
181.3049597050344914
 51
269.5328331893720133
  0
LINE
  5
A517
  8
0
 10
4142.6477613845690939
 20
38.748154010258979
 30
0.0
 11
4142.6435385822087483
 21
38.8690792058546108
 31
0.0
  0
LINE
  5
A518
  8
0
 10
4142.5861478992128468
 20
38.8980322067879314
 30
0.0
 11
4142.5696106079276433
 21
39.3715982668546118
 31
0.0
  0
LINE
  5
A519
  8
0
 10
4142.7504655487891796
 20
39.4278977311546086
 30
0.0
 11
4142.7575275221588527
 21
39.6301261907554903
 31
0.0
  0
LINE
  5
A51A
  8
0
 10
4142.0689716546276031
 20
41.0417563711545981
 30
0.0
 11
4142.0689716546276031
 21
42.0338823554546011
 31
0.0
  0
ARC
  5
A51B
  8
0
 10
4143.9192949408707136
 20
40.8932148400825781
 30
0.0
 40
0.0787401394927423
 50
105.0000071118595031
 51
160.8106671845517894
  0
ARC
  5
A51C
  8
0
 10
4143.9587354310742739
 20
41.0056801307545982
 30
0.0
 40
0.0196850393999965
 50
284.9999999279734766
 51
359.9999997089478256
  0
ARC
  5
A51D
  8
0
 10
4143.9862944861743017
 20
41.0417563711545981
 30
0.0
 40
0.0118110236
 50
270.0
 51
0.0
  0
LINE
  5
A51E
  8
0
 10
4143.8989154837154274
 20
40.969271971854603
 30
0.0
 11
4143.9638302941511938
 21
40.9866658428002211
 31
0.0
  0
LINE
  5
A51F
  8
0
 10
4143.9784204704747026
 20
41.0056801307545982
 30
0.0
 11
4143.9784204704747026
 21
41.0299453475546088
 31
0.0
  0
ARC
  5
A520
  8
0
 10
4143.5493666602478697
 20
39.6890792060428268
 30
0.0
 40
0.0300000001882197
 50
270.0000000516412229
 51
303.9999998404097141
  0
ARC
  5
A521
  8
0
 10
4143.9735385735302771
 20
39.9751867843748272
 30
0.0
 40
0.0300000086715796
 50
304.0000053085246918
 51
359.9999892661757031
  0
LINE
  5
A522
  8
0
 10
4143.5661424473873922
 20
39.6642080786634068
 30
0.0
 11
4143.9903143677738626
 21
39.950315651554611
 31
0.0
  0
ARC
  5
A523
  8
0
 10
4143.4509470207285631
 20
38.8990804932596319
 30
0.0
 40
0.0300012874095354
 50
270.0009933615727959
 51
358.3968186021247107
  0
ARC
  5
A524
  8
0
 10
4143.3764162339075483
 20
39.4299315255258023
 30
0.0
 40
0.0598391902415328
 50
181.9477248952360071
 51
257.1186189936491928
  0
ARC
  5
A525
  8
0
 10
4143.2795679174741963
 20
39.6290792058546089
 30
0.0
 40
0.0299999999999987
 50
1.9999999737891769
 51
90.0
  0
ARC
  5
A526
  8
0
 10
4143.3993180987090454
 20
38.7486095530858066
 30
0.0
 40
0.0200028690346522
 50
270.4671668106279867
 51
358.6950402949653949
  0
LINE
  5
A527
  8
0
 10
4143.4193157798326865
 20
38.748154010258979
 30
0.0
 11
4143.4235385822048556
 21
38.8690792058546108
 31
0.0
  0
LINE
  5
A528
  8
0
 10
4143.3166116156153294
 20
39.4278977311546086
 30
0.0
 11
4143.3095496422438373
 21
39.6301261907554903
 31
0.0
  0
LINE
  5
A529
  8
0
 10
4143.9981055097741773
 20
41.0417563711545981
 30
0.0
 11
4143.9981055097741773
 21
42.0338823554546011
 31
0.0
  0
LINE
  5
A52A
  8
0
 10
4142.6675959721278559
 20
38.7286073489546112
 30
0.0
 11
4143.3994811922739245
 21
38.7286073489546112
 31
0.0
  0
LINE
  5
A52B
  8
0
 10
4142.8820198074017753
 20
38.7286073489546112
 30
0.0
 11
4142.8802745191287613
 21
38.8690792058546108
 31
0.0
  0
LINE
  5
A52C
  8
0
 10
4143.1851072852077777
 20
38.7286073489546112
 30
0.0
 11
4143.1868026483289214
 21
38.8690792058546108
 31
0.0
  0
LINE
  5
A52D
  8
0
 10
4142.5696106079276433
 20
39.3715982668546118
 30
0.0
 11
4143.4974665564750467
 21
39.3715982668546118
 31
0.0
  0
LINE
  5
A52E
  8
0
 10
4142.5177105041293544
 20
39.65907920585461
 30
0.0
 11
4143.5493666602478697
 21
39.65907920585461
 31
0.0
  0
LINE
  5
A52F
  8
0
 10
4142.61612962352865
 20
38.8690792058546108
 30
0.0
 11
4143.4509475408749495
 21
38.8690792058546108
 31
0.0
  0
LINE
  5
A530
  8
0
 10
4142.0767627966288273
 20
39.950315651554611
 30
0.0
 11
4143.9903143708406787
 21
39.9503156515634075
 31
0.0
  0
LINE
  5
A531
  8
0
 10
4143.9638302941511938
 20
40.9866658428002211
 30
0.0
 11
4142.1032560703288254
 21
40.986665840754597
 31
0.0
  0
LINE
  5
A532
  8
0
 10
4142.0807826790287436
 20
41.0299453475546088
 30
0.0
 11
4143.9862944861743017
 21
41.0299453475546088
 31
0.0
  0
ARC
  5
A533
  8
0
 10
4143.9735385660842439
 20
40.8890792007050194
 30
0.0
 40
0.0300000161173384
 50
0.0000098349822269
 51
90.0489931856111951
  0
LINE
  5
A534
  8
0
 10
4144.0035385822020544
 20
39.9751867787546118
 30
0.0
 11
4144.0035385822020544
 21
40.8890792058546069
 31
0.0
  0
LINE
  5
A535
  8
0
 10
4143.4809365645278376
 20
38.8982411429546104
 30
0.0
 11
4143.4974665564750467
 21
39.3715982668546118
 31
0.0
  0
ARC
  5
A536
  8
0
 10
4143.0335385822008902
 20
40.9043826875546017
 30
0.0
 40
0.8070866141999793
 50
345.9167172568028832
 51
358.9135274358858965
  0
ARC
  5
A537
  8
0
 10
4143.9252455558953443
 20
40.8918517598786622
 30
0.0
 40
0.0848107911259672
 50
161.2623377966621092
 51
181.8733931204407952
  0
LINE
  5
A538
  8
0
 10
4143.8449297939660028
 20
40.9190960010533331
 30
0.0
 11
4143.9735129133014198
 21
40.919079205854608
 31
0.0
  0
ARC
  5
A539
  8
0
 10
4143.0283813866108176
 20
43.7971543434877191
 30
0.0
 40
3.2411445245101702
 50
270.0911670750704729
 51
272.9937646159199858
  0
ARC
  5
A53A
  8
0
 10
4143.0653121644763814
 20
43.0636431228106886
 30
0.0
 40
2.5067059953073501
 50
273.0264253997892752
 51
276.3130984601662021
  0
ARC
  5
A53B
  8
0
 10
4143.1471144977840595
 20
42.4273592231502406
 30
0.0
 40
1.86531997815117
 50
275.9647880776074089
 51
283.4547789681899985
  0
ARC
  5
A53C
  8
0
 10
4143.4045765960981953
 20
41.3908921025528684
 30
0.0
 40
0.7974475983096179
 50
282.7913952492679073
 51
301.0900806374750118
  0
ARC
  5
A53D
  8
0
 10
4143.7112703336060804
 20
40.8985857597320503
 30
0.0
 40
0.217648704638016
 50
298.8730969442052015
 51
356.6117329999581216
  0
ARC
  5
A53E
  8
0
 10
4143.9585167890008961
 20
40.8890777200721089
 30
0.0
 40
0.0300034454054802
 50
90.0081956845125859
 51
179.9988204488089139
  0
LINE
  5
A53F
  8
0
 10
4143.9285133436023898
 20
40.8890783377545972
 30
0.0
 11
4143.9285385778021009
 21
40.8857222961545972
 31
0.0
  0
ARC
  5
A540
  8
0
 10
4143.0728811515273264
 20
43.0705417669760919
 30
0.0
 40
2.549261351138997
 50
269.115723200662103
 51
281.6615055787934807
  0
ARC
  5
A541
  8
0
 10
4143.4533291623856712
 20
41.3640973270211774
 30
0.0
 40
0.8016179893437344
 50
279.6832083330356227
 51
302.5453497873398874
  0
ARC
  5
A542
  8
0
 10
4143.7654898876844527
 20
40.8947305029752286
 30
0.0
 40
0.2382631505770139
 50
299.9865930867513839
 51
357.5688546104349825
  0
ARC
  5
A543
  8
0
 10
4142.0935385625507479
 20
40.8890792149126199
 30
0.0
 40
0.0299999803489398
 50
89.9509798161844429
 51
180.0000598168207091
  0
LINE
  5
A544
  8
0
 10
4142.0635385822024546
 20
39.9751867564926329
 30
0.0
 11
4142.0635385822024546
 21
40.8890791835926422
 31
0.0
  0
LINE
  5
A545
  8
0
 10
4142.2221473487743424
 20
40.9190959824315073
 30
0.0
 11
4142.0935642294389254
 21
40.9190791842817276
 31
0.0
  0
ARC
  5
A546
  8
0
 10
4143.0386956887678025
 20
43.7971543105675067
 30
0.0
 40
3.241144491448348
 50
267.0062366916420729
 51
269.9088344977737961
  0
ARC
  5
A547
  8
0
 10
4143.0017649290448389
 20
43.0636431220814728
 30
0.0
 40
2.5067059953073501
 50
263.6869028547840799
 51
266.9735759151698176
  0
ARC
  5
A548
  8
0
 10
4142.9199626103409173
 20
42.4273592205436216
 30
0.0
 40
1.86531997815117
 50
256.5452223467892168
 51
264.0352132373739096
  0
ARC
  5
A549
  8
0
 10
4142.6625005358146154
 20
41.390892094037369
 30
0.0
 40
0.7974475983096176
 50
238.9099206775096036
 51
257.2086060656940845
  0
ARC
  5
A54A
  8
0
 10
4142.355268808188157
 20
40.8980149857332478
 30
0.0
 40
0.2168891991151122
 50
182.3614748295840968
 51
241.1785551346281125
  0
ARC
  5
A54B
  8
0
 10
4142.1085603544279365
 20
40.8890776988434084
 30
0.0
 40
0.0300034454054802
 50
0.0011808661571149
 51
89.9918056304364171
  0
ARC
  5
A54C
  8
0
 10
4142.9941959442348889
 20
43.0705417820803191
 30
0.0
 40
2.549261367300748
 50
258.3384957560490989
 51
270.8842783366156937
  0
ARC
  5
A54D
  8
0
 10
4142.6137479701401389
 20
41.3640973173867934
 30
0.0
 40
0.8016179893437342
 50
237.45465152764001
 51
260.316792981940182
  0
ARC
  5
A54E
  8
0
 10
4142.301587194707281
 20
40.8947304239420291
 30
0.0
 40
0.238263066232054
 50
182.4311325864725859
 51
240.0134134342532093
  0
ARC
  5
A54F
  8
0
 10
4140.3526555202843156
 20
42.5232805745024791
 30
0.0
 40
0.0590582484124572
 50
185.0025435367919044
 51
264.8952448889169204
  0
ARC
  5
A550
  8
0
 10
4140.2913725357129806
 20
41.8370319617876518
 30
0.0
 40
0.6299212597659654
 50
53.3504307208014978
 51
84.8971002931879468
  0
ARC
  5
A551
  8
0
 10
4140.2913720451961126
 20
41.837031449123657
 30
0.0
 40
0.6299219638763294
 50
21.7965636799005189
 51
53.3504227598965386
  0
ARC
  5
A552
  8
0
 10
4140.931060599101329
 20
42.0929374735545991
 30
0.0
 40
0.0590551181000003
 50
201.8806657256857022
 51
269.9999432428122077
  0
LINE
  5
A553
  8
0
 10
4140.2776330704018619
 20
42.7031736940545983
 30
0.0
 11
4140.2938222349030184
 21
42.518130697139199
 31
0.0
  0
ARC
  5
A554
  8
0
 10
4145.7144216063197746
 20
42.5232805745024791
 30
0.0
 40
0.0590582484124572
 50
275.1047551110830796
 51
354.9974564632079819
  0
ARC
  5
A555
  8
0
 10
4145.7757045908892906
 20
41.8370319617876518
 30
0.0
 40
0.6299212597659654
 50
95.102899706812039
 51
126.6495692791985022
  0
ARC
  5
A556
  8
0
 10
4145.7757050814070681
 20
41.837031449123657
 30
0.0
 40
0.6299219638763294
 50
126.6495772401033975
 51
158.2034363200995131
  0
ARC
  5
A557
  8
0
 10
4145.1360165275009422
 20
42.0929374735546205
 30
0.0
 40
0.059055118100038
 50
270.0000384202830901
 51
338.1193342743043786
  0
LINE
  5
A558
  8
0
 10
4145.7894440562013187
 20
42.7031736940545983
 30
0.0
 11
4145.7732548916992528
 21
42.518130697139199
 31
0.0
  0
LINE
  5
A559
  8
0
 10
4140.2776330704018619
 20
42.7031736940545983
 30
0.0
 11
4145.7894440562013187
 21
42.7031736940545983
 31
0.0
  0
LINE
  5
A55A
  8
0
 10
4140.9310605406017203
 20
42.0338823554546295
 30
0.0
 11
4145.136016567101251
 21
42.0338823554546011
 31
0.0
  0
LINE
  5
A55C
  8
0
 10
4140.3474006968572212
 20
42.4644565697399798
 30
0.0
 11
4145.7196764297541449
 21
42.4644565697406833
 31
0.0
  0
LINE
  5
A55D
  8
0
 10
4142.7504655472021113
 20
39.4278977311546086
 30
0.0
 11
4143.3166116172797047
 21
39.4278977300524573
 31
0.0
  0
LINE
  5
A55E
  8
0
 10
4143.3234497823386846
 20
39.4020876088305627
 30
0.0
 11
4143.3322442045273419
 21
39.4017708494548984
 31
0.0
  0
LINE
  5
A55F
  8
0
 10
4143.3322442045273419
 20
39.4017708494548984
 30
0.0
 11
4143.3318399246982153
 21
39.3900105868348902
 31
0.0
  0
LINE
  5
A560
  8
0
 10
4143.3253054620327021
 20
39.3988121153933477
 30
0.0
 11
4143.332263198201872
 21
39.4017664019546032
 31
0.0
  0
LINE
  5
A561
  8
0
 10
4142.7348139620007714
 20
39.4017665187546129
 30
0.0
 11
4142.7436184535199573
 21
39.4020873472152289
 31
0.0
  0
LINE
  5
A562
  8
0
 10
4142.7348337591020027
 20
39.4017486627546134
 30
0.0
 11
4142.7352559157016003
 21
39.3900280175643687
 31
0.0
  0
LINE
  5
A563
  8
0
 10
4142.7348139620007714
 20
39.4017665187546129
 30
0.0
 11
4142.7417659763796109
 21
39.3988145465346875
 31
0.0
  0
ENDSEC
  0
EOF
