  0
SECTION
  2
HEADER
  9
$ACADVER
  1
AC1009
  9
$INSBASE
 10
4178.9194039318690557
 20
46.0005561690573828
 30
0.0
  9
$EXTMIN
 10
4165.8290035767222435
 20
39.7972557173052479
 30
0.0
  9
$EXTMAX
 10
4183.1030087274239122
 20
50.4796778917201294
 30
0.0
  9
$LIMMIN
 10
0.0
 20
0.0
  9
$LIMMAX
 10
11.6929133858000007
 20
8.2677165353999982
  9
$ORTHOMODE
 70
     0
  9
$REGENMODE
 70
     1
  9
$FILLMODE
 70
     1
  9
$QTEXTMODE
 70
     0
  9
$MIRRTEXT
 70
     0
  9
$DRAGMODE
 70
     2
  9
$LTSCALE
 40
0.6431102362
  9
$OSMODE
 70
  4095
  9
$ATTMODE
 70
     1
  9
$TEXTSIZE
 40
0.2
  9
$TRACEWID
 40
0.05
  9
$TEXTSTYLE
  7
STANDARD
  9
$CLAYER
  8
0
  9
$CELTYPE
  6
BYLAYER
  9
$CECOLOR
 62
   256
  9
$DIMSCALE
 40
1.0
  9
$DIMASZ
 40
0.1875
  9
$DIMEXO
 40
0.0625
  9
$DIMDLI
 40
0.4443307087
  9
$DIMRND
 40
0.0
  9
$DIMDLE
 40
0.0
  9
$DIMEXE
 40
0.125
  9
$DIMTP
 40
0.01
  9
$DIMTM
 40
0.01
  9
$DIMTXT
 40
2.0
  9
$DIMCEN
 40
0.1052362205
  9
$DIMTSZ
 40
0.0
  9
$DIMTOL
 70
     1
  9
$DIMLIM
 70
     0
  9
$DIMTIH
 70
     1
  9
$DIMTOH
 70
     1
  9
$DIMSE1
 70
     0
  9
$DIMSE2
 70
     0
  9
$DIMTAD
 70
     0
  9
$DIMZIN
 70
     0
  9
$DIMBLK
  1

  9
$DIMASO
 70
     1
  9
$DIMSHO
 70
     1
  9
$DIMPOST
  1
\X
  9
$DIMAPOST
  1

  9
$DIMALT
 70
     1
  9
$DIMALTD
 70
     2
  9
$DIMALTF
 40
25.3999999999999986
  9
$DIMLFAC
 40
1.0
  9
$DIMTOFL
 70
     0
  9
$DIMTVP
 40
0.0
  9
$DIMTIX
 70
     0
  9
$DIMSOXD
 70
     0
  9
$DIMSAH
 70
     0
  9
$DIMBLK1
  1

  9
$DIMBLK2
  1

  9
$DIMSTYLE
  2
STANDARD
  9
$DIMCLRD
 70
     0
  9
$DIMCLRE
 70
     0
  9
$DIMCLRT
 70
     0
  9
$DIMTFAC
 40
1.0
  9
$DIMGAP
 40
0.09
  9
$LUNITS
 70
     2
  9
$LUPREC
 70
     4
  9
$SKETCHINC
 40
0.1
  9
$FILLETRAD
 40
0.0
  9
$AUNITS
 70
     0
  9
$AUPREC
 70
     0
  9
$MENU
  1
.
  9
$ELEVATION
 40
0.0
  9
$PELEVATION
 40
0.0
  9
$THICKNESS
 40
0.0
  9
$LIMCHECK
 70
     0
  9
$BLIPMODE
 70
     0
  9
$CHAMFERA
 40
0.0
  9
$CHAMFERB
 40
0.0
  9
$SKPOLY
 70
     0
  9
$TDCREATE
 40
2458060.468368056230247
  9
$TDUPDATE
 40
2459131.4944212958216667
  9
$TDINDWG
 40
0.4299028935
  9
$TDUSRTIMER
 40
0.4299028935
  9
$USRTIMER
 70
     1
  9
$ANGBASE
 50
0.0
  9
$ANGDIR
 70
     0
  9
$PDMODE
 70
     0
  9
$PDSIZE
 40
0.3125
  9
$PLINEWID
 40
0.0
  9
$COORDS
 70
     1
  9
$SPLFRAME
 70
     0
  9
$SPLINETYPE
 70
     6
  9
$SPLINESEGS
 70
     8
  9
$ATTDIA
 70
     1
  9
$ATTREQ
 70
     1
  9
$HANDLING
 70
     1
  9
$HANDSEED
  5
A920
  9
$SURFTAB1
 70
     6
  9
$SURFTAB2
 70
     6
  9
$SURFTYPE
 70
     6
  9
$SURFU
 70
     6
  9
$SURFV
 70
     6
  9
$UCSNAME
  2

  9
$UCSORG
 10
0.0
 20
0.0
 30
0.0
  9
$UCSXDIR
 10
1.0
 20
0.0
 30
0.0
  9
$UCSYDIR
 10
0.0
 20
1.0
 30
0.0
  9
$PUCSNAME
  2

  9
$PUCSORG
 10
0.0
 20
0.0
 30
0.0
  9
$PUCSXDIR
 10
1.0
 20
0.0
 30
0.0
  9
$PUCSYDIR
 10
0.0
 20
1.0
 30
0.0
  9
$USERI1
 70
     0
  9
$USERI2
 70
     0
  9
$USERI3
 70
     0
  9
$USERI4
 70
     0
  9
$USERI5
 70
     0
  9
$USERR1
 40
0.0
  9
$USERR2
 40
0.0
  9
$USERR3
 40
0.0
  9
$USERR4
 40
0.0
  9
$USERR5
 40
0.0
  9
$WORLDVIEW
 70
     1
  9
$SHADEDGE
 70
     3
  9
$SHADEDIF
 70
    70
  9
$TILEMODE
 70
     1
  9
$MAXACTVP
 70
    64
  9
$PLIMCHECK
 70
     0
  9
$PEXTMIN
 10
1.0000000000000000E+20
 20
1.0000000000000000E+20
 30
1.0000000000000000E+20
  9
$PEXTMAX
 10
-1.0000000000000000E+20
 20
-1.0000000000000000E+20
 30
-1.0000000000000000E+20
  9
$PLIMMIN
 10
0.0
 20
0.0
  9
$PLIMMAX
 10
12.0
 20
9.0
  9
$UNITMODE
 70
     0
  9
$VISRETAIN
 70
     1
  9
$PLINEGEN
 70
     0
  9
$PSLTSCALE
 70
     1
  0
ENDSEC
  0
SECTION
  2
TABLES
  0
TABLE
  2
VPORT
 70
     1
  0
VPORT
  2
*ACTIVE
 70
     0
 10
0.0
 20
0.0
 11
1.0
 21
1.0
 12
393.3864643679362985
 22
-74.807881658190297
 13
0.0
 23
0.0
 14
1.0
 24
1.0
 15
0.0
 25
0.0
 16
0.0
 26
0.0
 36
5.1040778033513332
 17
3792.35791015625
 27
120.1806564331053977
 37
0.0
 40
24.4446363526242507
 41
2.005224660397074
 42
50.0
 43
0.0
 44
0.0
 50
0.0
 51
0.0
 71
     0
 72
   100
 73
     1
 74
     1
 75
     0
 76
     0
 77
     0
 78
     0
  0
ENDTAB
  0
TABLE
  2
LTYPE
 70
     2
  0
LTYPE
  2
CONTINUOUS
 70
     0
  3
Solid line
 72
    65
 73
     0
 40
0.0
  0
LTYPE
  2
PHANTOM2
 70
     0
  3
___ _ _ ___ _ _ ___ _ _ ___ _ _
 72
    65
 73
     6
 40
1.25
 49
0.625
 49
-0.125
 49
0.125
 49
-0.125
 49
0.125
 49
-0.125
  0
ENDTAB
  0
TABLE
  2
LAYER
 70
     2
  0
LAYER
  2
0
 70
     0
 62
   255
  6
CONTINUOUS
  0
LAYER
  2
DEFPOINTS
 70
     0
 62
     7
  6
CONTINUOUS
  0
ENDTAB
  0
TABLE
  2
STYLE
 70
     1
  0
STYLE
  2
STANDARD
 70
     0
 40
0.0
 41
0.8
 50
0.0
 71
     0
 42
0.2
  3
txt
  4

  0
ENDTAB
  0
TABLE
  2
VIEW
 70
     0
  0
ENDTAB
  0
TABLE
  2
UCS
 70
     0
  0
ENDTAB
  0
TABLE
  2
APPID
 70
     9
  0
APPID
  2
ACAD
 70
     0
  0
APPID
  2
ACAD_MLEADERVER
 70
     0
  0
APPID
  2
ACAD_EXEMPT_FROM_CAD_STANDARDS
 70
     0
  0
APPID
  2
ACAD_NAV_VCDISPLAY
 70
     0
  0
APPID
  2
ACAECLAYERSTANDARD
 70
     0
  0
APPID
  2
ACCMTRANSPARENCY
 70
     0
  0
APPID
  2
ACAD_DSTYLE_DIMJAG
 70
     0
  0
APPID
  2
ACAD_DSTYLE_DIMTALN
 70
     0
  0
APPID
  2
ACDBATTR
 70
     0
  0
ENDTAB
  0
TABLE
  2
DIMSTYLE
 70
     1
  0
DIMSTYLE
  2
STANDARD
 70
     0
  3

  4

  5

  6

  7

 40
1.0
 41
0.1875
 42
0.0625
 43
0.38
 44
0.125
 45
0.0
 46
0.0
 47
0.01
 48
0.01
140
0.15625
141
0.09
142
0.0
143
25.3999999999999986
144
1.0
145
0.0
146
1.0
147
0.09
 71
     1
 72
     0
 73
     1
 74
     1
 75
     0
 76
     0
 77
     0
 78
     4
170
     0
171
     2
172
     0
173
     0
174
     0
175
     0
176
     0
177
     0
178
     0
  0
ENDTAB
  0
ENDSEC
  0
SECTION
  2
BLOCKS
  0
BLOCK
  8
0
  2
$MODEL_SPACE
 70
     0
 10
0.0
 20
0.0
 30
0.0
  3
$MODEL_SPACE
  1

  0
ENDBLK
  5
21
  8
0
  0
BLOCK
 67
     1
  8
0
  2
$PAPER_SPACE
 70
     0
 10
0.0
 20
0.0
 30
0.0
  3
$PAPER_SPACE
  1

  0
ENDBLK
  5
1D
 67
     1
  8
0
  0
BLOCK
  8
0
  2
_FILLED
 70
     0
 10
0.0
 20
0.0
 30
0.0
  3
_FILLED
  1

  0
SOLID
  5
69B4
  8
0
  6
BYBLOCK
 62
     0
 10
0.0
 20
0.0
 30
0.0
 11
-1.0
 21
0.1666666667
 31
0.0
 12
-1.0
 22
-0.1666666667
 32
0.0
 13
-1.0
 23
-0.1666666667
 33
0.0
  0
ENDBLK
  5
69B5
  8
0
  6
BYBLOCK
 62
     0
  0
BLOCK
  8
0
  2
A$CDFAF6206
 70
     0
 10
0.0
 20
0.0
 30
0.0
  3
A$CDFAF6206
  1

  0
LINE
  5
6A0E
  8
0
 10
7.4646650085734834
 20
10.9287685970688493
 30
0.0
 11
7.4646650085734896
 21
10.8905784766688498
 31
0.0
  0
ARC
  5
6A0F
  8
0
 10
7.7269027075262349
 20
10.8926811525838598
 30
0.0
 40
0.2622461286616791
 50
180.4593995232625048
 51
217.0214027758331099
  0
LINE
  5
6A10
  8
0
 10
9.767814609867095
 20
10.9287685970688493
 30
0.0
 11
9.767814609867095
 21
10.8905433757650094
 31
0.0
  0
ARC
  5
6A11
  8
0
 10
9.5068669568548287
 20
10.8922438613003703
 30
0.0
 40
0.2609531936261092
 50
322.8847083717149076
 51
359.6266329125650145
  0
LINE
  5
6A12
  8
0
 10
7.517522606271406
 20
10.7347792678688396
 30
0.0
 11
9.7149570120691777
 21
10.7347792678688396
 31
0.0
  0
LINE
  5
6A13
  8
0
 10
7.4646650085734834
 20
10.9287685970688493
 30
0.0
 11
9.7678146123202936
 21
10.9287685970688493
 31
0.0
  0
ARC
  5
6A14
  8
0
 10
4.0826771419203629
 20
8.527951346868889
 30
0.0
 40
4.0826771653999172
 50
13.3117747050523896
 51
32.7200330051415591
  0
ARC
  5
6A15
  8
0
 10
4.0826771460567306
 20
8.5279513475907933
 30
0.0
 40
4.0826771612084691
 50
359.6656501984817851
 51
13.3117747085593798
  0
ARC
  5
6A16
  8
0
 10
13.1498041284835097
 20
8.5279508235212234
 30
0.0
 40
4.0826788382043553
 50
147.2799733478981068
 51
166.6882233021349862
  0
ARC
  5
6A17
  8
0
 10
13.1498064934207992
 20
8.5279506557033251
 30
0.0
 40
4.0826811782395342
 50
166.688228652086309
 51
180.3343397625230011
  0
LINE
  5
6A18
  8
0
 10
8.1652847935202928
 20
8.504127000268852
 30
0.0
 11
9.0671948248202892
 21
8.5041270002687881
 31
0.0
  0
LINE
  5
6A19
  8
0
 10
8.1652847935202786
 20
8.5041270002667204
 30
0.0
 11
8.1652847935202928
 21
8.3607006934688481
 31
0.0
  0
ARC
  5
6A1A
  8
0
 10
5.6196779630382627
 20
8.3631022096452732
 30
0.0
 40
2.545607963272567
 50
342.0511668832173768
 51
359.945947387132378
  0
LINE
  5
6A1B
  8
0
 10
9.0671948248202892
 20
8.5041270002687881
 30
0.0
 11
9.0671948248202892
 21
8.2885990108688503
 31
0.0
  0
ARC
  5
6A1C
  8
0
 10
9.4521885297801163
 20
7.9614488056228501
 30
0.0
 40
0.5052201595850959
 50
139.6436242991769916
 51
174.6757930071850069
  0
ARC
  5
6A1D
  8
0
 10
9.9238413395551746
 20
8.1492417579399508
 30
0.0
 40
0.9848265662939324
 50
188.2263441834095943
 51
209.5593615864376034
  0
ARC
  5
6A1E
  8
0
 10
8.0788764238271256
 20
7.5665710856463297
 30
0.0
 40
0.0393715937169877
 50
162.1669117288323037
 51
227.2023190037006088
  0
ARC
  5
6A1F
  8
0
 10
8.7223682141740682
 20
8.2079667397440517
 30
0.0
 40
0.947895137885075
 50
225.0018610752970858
 51
261.4598823366255829
  0
ARC
  5
6A20
  8
0
 10
8.6645157662702701
 20
8.1695128573935332
 30
0.0
 40
0.9027466462812931
 50
264.7303071214498118
 51
281.8608311947915013
  0
ARC
  5
6A21
  8
0
 10
8.6645157662698935
 20
8.1695128573999671
 30
0.0
 40
0.9027466462876658
 50
299.1741886792128753
 51
299.1743179154552195
  0
ARC
  5
6A22
  8
0
 10
9.0843330931590316
 20
7.4150554710086141
 30
0.0
 40
0.0393703053609601
 50
251.9700352025496954
 51
252.4698971938937859
  0
ARC
  5
6A23
  8
0
 10
9.0843330931590316
 20
7.4150554710086141
 30
0.0
 40
0.0393703053609601
 50
297.2453716727138726
 51
6.8376113572703074
  0
LINE
  5
6A24
  8
0
 10
9.0671948248202892
 20
7.663402160468852
 30
0.0
 11
9.1234233799329516
 21
7.419742732911689
 31
0.0
  0
ARC
  5
6A25
  8
0
 10
8.8843741880892395
 20
9.8961379890094676
 30
0.0
 40
2.5255097382132701
 50
263.792800240752797
 51
274.9514951129821156
  0
ARC
  5
6A26
  8
0
 10
8.8258167405968848
 20
9.2763025889666508
 30
0.0
 40
1.9029970832759311
 50
246.0108363320686067
 51
263.5276935074397215
  0
ARC
  5
6A27
  8
0
 10
8.607491361665744
 20
8.3225444804829642
 30
0.0
 40
1.064510137163637
 50
283.1717405874071005
 51
297.7022170607311864
  0
LINE
  5
6A28
  8
0
 10
9.0671948248202892
 20
8.2885990108688503
 30
0.0
 11
26.2014378595979593
 21
8.2885990108689942
 31
0.0
  0
LINE
  5
6A29
  8
0
 10
26.2014378595979913
 20
7.6634021604689053
 30
0.0
 11
9.0671948248202892
 21
7.6634021604688618
 31
0.0
  0
LINE
  5
6A2A
  8
0
 10
27.8039676758446994
 20
10.9287685970690802
 30
0.0
 11
27.8039676758446888
 21
10.8905784766690807
 31
0.0
  0
ARC
  5
6A2B
  8
0
 10
27.5417299768919399
 20
10.8926811525840801
 30
0.0
 40
0.2622461286616791
 50
322.9785972241680838
 51
359.5406004767386889
  0
LINE
  5
6A2C
  8
0
 10
25.5008180745510913
 20
10.9287685970690305
 30
0.0
 11
25.5008180745510913
 21
10.8905433757651799
 31
0.0
  0
ARC
  5
6A2D
  8
0
 10
25.7617657275633505
 20
10.8922438613005497
 30
0.0
 40
0.2609531936261092
 50
180.3733670874362929
 51
217.1152916282862861
  0
LINE
  5
6A2E
  8
0
 10
27.7511100781467803
 20
10.7347792678690706
 30
0.0
 11
25.5536756723490015
 21
10.7347792678690208
 31
0.0
  0
LINE
  5
6A2F
  8
0
 10
27.8039676758446888
 20
10.9287685970686006
 30
0.0
 11
25.5008180745510806
 21
10.9287685970686006
 31
0.0
  0
ARC
  5
6A30
  8
0
 10
31.1859555424978616
 20
8.5279513468691981
 30
0.0
 40
4.0826771653999172
 50
147.2799669948597057
 51
166.6882252949490066
  0
ARC
  5
6A31
  8
0
 10
31.185955538361501
 20
8.5279513475911024
 30
0.0
 40
4.0826771612084691
 50
166.6882252914419098
 51
180.3343498015194086
  0
ARC
  5
6A32
  8
0
 10
22.1188285559344706
 20
8.5279508235212251
 30
0.0
 40
4.0826788382046102
 50
13.3117766978667795
 51
32.7200266521023977
  0
ARC
  5
6A33
  8
0
 10
22.1188261909974315
 20
8.5279506557034264
 30
0.0
 40
4.0826811782395342
 50
359.665660237478221
 51
13.31177134791497
  0
LINE
  5
6A34
  8
0
 10
27.1033478908979397
 20
8.5041270002690652
 30
0.0
 11
26.2014378595979416
 21
8.5041270002689835
 31
0.0
  0
LINE
  5
6A35
  8
0
 10
27.1033478908979504
 20
8.5041270002669354
 30
0.0
 11
27.1033478908979397
 21
8.3607006934690649
 31
0.0
  0
ARC
  5
6A36
  8
0
 10
29.6489547213799689
 20
8.3631022096455467
 30
0.0
 40
2.545607963272567
 50
180.0540526128687873
 51
197.9488331167837032
  0
LINE
  5
6A37
  8
0
 10
26.2014378595979416
 20
8.5041270002689835
 30
0.0
 11
26.2014378595979487
 21
8.2885990108690457
 31
0.0
  0
ARC
  5
6A38
  8
0
 10
25.8164441546381305
 20
7.9614488056230366
 30
0.0
 40
0.5052201595850959
 50
5.324206992816312
 51
40.3563757008241879
  0
ARC
  5
6A39
  8
0
 10
25.3447913448601803
 20
8.149241757940846
 30
0.0
 40
0.9848265662968968
 50
330.4406384136033807
 51
351.7736558165743759
  0
ARC
  5
6A3A
  8
0
 10
27.1897562605911212
 20
7.5665710856465473
 30
0.0
 40
0.0393715937169877
 50
312.7976809963004143
 51
17.8330882711689185
  0
ARC
  5
6A3B
  8
0
 10
26.5462644702441715
 20
8.2079667397442542
 30
0.0
 40
0.947895137885075
 50
278.5401176633754972
 51
314.9981389247041079
  0
ARC
  5
6A3C
  8
0
 10
26.6041169181479695
 20
8.1695128573937392
 30
0.0
 40
0.9027466462812931
 50
258.139168805210204
 51
275.2696928785518935
  0
ARC
  5
6A3D
  8
0
 10
26.6041169181483497
 20
8.1695128574001732
 30
0.0
 40
0.9027466462876658
 50
240.8256820845460027
 51
240.8258113207880058
  0
ARC
  5
6A3E
  8
0
 10
26.1842995912592293
 20
7.4150554710088086
 30
0.0
 40
0.0393703053609601
 50
287.5301028061073794
 51
288.0299647974517825
  0
ARC
  5
6A3F
  8
0
 10
26.1842995912592293
 20
7.4150554710088086
 30
0.0
 40
0.0393703053609601
 50
173.1623886427310026
 51
242.7546283272870085
  0
LINE
  5
6A40
  8
0
 10
26.2014378595981192
 20
7.6634021604690448
 30
0.0
 11
26.1452093044853093
 21
7.4197427329118826
 31
0.0
  0
ARC
  5
6A41
  8
0
 10
26.384258496328961
 20
9.8961379890096666
 30
0.0
 40
2.5255097382132701
 50
265.0485048870193054
 51
276.2071997592482262
  0
ARC
  5
6A42
  8
0
 10
26.4428159438213299
 20
9.2763025889668516
 30
0.0
 40
1.9029970832759311
 50
276.4723064925619838
 51
293.9891636679327007
  0
ARC
  5
6A43
  8
0
 10
26.6611413227524885
 20
8.3225444804831703
 30
0.0
 40
1.064510137163637
 50
242.2977829392704052
 51
256.8282594125943774
  0
LINE
  5
6A44
  8
0
 62
     4
 10
17.9031473532159602
 20
10.9287685970686006
 30
0.0
 11
24.6329820359843588
 21
20.0952817181593808
 31
0.0
  0
LINE
  5
6A45
  8
0
 62
     4
 10
17.9031473532159602
 20
-0.0000000300842942
 30
0.0
 11
22.3963351323106608
 21
4.993614497796286
 31
0.0
  0
ENDBLK
  5
6A49
  8
0
  0
ENDSEC
  0
SECTION
  2
ENTITIES
  0
ATTDEF
  5
3930
  8
DEFPOINTS
 10
4178.9225591910280855
 20
46.0043507928419686
 30
0.0
 40
0.001
  1
K-99960T-4V
  3

  2
MODELNUMBER
 70
     0
1001
ACDBATTR
1070
     0
1070
     1
  0
ATTDEF
  5
3931
  8
DEFPOINTS
 10
4178.9225591910280855
 20
46.0026841261753106
 30
0.0
 40
0.001
  1
MODULO
  3

  2
TRADENAME
 70
     0
1001
ACDBATTR
1070
     0
1070
     1
  0
ATTDEF
  5
3932
  8
DEFPOINTS
 10
4178.9225591910280855
 20
46.0010174595086525
 30
0.0
 40
0.001
  1
VALVE TRIM
  3

  2
PRODUCT
 70
     0
1001
ACDBATTR
1070
     0
1070
     1
  0
ARC
  5
A825
  8
0
 10
4176.9140465671262064
 20
47.9887148252348581
 30
0.0
 40
0.0197528007153485
 50
90.194103294604318
 51
175.5640821354616889
  0
ARC
  5
A826
  8
0
 10
4177.388517652732844
 20
47.9887159501584009
 30
0.0
 40
0.0197516714921426
 50
2.078069233782927
 51
89.809608294294307
  0
ARC
  5
A827
  8
0
 10
4176.915728931265221
 20
47.0457970632119569
 30
0.0
 40
0.0216522968034138
 50
189.1630643521399975
 51
265.3660439476806232
  0
ARC
  5
A828
  8
0
 10
4177.3886486038381918
 20
47.0438342006573507
 30
0.0
 40
0.0196187653876615
 50
269.8092436010193182
 51
358.078221103842111
  0
ARC
  5
A829
  8
0
 10
4183.0372958609650595
 20
47.5162958177646928
 30
0.0
 40
6.1611990157025902
 50
175.5881960228049934
 51
184.4118039771948929
  0
LINE
  5
A82A
  8
0
 10
4177.4082563344682058
 20
47.0431762836135903
 30
0.0
 11
4177.4110299918693272
 21
47.1226034392493673
 31
0.0
  0
LINE
  5
A82B
  8
0
 10
4177.4110299918693272
 20
47.1226034392493673
 30
0.0
 11
4177.4110299918693272
 21
47.9100050140493607
 31
0.0
  0
LINE
  5
A82C
  8
0
 10
4177.4110299918693272
 20
47.9100050140493607
 30
0.0
 11
4177.4082563344682058
 21
47.989432169445287
 31
0.0
  0
LINE
  5
A82D
  8
0
 10
4176.9139796498693613
 20
47.0242155440009029
 30
0.0
 11
4177.388583286669018
 21
47.02421554400091
 31
0.0
  0
LINE
  5
A82E
  8
0
 10
4176.9139796498693613
 20
48.008467512600923
 30
0.0
 11
4177.388583286669018
 21
48.0084675126009088
 31
0.0
  0
LINE
  5
A82F
  8
0
 10
4177.4110299918693272
 20
47.9100050140493607
 30
0.0
 11
4177.5020810972682739
 21
47.9100050140493607
 31
0.0
  0
LINE
  5
A830
  8
0
 10
4177.4110299918693272
 20
47.1226034392493673
 30
0.0
 11
4177.5020810972682739
 21
47.1226034392493673
 31
0.0
  0
LINE
  5
A831
  8
0
 10
4178.2501125932703872
 20
47.9981104853970422
 30
0.0
 11
4177.5217661365677486
 21
47.9985876911493605
 31
0.0
  0
LINE
  5
A832
  8
0
 10
4177.5217661365677486
 20
47.9985876911493605
 30
0.0
 11
4177.5020810972682739
 21
47.9789026518493529
 31
0.0
  0
LINE
  5
A833
  8
0
 10
4177.5020810972682739
 20
47.9789026518493529
 30
0.0
 11
4177.5020810972682739
 21
47.0537058014493468
 31
0.0
  0
LINE
  5
A834
  8
0
 10
4177.5020810972682739
 20
47.0537058014493468
 30
0.0
 11
4177.5217661365677486
 21
47.0340207620493729
 31
0.0
  0
LINE
  5
A835
  8
0
 10
4177.5217661365677486
 20
47.0340207620493729
 30
0.0
 11
4178.2501125932703872
 21
47.0340207620493587
 31
0.0
  0
LINE
  5
A836
  8
0
 10
4177.5217661365677486
 20
47.9985876911493605
 30
0.0
 11
4177.5217661365677486
 21
47.0340207620493729
 31
0.0
  0
ARC
  5
A837
  8
0
 10
4177.6690044030301578
 20
47.5224767874300866
 30
0.0
 40
0.7210379058108272
 50
166.1662031884715134
 51
175.675437978630498
  0
LINE
  5
A838
  8
0
 10
4176.9912624448679708
 20
47.788523835337763
 30
0.0
 11
4176.9688813493694397
 21
47.6948814606493627
 31
0.0
  0
LINE
  5
A839
  8
0
 10
4176.9500193646690605
 20
47.576847516949357
 30
0.0
 11
4176.9500189703685464
 21
47.4557596467493568
 31
0.0
  0
LINE
  5
A83A
  8
0
 10
4176.9688794324692935
 20
47.3377257603493575
 30
0.0
 11
4176.9912624448679708
 21
47.2440842996493586
 31
0.0
  0
ARC
  5
A83B
  8
0
 10
4177.1849684775406786
 20
47.2799719869369497
 30
0.0
 40
0.1970024192546032
 50
190.4961097491965916
 51
205.1698550315907994
  0
ARC
  5
A83C
  8
0
 10
4172.0383655270461531
 20
45.0522594019389331
 30
0.0
 40
5.4111444292350379
 50
22.5043903684598909
 51
23.3411982230946506
  0
ARC
  5
A83D
  8
0
 10
4177.1082145755390229
 20
47.1474158903811471
 30
0.0
 40
0.0747271781434292
 50
198.7482453946155943
 51
233.0033022960880089
  0
LINE
  5
A83E
  8
0
 10
4176.9500189703685464
 20
47.4557596467493568
 30
0.0
 11
4176.9569992004207961
 21
47.3963491275192865
 31
0.0
  0
LINE
  5
A83F
  8
0
 10
4176.9569992004207961
 20
47.3963491275192865
 30
0.0
 11
4176.9688794324692935
 21
47.3377257603493575
 31
0.0
  0
ARC
  5
A840
  8
0
 10
4177.5173026145648691
 20
47.6410824922388798
 30
0.0
 40
0.5463123738195684
 50
146.214979532434711
 51
164.3425949259440983
  0
ARC
  5
A841
  8
0
 10
4176.6343703898073727
 20
47.5224767874300866
 30
0.0
 40
0.7210379058108272
 50
4.324562021369446
 51
13.8337968115284493
  0
LINE
  5
A842
  8
0
 10
4177.3121123479677408
 20
47.788523835337763
 30
0.0
 11
4177.3344934434690003
 21
47.6948814606493627
 31
0.0
  0
LINE
  5
A843
  8
0
 10
4177.3533554281693796
 20
47.576847516949357
 30
0.0
 11
4177.3533558224689841
 21
47.4557596467493568
 31
0.0
  0
LINE
  5
A844
  8
0
 10
4177.334495360368237
 20
47.3377257603493575
 30
0.0
 11
4177.3121123479677408
 21
47.2440842996493586
 31
0.0
  0
ARC
  5
A845
  8
0
 10
4177.118406315296852
 20
47.2799719869369497
 30
0.0
 40
0.1970024192546032
 50
334.8301449684090016
 51
349.5038902508034084
  0
ARC
  5
A846
  8
0
 10
4182.2650092657922869
 20
45.0522594019389331
 30
0.0
 40
5.4111444292350379
 50
156.6588017769053067
 51
157.4956096315401055
  0
ARC
  5
A847
  8
0
 10
4177.1951599227886618
 20
47.1474160424671425
 30
0.0
 40
0.0747275059084697
 50
306.9967910847381063
 51
341.2517167612883782
  0
LINE
  5
A848
  8
0
 10
4177.3533558224689841
 20
47.4557596467493568
 30
0.0
 11
4177.3463755924158249
 21
47.3963491275192865
 31
0.0
  0
LINE
  5
A849
  8
0
 10
4177.3463755924158249
 20
47.3963491275192865
 30
0.0
 11
4177.334495360368237
 21
47.3377257603493575
 31
0.0
  0
ARC
  5
A84A
  8
0
 10
4176.7860721782726614
 20
47.6410824922388798
 30
0.0
 40
0.5463123738195684
 50
15.6574050740559105
 51
33.7850204675652392
  0
LINE
  5
A84B
  8
0
 10
4177.0632460768692908
 20
47.9448749713493569
 30
0.0
 11
4177.2401287159691492
 21
47.9448749713493569
 31
0.0
  0
LINE
  5
A84C
  8
0
 10
4177.0632460768692908
 20
47.087733520449369
 30
0.0
 11
4177.2401287159691492
 21
47.0877334840493731
 31
0.0
  0
ARC
  5
A84D
  8
0
 10
4178.7395078349836695
 20
49.4688428022617472
 30
0.0
 40
0.0590550175540044
 50
95.0301997809507952
 51
174.8978703083681125
  0
ARC
  5
A84E
  8
0
 10
4178.3091677113679907
 20
48.8904347407852384
 30
0.0
 40
0.0590551181000107
 50
111.8037479893891941
 51
180.0
  0
ARC
  5
A84F
  8
0
 10
4178.0532621998354443
 20
49.5301228038927306
 30
0.0
 40
0.6299212595181096
 50
291.8037479744536995
 51
354.8971003059896816
  0
LINE
  5
A850
  8
0
 10
4178.7343298431796939
 20
49.527670376571642
 30
0.0
 11
4178.9194039318690557
 21
49.5438632921485933
 31
0.0
  0
LINE
  5
A851
  8
0
 10
4178.9194039318690557
 20
49.5438632921485933
 30
0.0
 11
4178.9194039318690557
 21
42.4572490459661722
 31
0.0
  0
ARC
  5
A852
  8
0
 10
4177.1094450620694261
 20
45.8430054780722713
 30
0.0
 40
0.0787401574999996
 50
270.7223627571225961
 51
344.9999884862297108
  0
ARC
  5
A853
  8
0
 10
4177.2219103685692971
 20
45.8824459577722834
 30
0.0
 40
0.0196850393999965
 50
90.000000291035505
 51
165.0000000720270918
  0
ARC
  5
A854
  8
0
 10
4177.2579866089690768
 20
45.9100050128722827
 30
0.0
 40
0.0118110236
 50
90.0
 51
180.0
  0
ARC
  5
A855
  8
0
 10
4176.7378142573734294
 20
45.8972491189622502
 30
0.0
 40
0.0299999999863391
 50
16.3789785468703393
 51
90.0000000091714156
  0
ARC
  5
A856
  8
0
 10
4177.1206129254342159
 20
44.9572491071459481
 30
0.0
 40
0.8070866144346629
 50
90.7223629037723782
 51
111.2591182125199936
  0
LINE
  5
A857
  8
0
 10
4177.1855022096688117
 20
45.8226260104129821
 30
0.0
 11
4177.2028960806137547
 21
45.8875408208486917
 31
0.0
  0
LINE
  5
A858
  8
0
 10
4177.2219103685692971
 20
45.9021309971722786
 30
0.0
 11
4177.2461755853692011
 21
45.9021309971722786
 31
0.0
  0
ARC
  5
A859
  8
0
 10
4175.9053094438568223
 20
45.4730771869452397
 30
0.0
 40
0.0300000001882197
 50
146.0000001595959134
 51
179.999999948337603
  0
ARC
  5
A85A
  8
0
 10
4176.1914169231868073
 20
45.8972494938826117
 30
0.0
 40
0.0299996250661221
 50
89.9998214611521092
 51
146.0007424394671034
  0
ARC
  5
A85B
  8
0
 10
4182.4966777176177857
 20
47.5896463126822624
 30
0.0
 40
5.9723925742544779
 50
196.3768355498650919
 51
198.3499887524716883
  0
ARC
  5
A85C
  8
0
 10
4182.5212818636482552
 20
47.5968340118513424
 30
0.0
 40
5.9980085356558721
 50
198.3411653207533902
 51
206.0425888498016889
  0
ARC
  5
A85D
  8
0
 10
4177.1053094434892046
 20
44.950302384951712
 30
0.0
 40
0.0300000001802138
 50
359.9999836144710912
 51
26.0428105925656013
  0
LINE
  5
A85E
  8
0
 10
4176.1914170166692202
 20
45.9272491189485876
 30
0.0
 11
4176.737814257368882
 21
45.9272491189485805
 31
0.0
  0
LINE
  5
A85F
  8
0
 10
4175.880438316477921
 20
45.4898529740853306
 30
0.0
 11
4176.1665458894613039
 21
45.914024749035562
 31
0.0
  0
LINE
  5
A860
  8
0
 10
4177.2579866089690768
 20
45.9218160364722934
 30
0.0
 11
4178.2501125932703872
 21
45.9218160364722934
 31
0.0
  0
ARC
  5
A861
  8
0
 10
4177.1094450778973624
 20
44.0714927502303411
 30
0.0
 40
0.0787401394927423
 50
15.00000711188172
 51
70.8236067201360129
  0
ARC
  5
A862
  8
0
 10
4177.2219103685692971
 20
44.0320522600264326
 30
0.0
 40
0.0196850393999965
 50
194.9999999279727945
 51
269.9999997089644808
  0
ARC
  5
A863
  8
0
 10
4177.2579866089690768
 20
44.0044932049264403
 30
0.0
 40
0.0118110236
 50
180.0
 51
270.0
  0
LINE
  5
A864
  8
0
 10
4177.1855022096688117
 20
44.0918722073857623
 30
0.0
 11
4177.2028960806137547
 21
44.0269573969500314
 31
0.0
  0
LINE
  5
A865
  8
0
 10
4177.2219103685692971
 20
44.0123672206264516
 30
0.0
 11
4177.2461755853692011
 21
44.0123672206264516
 31
0.0
  0
ARC
  5
A866
  8
0
 10
4175.9053094438568223
 20
44.4414210308534976
 30
0.0
 40
0.0300000001882197
 50
180.000000051662397
 51
213.9999998404045982
  0
ARC
  5
A867
  8
0
 10
4176.1914170236696009
 20
44.0172491470272789
 30
0.0
 40
0.030000028078693
 50
214.0000552326035006
 51
269.99998662945859
  0
LINE
  5
A868
  8
0
 10
4176.1914170166692202
 20
43.9872491189485899
 30
0.0
 11
4176.3173898219192779
 21
43.9876305440985931
 31
0.0
  0
LINE
  5
A869
  8
0
 10
4175.880438316477921
 20
44.4246452437134067
 30
0.0
 11
4176.1665458893776304
 21
44.000473320259232
 31
0.0
  0
LINE
  5
A86A
  8
0
 10
4177.2579866089690768
 20
43.992682181326451
 30
0.0
 11
4178.2501125932703872
 21
43.992682181326451
 31
0.0
  0
LINE
  5
A86B
  8
0
 10
4175.8753094436688116
 20
45.473077186972283
 30
0.0
 11
4175.8753094436688116
 21
44.4414210308534976
 31
0.0
  0
LINE
  5
A86C
  8
0
 10
4176.1665458894613039
 20
45.914024749035562
 30
0.0
 11
4176.1665458893776304
 21
44.000473320259232
 31
0.0
  0
LINE
  5
A86D
  8
0
 10
4177.2028960806137547
 20
44.0269573969500314
 30
0.0
 11
4177.2028960785683012
 21
45.887531620772279
 31
0.0
  0
LINE
  5
A86E
  8
0
 10
4177.2461755853692011
 20
45.9100050120722827
 30
0.0
 11
4177.2461755853692011
 21
44.0044932049264403
 31
0.0
  0
ARC
  5
A86F
  8
0
 10
4178.7395080205005797
 20
42.5322675538862001
 30
0.0
 40
0.0590550175540044
 50
185.1021327563526029
 51
264.9698032837292772
  0
ARC
  5
A870
  8
0
 10
4178.3091681609312218
 20
43.1106759585389128
 30
0.0
 40
0.0590555676635736
 50
180.0003840576752907
 51
248.1961213171736063
  0
ARC
  5
A871
  8
0
 10
4178.053262388629264
 20
42.4709875155483587
 30
0.0
 40
0.6299212595181096
 50
5.1029027587277254
 51
68.196255090268977
  0
LINE
  5
A872
  8
0
 10
4178.7343300318443653
 20
42.47343997929935
 30
0.0
 11
4178.9194039318690557
 21
42.4572490459661722
 31
0.0
  0
LINE
  5
A873
  8
0
 10
4178.2501125932703872
 20
48.8904347407852384
 30
0.0
 11
4178.2501125932703872
 21
43.1106755626852518
 31
0.0
  0
ARC
  5
A874
  8
0
 10
4177.1053094437647815
 20
44.017249118956407
 30
0.0
 40
0.0300000000078051
 50
270.0000000066701205
 51
0.0009734403521226
  0
ARC
  5
A875
  8
0
 10
4176.4953471868257111
 20
43.0341686174309217
 30
0.0
 40
0.9699270433023983
 50
79.2336058406282575
 51
100.572234587332801
  0
LINE
  5
A876
  8
0
 10
4176.6765345428957517
 20
43.9870220223832575
 30
0.0
 11
4177.1053094437702384
 21
43.9872491189485828
 31
0.0
  0
LINE
  5
A877
  8
0
 10
4177.1353094436690299
 20
44.950302376372278
 30
0.0
 11
4177.1353094437690743
 21
44.017249628648571
 31
0.0
  0
LINE
  5
A878
  8
0
 10
4178.6806868500489145
 20
49.4740951185071509
 30
0.0
 11
4178.6806870358459491
 21
42.5270152344945132
 31
0.0
  0
ARC
  5
A879
  8
0
 10
4175.663832779864606
 20
45.3253075882763099
 30
0.0
 40
0.0221150530597803
 50
93.7346123165399803
 51
156.0213069212227026
  0
ARC
  5
A87A
  8
0
 10
4175.5048176768859776
 20
45.3779837675009503
 30
0.0
 40
0.1455216267230101
 50
286.0930604603178722
 51
342.5291052243455283
  0
ARC
  5
A87B
  8
0
 10
4175.4724404150001646
 20
45.561242092732293
 30
0.0
 40
0.3311593851386887
 50
272.25499356628859
 51
282.6842998347327125
  0
ARC
  5
A87C
  8
0
 10
4174.9626299566316447
 20
45.2103391553849789
 30
0.0
 40
0.0199999984636069
 50
89.9999955985633875
 51
180.0000025130327117
  0
ARC
  5
A87D
  8
0
 10
4175.5854279919603869
 20
44.4671285444117572
 30
0.0
 40
0.0999919617814556
 50
90.0082820210706984
 51
179.9978448550452867
  0
ARC
  5
A87E
  8
0
 10
4174.8216285543812774
 20
42.3036905470889977
 30
0.0
 40
0.0200002346184777
 50
169.8255277649460027
 51
224.5359763016610088
  0
ARC
  5
A87F
  8
0
 10
4174.919933067594684
 20
42.2042389761830421
 30
0.0
 40
0.0200000001344477
 50
224.667741853578093
 51
269.9999999228248271
  0
ARC
  5
A880
  8
0
 10
4175.4939946688409691
 20
42.2042389761830279
 30
0.0
 40
0.0200000001344435
 50
270.0000000771751729
 51
315.3322582694087259
  0
ARC
  5
A881
  8
0
 10
4175.5923699906197726
 20
42.3037620352936088
 30
0.0
 40
0.0200000939809944
 50
315.4027050901848952
 51
9.6851022976527581
  0
LINE
  5
A882
  8
0
 10
4174.8073721830578506
 20
42.289663242946439
 30
0.0
 11
4174.9057091597978797
 21
42.1901790881205727
 31
0.0
  0
LINE
  5
A883
  8
0
 10
4174.919933067594684
 20
42.1842389760485901
 30
0.0
 11
4175.4939946688409691
 21
42.1842389760485901
 31
0.0
  0
LINE
  5
A884
  8
0
 10
4175.5082185765868417
 20
42.1901790880675378
 30
0.0
 11
4175.6066112414546296
 21
42.2897195805972927
 31
0.0
  0
LINE
  5
A885
  8
0
 10
4174.9426299581691637
 20
45.2103391545077713
 30
0.0
 11
4174.9426299645692779
 21
44.6786430389485929
 31
0.0
  0
LINE
  5
A886
  8
0
 10
4175.6623923128718161
 20
45.3473756789658395
 30
0.0
 11
4175.8753094436688116
 21
45.3473756789658395
 31
0.0
  0
LINE
  5
A887
  8
0
 10
4175.5854135382733148
 20
44.567120505148587
 30
0.0
 11
4175.8753094436688116
 21
44.567120505148587
 31
0.0
  0
LINE
  5
A888
  8
0
 10
4174.9626299581996136
 20
45.2303391538485897
 30
0.0
 11
4175.4854705110692521
 21
45.2303391538485897
 31
0.0
  0
LINE
  5
A889
  8
0
 10
4175.4854388899693731
 20
44.5376202204485807
 30
0.0
 11
4175.4854029817452101
 21
44.3901288225780633
 31
0.0
  0
ARC
  5
A88A
  8
0
 10
4175.7204268910809333
 20
44.4872307625923114
 30
0.0
 40
0.2497288307425603
 50
122.7136988399933983
 51
150.942830552763894
  0
ARC
  5
A88B
  8
0
 10
4175.6473099152826762
 20
44.5369268730912822
 30
0.0
 40
0.1618725102260228
 50
153.7506612730614961
 51
179.7545846498055084
  0
ARC
  5
A88C
  8
0
 10
4175.5452626251826587
 20
45.2345282554265893
 30
0.0
 40
0.0036380419485524
 50
37.1300108808989577
 51
91.6791509611001061
  0
ARC
  5
A88D
  8
0
 10
4175.533582993917662
 20
45.2234390711215823
 30
0.0
 40
0.0197250243370736
 50
29.36261415414927
 51
42.3393304801923165
  0
ARC
  5
A88E
  8
0
 10
4175.5152366817692382
 20
45.1106535048668178
 30
0.0
 40
0.127509818519627
 50
42.3475111267637701
 51
73.8200124977851431
  0
ARC
  5
A88F
  8
0
 10
4175.4838426028991307
 20
45.0899349151843509
 30
0.0
 40
0.1647722589645627
 50
15.8216043309047603
 51
40.3179913236733967
  0
ARC
  5
A890
  8
0
 10
4175.1331028351205532
 20
44.9922171978653367
 30
0.0
 40
0.5288688510063074
 50
359.5766941037779816
 51
15.6470683225289999
  0
ARC
  5
A891
  8
0
 10
4175.5209104379464407
 20
44.7968940249984229
 30
0.0
 40
0.1186442254581498
 50
302.9622070515146106
 51
319.2191022649548131
  0
ARC
  5
A892
  8
0
 10
4175.4987740050146385
 20
44.8145773972527124
 30
0.0
 40
0.146960319532465
 50
319.6357769913940956
 51
337.9194612243692859
  0
ARC
  5
A893
  8
0
 10
4175.3381645340023169
 20
44.8767005591956334
 30
0.0
 40
0.3191551485427386
 50
338.4235346228697949
 51
352.6457703640833188
  0
ARC
  5
A894
  8
0
 10
4174.7595522130286554
 20
44.9548946990000573
 30
0.0
 40
0.9030234942489139
 50
352.4245510709690734
 51
2.1206398339226831
  0
ARC
  5
A895
  8
0
 10
4168.3504798561571079
 20
43.4584240324529532
 30
0.0
 40
6.5533683863280974
 50
349.882613495301996
 51
350.7834585503471203
  0
ARC
  5
A896
  8
0
 10
4167.0906270450514057
 20
43.6600229221393334
 30
0.0
 40
7.8292463995231278
 50
350.8038728734031793
 51
353.9602406714174094
  0
ARC
  5
A897
  8
0
 10
4162.9193569988201489
 20
44.04874231866944
 30
0.0
 40
12.0183766680462991
 50
354.2097329619980997
 51
358.6973100681336746
  0
ARC
  5
A898
  8
0
 10
4139.6222437352489578
 20
44.540012653151031
 30
0.0
 40
35.3206582862245497
 50
358.7597624391951854
 51
0.2248813243405
  0
ARC
  5
A899
  8
0
 10
4182.6550596847000634
 20
43.5025283995537322
 30
0.0
 40
7.1437019258636489
 50
187.9715426563527956
 51
189.632990316578713
  0
ARC
  5
A89A
  8
0
 10
4183.6511235423167818
 20
43.6384224464906225
 30
0.0
 40
8.1489876190090111
 50
185.3095664026340046
 51
187.9465511278000065
  0
ARC
  5
A89B
  8
0
 10
4187.2073203702675528
 20
43.9360391530743328
 30
0.0
 40
11.7175119838494801
 50
181.3025121415747947
 51
185.1494780284143076
  0
ARC
  5
A89C
  8
0
 10
4204.9392356130238113
 20
44.3337545215117785
 30
0.0
 40
29.4538865811144497
 50
179.8903366627926914
 51
181.2919016054107999
  0
ENDSEC
  0
EOF
