  0
SECTION
  2
HEADER
  9
$ACADVER
  1
AC1009
  9
$INSBASE
 10
4173.7620873881578518
 20
46.9801944876672977
 30
0.0
  9
$EXTMIN
 10
4163.5768812542728483
 20
42.8624188680417788
 30
0.0
  9
$EXTMAX
 10
4176.5179929009473199
 20
50.5716496251307603
 30
0.0
  9
$LIMMIN
 10
0.0
 20
0.0
  9
$LIMMAX
 10
11.6929133858000007
 20
8.2677165353999982
  9
$ORTHOMODE
 70
     0
  9
$REGENMODE
 70
     1
  9
$FILLMODE
 70
     1
  9
$QTEXTMODE
 70
     0
  9
$MIRRTEXT
 70
     0
  9
$DRAGMODE
 70
     2
  9
$LTSCALE
 40
0.6431102362
  9
$OSMODE
 70
  4095
  9
$ATTMODE
 70
     1
  9
$TEXTSIZE
 40
0.2
  9
$TRACEWID
 40
0.05
  9
$TEXTSTYLE
  7
STANDARD
  9
$CLAYER
  8
0
  9
$CELTYPE
  6
BYLAYER
  9
$CECOLOR
 62
   256
  9
$DIMSCALE
 40
1.0
  9
$DIMASZ
 40
0.1875
  9
$DIMEXO
 40
0.0625
  9
$DIMDLI
 40
0.4443307087
  9
$DIMRND
 40
0.0
  9
$DIMDLE
 40
0.0
  9
$DIMEXE
 40
0.125
  9
$DIMTP
 40
0.01
  9
$DIMTM
 40
0.01
  9
$DIMTXT
 40
2.0
  9
$DIMCEN
 40
0.1052362205
  9
$DIMTSZ
 40
0.0
  9
$DIMTOL
 70
     1
  9
$DIMLIM
 70
     0
  9
$DIMTIH
 70
     1
  9
$DIMTOH
 70
     1
  9
$DIMSE1
 70
     0
  9
$DIMSE2
 70
     0
  9
$DIMTAD
 70
     0
  9
$DIMZIN
 70
     0
  9
$DIMBLK
  1

  9
$DIMASO
 70
     1
  9
$DIMSHO
 70
     1
  9
$DIMPOST
  1
\X
  9
$DIMAPOST
  1

  9
$DIMALT
 70
     1
  9
$DIMALTD
 70
     2
  9
$DIMALTF
 40
25.3999999999999986
  9
$DIMLFAC
 40
1.0
  9
$DIMTOFL
 70
     0
  9
$DIMTVP
 40
0.0
  9
$DIMTIX
 70
     0
  9
$DIMSOXD
 70
     0
  9
$DIMSAH
 70
     0
  9
$DIMBLK1
  1

  9
$DIMBLK2
  1

  9
$DIMSTYLE
  2
STANDARD
  9
$DIMCLRD
 70
     0
  9
$DIMCLRE
 70
     0
  9
$DIMCLRT
 70
     0
  9
$DIMTFAC
 40
1.0
  9
$DIMGAP
 40
0.09
  9
$LUNITS
 70
     2
  9
$LUPREC
 70
     4
  9
$SKETCHINC
 40
0.1
  9
$FILLETRAD
 40
0.0
  9
$AUNITS
 70
     0
  9
$AUPREC
 70
     0
  9
$MENU
  1
.
  9
$ELEVATION
 40
0.0
  9
$PELEVATION
 40
0.0
  9
$THICKNESS
 40
0.0
  9
$LIMCHECK
 70
     0
  9
$BLIPMODE
 70
     0
  9
$CHAMFERA
 40
0.0
  9
$CHAMFERB
 40
0.0
  9
$SKPOLY
 70
     0
  9
$TDCREATE
 40
2458060.468368056230247
  9
$TDUPDATE
 40
2459131.4946527779102325
  9
$TDINDWG
 40
0.4298565972
  9
$TDUSRTIMER
 40
0.4298565972
  9
$USRTIMER
 70
     1
  9
$ANGBASE
 50
0.0
  9
$ANGDIR
 70
     0
  9
$PDMODE
 70
     0
  9
$PDSIZE
 40
0.3125
  9
$PLINEWID
 40
0.0
  9
$COORDS
 70
     1
  9
$SPLFRAME
 70
     0
  9
$SPLINETYPE
 70
     6
  9
$SPLINESEGS
 70
     8
  9
$ATTDIA
 70
     1
  9
$ATTREQ
 70
     1
  9
$HANDLING
 70
     1
  9
$HANDSEED
  5
A984
  9
$SURFTAB1
 70
     6
  9
$SURFTAB2
 70
     6
  9
$SURFTYPE
 70
     6
  9
$SURFU
 70
     6
  9
$SURFV
 70
     6
  9
$UCSNAME
  2

  9
$UCSORG
 10
0.0
 20
0.0
 30
0.0
  9
$UCSXDIR
 10
1.0
 20
0.0
 30
0.0
  9
$UCSYDIR
 10
0.0
 20
1.0
 30
0.0
  9
$PUCSNAME
  2

  9
$PUCSORG
 10
0.0
 20
0.0
 30
0.0
  9
$PUCSXDIR
 10
1.0
 20
0.0
 30
0.0
  9
$PUCSYDIR
 10
0.0
 20
1.0
 30
0.0
  9
$USERI1
 70
     0
  9
$USERI2
 70
     0
  9
$USERI3
 70
     0
  9
$USERI4
 70
     0
  9
$USERI5
 70
     0
  9
$USERR1
 40
0.0
  9
$USERR2
 40
0.0
  9
$USERR3
 40
0.0
  9
$USERR4
 40
0.0
  9
$USERR5
 40
0.0
  9
$WORLDVIEW
 70
     1
  9
$SHADEDGE
 70
     3
  9
$SHADEDIF
 70
    70
  9
$TILEMODE
 70
     1
  9
$MAXACTVP
 70
    64
  9
$PLIMCHECK
 70
     0
  9
$PEXTMIN
 10
1.0000000000000000E+20
 20
1.0000000000000000E+20
 30
1.0000000000000000E+20
  9
$PEXTMAX
 10
-1.0000000000000000E+20
 20
-1.0000000000000000E+20
 30
-1.0000000000000000E+20
  9
$PLIMMIN
 10
0.0
 20
0.0
  9
$PLIMMAX
 10
12.0
 20
9.0
  9
$UNITMODE
 70
     0
  9
$VISRETAIN
 70
     1
  9
$PLINEGEN
 70
     0
  9
$PSLTSCALE
 70
     1
  0
ENDSEC
  0
SECTION
  2
TABLES
  0
TABLE
  2
VPORT
 70
     1
  0
VPORT
  2
*ACTIVE
 70
     0
 10
0.0
 20
0.0
 11
1.0
 21
1.0
 12
381.3441388289878091
 22
-72.5488206636724158
 13
0.0
 23
0.0
 14
1.0
 24
1.0
 15
0.0
 25
0.0
 16
0.0
 26
0.0
 36
5.1040778033513332
 17
3792.35791015625
 27
120.1806564331053977
 37
0.0
 40
15.2394345530156698
 41
2.005224660397074
 42
50.0
 43
0.0
 44
0.0
 50
0.0
 51
0.0
 71
     0
 72
   100
 73
     1
 74
     1
 75
     0
 76
     0
 77
     0
 78
     0
  0
ENDTAB
  0
TABLE
  2
LTYPE
 70
     2
  0
LTYPE
  2
CONTINUOUS
 70
     0
  3
Solid line
 72
    65
 73
     0
 40
0.0
  0
LTYPE
  2
PHANTOM2
 70
     0
  3
___ _ _ ___ _ _ ___ _ _ ___ _ _
 72
    65
 73
     6
 40
1.25
 49
0.625
 49
-0.125
 49
0.125
 49
-0.125
 49
0.125
 49
-0.125
  0
ENDTAB
  0
TABLE
  2
LAYER
 70
     2
  0
LAYER
  2
0
 70
     0
 62
   255
  6
CONTINUOUS
  0
LAYER
  2
DEFPOINTS
 70
     0
 62
     7
  6
CONTINUOUS
  0
ENDTAB
  0
TABLE
  2
STYLE
 70
     1
  0
STYLE
  2
STANDARD
 70
     0
 40
0.0
 41
0.8
 50
0.0
 71
     0
 42
0.2
  3
txt
  4

  0
ENDTAB
  0
TABLE
  2
VIEW
 70
     0
  0
ENDTAB
  0
TABLE
  2
UCS
 70
     0
  0
ENDTAB
  0
TABLE
  2
APPID
 70
     9
  0
APPID
  2
ACAD
 70
     0
  0
APPID
  2
ACAD_MLEADERVER
 70
     0
  0
APPID
  2
ACAD_EXEMPT_FROM_CAD_STANDARDS
 70
     0
  0
APPID
  2
ACAD_NAV_VCDISPLAY
 70
     0
  0
APPID
  2
ACAECLAYERSTANDARD
 70
     0
  0
APPID
  2
ACCMTRANSPARENCY
 70
     0
  0
APPID
  2
ACAD_DSTYLE_DIMJAG
 70
     0
  0
APPID
  2
ACAD_DSTYLE_DIMTALN
 70
     0
  0
APPID
  2
ACDBATTR
 70
     0
  0
ENDTAB
  0
TABLE
  2
DIMSTYLE
 70
     1
  0
DIMSTYLE
  2
STANDARD
 70
     0
  3

  4

  5

  6

  7

 40
1.0
 41
0.1875
 42
0.0625
 43
0.38
 44
0.125
 45
0.0
 46
0.0
 47
0.01
 48
0.01
140
0.15625
141
0.09
142
0.0
143
25.3999999999999986
144
1.0
145
0.0
146
1.0
147
0.09
 71
     1
 72
     0
 73
     1
 74
     1
 75
     0
 76
     0
 77
     0
 78
     4
170
     0
171
     2
172
     0
173
     0
174
     0
175
     0
176
     0
177
     0
178
     0
  0
ENDTAB
  0
ENDSEC
  0
SECTION
  2
BLOCKS
  0
BLOCK
  8
0
  2
$MODEL_SPACE
 70
     0
 10
0.0
 20
0.0
 30
0.0
  3
$MODEL_SPACE
  1

  0
ENDBLK
  5
21
  8
0
  0
BLOCK
 67
     1
  8
0
  2
$PAPER_SPACE
 70
     0
 10
0.0
 20
0.0
 30
0.0
  3
$PAPER_SPACE
  1

  0
ENDBLK
  5
1D
 67
     1
  8
0
  0
BLOCK
  8
0
  2
_FILLED
 70
     0
 10
0.0
 20
0.0
 30
0.0
  3
_FILLED
  1

  0
SOLID
  5
69B4
  8
0
  6
BYBLOCK
 62
     0
 10
0.0
 20
0.0
 30
0.0
 11
-1.0
 21
0.1666666667
 31
0.0
 12
-1.0
 22
-0.1666666667
 32
0.0
 13
-1.0
 23
-0.1666666667
 33
0.0
  0
ENDBLK
  5
69B5
  8
0
  6
BYBLOCK
 62
     0
  0
BLOCK
  8
0
  2
A$CDFAF6206
 70
     0
 10
0.0
 20
0.0
 30
0.0
  3
A$CDFAF6206
  1

  0
LINE
  5
6A0E
  8
0
 10
7.4646650085734834
 20
10.9287685970688493
 30
0.0
 11
7.4646650085734896
 21
10.8905784766688498
 31
0.0
  0
ARC
  5
6A0F
  8
0
 10
7.7269027075262349
 20
10.8926811525838598
 30
0.0
 40
0.2622461286616791
 50
180.4593995232625048
 51
217.0214027758331099
  0
LINE
  5
6A10
  8
0
 10
9.767814609867095
 20
10.9287685970688493
 30
0.0
 11
9.767814609867095
 21
10.8905433757650094
 31
0.0
  0
ARC
  5
6A11
  8
0
 10
9.5068669568548287
 20
10.8922438613003703
 30
0.0
 40
0.2609531936261092
 50
322.8847083717149076
 51
359.6266329125650145
  0
LINE
  5
6A12
  8
0
 10
7.517522606271406
 20
10.7347792678688396
 30
0.0
 11
9.7149570120691777
 21
10.7347792678688396
 31
0.0
  0
LINE
  5
6A13
  8
0
 10
7.4646650085734834
 20
10.9287685970688493
 30
0.0
 11
9.7678146123202936
 21
10.9287685970688493
 31
0.0
  0
ARC
  5
6A14
  8
0
 10
4.0826771419203629
 20
8.527951346868889
 30
0.0
 40
4.0826771653999172
 50
13.3117747050523896
 51
32.7200330051415591
  0
ARC
  5
6A15
  8
0
 10
4.0826771460567306
 20
8.5279513475907933
 30
0.0
 40
4.0826771612084691
 50
359.6656501984817851
 51
13.3117747085593798
  0
ARC
  5
6A16
  8
0
 10
13.1498041284835097
 20
8.5279508235212234
 30
0.0
 40
4.0826788382043553
 50
147.2799733478981068
 51
166.6882233021349862
  0
ARC
  5
6A17
  8
0
 10
13.1498064934207992
 20
8.5279506557033251
 30
0.0
 40
4.0826811782395342
 50
166.688228652086309
 51
180.3343397625230011
  0
LINE
  5
6A18
  8
0
 10
8.1652847935202928
 20
8.504127000268852
 30
0.0
 11
9.0671948248202892
 21
8.5041270002687881
 31
0.0
  0
LINE
  5
6A19
  8
0
 10
8.1652847935202786
 20
8.5041270002667204
 30
0.0
 11
8.1652847935202928
 21
8.3607006934688481
 31
0.0
  0
ARC
  5
6A1A
  8
0
 10
5.6196779630382627
 20
8.3631022096452732
 30
0.0
 40
2.545607963272567
 50
342.0511668832173768
 51
359.945947387132378
  0
LINE
  5
6A1B
  8
0
 10
9.0671948248202892
 20
8.5041270002687881
 30
0.0
 11
9.0671948248202892
 21
8.2885990108688503
 31
0.0
  0
ARC
  5
6A1C
  8
0
 10
9.4521885297801163
 20
7.9614488056228501
 30
0.0
 40
0.5052201595850959
 50
139.6436242991769916
 51
174.6757930071850069
  0
ARC
  5
6A1D
  8
0
 10
9.9238413395551746
 20
8.1492417579399508
 30
0.0
 40
0.9848265662939324
 50
188.2263441834095943
 51
209.5593615864376034
  0
ARC
  5
6A1E
  8
0
 10
8.0788764238271256
 20
7.5665710856463297
 30
0.0
 40
0.0393715937169877
 50
162.1669117288323037
 51
227.2023190037006088
  0
ARC
  5
6A1F
  8
0
 10
8.7223682141740682
 20
8.2079667397440517
 30
0.0
 40
0.947895137885075
 50
225.0018610752970858
 51
261.4598823366255829
  0
ARC
  5
6A20
  8
0
 10
8.6645157662702701
 20
8.1695128573935332
 30
0.0
 40
0.9027466462812931
 50
264.7303071214498118
 51
281.8608311947915013
  0
ARC
  5
6A21
  8
0
 10
8.6645157662698935
 20
8.1695128573999671
 30
0.0
 40
0.9027466462876658
 50
299.1741886792128753
 51
299.1743179154552195
  0
ARC
  5
6A22
  8
0
 10
9.0843330931590316
 20
7.4150554710086141
 30
0.0
 40
0.0393703053609601
 50
251.9700352025496954
 51
252.4698971938937859
  0
ARC
  5
6A23
  8
0
 10
9.0843330931590316
 20
7.4150554710086141
 30
0.0
 40
0.0393703053609601
 50
297.2453716727138726
 51
6.8376113572703074
  0
LINE
  5
6A24
  8
0
 10
9.0671948248202892
 20
7.663402160468852
 30
0.0
 11
9.1234233799329516
 21
7.419742732911689
 31
0.0
  0
ARC
  5
6A25
  8
0
 10
8.8843741880892395
 20
9.8961379890094676
 30
0.0
 40
2.5255097382132701
 50
263.792800240752797
 51
274.9514951129821156
  0
ARC
  5
6A26
  8
0
 10
8.8258167405968848
 20
9.2763025889666508
 30
0.0
 40
1.9029970832759311
 50
246.0108363320686067
 51
263.5276935074397215
  0
ARC
  5
6A27
  8
0
 10
8.607491361665744
 20
8.3225444804829642
 30
0.0
 40
1.064510137163637
 50
283.1717405874071005
 51
297.7022170607311864
  0
LINE
  5
6A28
  8
0
 10
9.0671948248202892
 20
8.2885990108688503
 30
0.0
 11
26.2014378595979593
 21
8.2885990108689942
 31
0.0
  0
LINE
  5
6A29
  8
0
 10
26.2014378595979913
 20
7.6634021604689053
 30
0.0
 11
9.0671948248202892
 21
7.6634021604688618
 31
0.0
  0
LINE
  5
6A2A
  8
0
 10
27.8039676758446994
 20
10.9287685970690802
 30
0.0
 11
27.8039676758446888
 21
10.8905784766690807
 31
0.0
  0
ARC
  5
6A2B
  8
0
 10
27.5417299768919399
 20
10.8926811525840801
 30
0.0
 40
0.2622461286616791
 50
322.9785972241680838
 51
359.5406004767386889
  0
LINE
  5
6A2C
  8
0
 10
25.5008180745510913
 20
10.9287685970690305
 30
0.0
 11
25.5008180745510913
 21
10.8905433757651799
 31
0.0
  0
ARC
  5
6A2D
  8
0
 10
25.7617657275633505
 20
10.8922438613005497
 30
0.0
 40
0.2609531936261092
 50
180.3733670874362929
 51
217.1152916282862861
  0
LINE
  5
6A2E
  8
0
 10
27.7511100781467803
 20
10.7347792678690706
 30
0.0
 11
25.5536756723490015
 21
10.7347792678690208
 31
0.0
  0
LINE
  5
6A2F
  8
0
 10
27.8039676758446888
 20
10.9287685970686006
 30
0.0
 11
25.5008180745510806
 21
10.9287685970686006
 31
0.0
  0
ARC
  5
6A30
  8
0
 10
31.1859555424978616
 20
8.5279513468691981
 30
0.0
 40
4.0826771653999172
 50
147.2799669948597057
 51
166.6882252949490066
  0
ARC
  5
6A31
  8
0
 10
31.185955538361501
 20
8.5279513475911024
 30
0.0
 40
4.0826771612084691
 50
166.6882252914419098
 51
180.3343498015194086
  0
ARC
  5
6A32
  8
0
 10
22.1188285559344706
 20
8.5279508235212251
 30
0.0
 40
4.0826788382046102
 50
13.3117766978667795
 51
32.7200266521023977
  0
ARC
  5
6A33
  8
0
 10
22.1188261909974315
 20
8.5279506557034264
 30
0.0
 40
4.0826811782395342
 50
359.665660237478221
 51
13.31177134791497
  0
LINE
  5
6A34
  8
0
 10
27.1033478908979397
 20
8.5041270002690652
 30
0.0
 11
26.2014378595979416
 21
8.5041270002689835
 31
0.0
  0
LINE
  5
6A35
  8
0
 10
27.1033478908979504
 20
8.5041270002669354
 30
0.0
 11
27.1033478908979397
 21
8.3607006934690649
 31
0.0
  0
ARC
  5
6A36
  8
0
 10
29.6489547213799689
 20
8.3631022096455467
 30
0.0
 40
2.545607963272567
 50
180.0540526128687873
 51
197.9488331167837032
  0
LINE
  5
6A37
  8
0
 10
26.2014378595979416
 20
8.5041270002689835
 30
0.0
 11
26.2014378595979487
 21
8.2885990108690457
 31
0.0
  0
ARC
  5
6A38
  8
0
 10
25.8164441546381305
 20
7.9614488056230366
 30
0.0
 40
0.5052201595850959
 50
5.324206992816312
 51
40.3563757008241879
  0
ARC
  5
6A39
  8
0
 10
25.3447913448601803
 20
8.149241757940846
 30
0.0
 40
0.9848265662968968
 50
330.4406384136033807
 51
351.7736558165743759
  0
ARC
  5
6A3A
  8
0
 10
27.1897562605911212
 20
7.5665710856465473
 30
0.0
 40
0.0393715937169877
 50
312.7976809963004143
 51
17.8330882711689185
  0
ARC
  5
6A3B
  8
0
 10
26.5462644702441715
 20
8.2079667397442542
 30
0.0
 40
0.947895137885075
 50
278.5401176633754972
 51
314.9981389247041079
  0
ARC
  5
6A3C
  8
0
 10
26.6041169181479695
 20
8.1695128573937392
 30
0.0
 40
0.9027466462812931
 50
258.139168805210204
 51
275.2696928785518935
  0
ARC
  5
6A3D
  8
0
 10
26.6041169181483497
 20
8.1695128574001732
 30
0.0
 40
0.9027466462876658
 50
240.8256820845460027
 51
240.8258113207880058
  0
ARC
  5
6A3E
  8
0
 10
26.1842995912592293
 20
7.4150554710088086
 30
0.0
 40
0.0393703053609601
 50
287.5301028061073794
 51
288.0299647974517825
  0
ARC
  5
6A3F
  8
0
 10
26.1842995912592293
 20
7.4150554710088086
 30
0.0
 40
0.0393703053609601
 50
173.1623886427310026
 51
242.7546283272870085
  0
LINE
  5
6A40
  8
0
 10
26.2014378595981192
 20
7.6634021604690448
 30
0.0
 11
26.1452093044853093
 21
7.4197427329118826
 31
0.0
  0
ARC
  5
6A41
  8
0
 10
26.384258496328961
 20
9.8961379890096666
 30
0.0
 40
2.5255097382132701
 50
265.0485048870193054
 51
276.2071997592482262
  0
ARC
  5
6A42
  8
0
 10
26.4428159438213299
 20
9.2763025889668516
 30
0.0
 40
1.9029970832759311
 50
276.4723064925619838
 51
293.9891636679327007
  0
ARC
  5
6A43
  8
0
 10
26.6611413227524885
 20
8.3225444804831703
 30
0.0
 40
1.064510137163637
 50
242.2977829392704052
 51
256.8282594125943774
  0
LINE
  5
6A44
  8
0
 62
     4
 10
17.9031473532159602
 20
10.9287685970686006
 30
0.0
 11
24.6329820359843588
 21
20.0952817181593808
 31
0.0
  0
LINE
  5
6A45
  8
0
 62
     4
 10
17.9031473532159602
 20
-0.0000000300842942
 30
0.0
 11
22.3963351323106608
 21
4.993614497796286
 31
0.0
  0
ENDBLK
  5
6A49
  8
0
  0
ENDSEC
  0
SECTION
  2
ENTITIES
  0
ATTDEF
  5
3930
  8
DEFPOINTS
 10
4173.7638476605397955
 20
46.9849554119641581
 30
0.0
 40
0.001
  1
K-99960T-4V
  3

  2
MODELNUMBER
 70
     0
1001
ACDBATTR
1070
     0
1070
     1
  0
ATTDEF
  5
3931
  8
DEFPOINTS
 10
4173.7638476605397955
 20
46.9832887452975001
 30
0.0
 40
0.001
  1
MODULO
  3

  2
TRADENAME
 70
     0
1001
ACDBATTR
1070
     0
1070
     1
  0
ATTDEF
  5
3932
  8
DEFPOINTS
 10
4173.7638476605397955
 20
46.9816220786308421
 30
0.0
 40
0.001
  1
VALVE TRIM
  3

  2
PRODUCT
 70
     0
1001
ACDBATTR
1070
     0
1070
     1
  0
LINE
  5
A870
  8
0
 10
4173.2798039179206171
 20
46.3109031490673217
 30
0.0
 11
4173.2798039179206171
 21
45.5825566923672909
 31
0.0
  0
LINE
  5
A871
  8
0
 10
4173.2798039179206171
 20
45.5825566923672909
 30
0.0
 11
4173.2994889573210457
 21
45.5628716529673028
 31
0.0
  0
LINE
  5
A872
  8
0
 10
4173.2994889573210457
 20
45.5628716529673028
 30
0.0
 11
4174.2246858077205616
 21
45.5628716529673028
 31
0.0
  0
LINE
  5
A873
  8
0
 10
4174.2246858077205616
 20
45.5628716529673028
 30
0.0
 11
4174.2443708470218553
 21
45.5825566923672909
 31
0.0
  0
LINE
  5
A874
  8
0
 10
4174.2443708470218553
 20
45.5825566923672909
 30
0.0
 11
4174.2442063799626339
 21
46.3109031490673075
 31
0.0
  0
LINE
  5
A875
  8
0
 10
4173.360512579421993
 20
45.3009192716672899
 30
0.0
 11
4173.3605125793210391
 21
45.1240366326672984
 31
0.0
  0
LINE
  5
A876
  8
0
 10
4173.3292132053220485
 20
45.0520530006672928
 30
0.0
 11
4173.2849850977618189
 21
45.0108096232044517
 31
0.0
  0
LINE
  5
A877
  8
0
 10
4173.2849850977572714
 20
45.4141462812672927
 30
0.0
 11
4173.3292132053220485
 21
45.3729029036673026
 31
0.0
  0
ARC
  5
A878
  8
0
 10
4173.2620873830246637
 20
45.3009192720226679
 30
0.0
 40
0.0984251962971558
 50
359.9999997931266194
 51
47.0000000000754667
  0
ARC
  5
A879
  8
0
 10
4173.2620873830246637
 20
45.1240366323119204
 30
0.0
 40
0.098425196297157
 50
312.9999999999247962
 51
0.00000020687264
  0
ARC
  5
A87A
  8
0
 10
4173.3210514764232357
 20
44.9745704247872595
 30
0.0
 40
0.0511279099111127
 50
134.863055939347305
 51
179.7761177720261969
  0
ARC
  5
A87B
  8
0
 10
4173.289679408124357
 20
44.9748383816781896
 30
0.0
 40
0.0197555689283904
 50
180.1977268007798045
 51
265.5081264616371186
  0
ARC
  5
A87C
  8
0
 10
4173.7620873824707814
 20
51.0983047513403932
 30
0.0
 40
6.16141735027308
 50
265.5882741745728026
 51
274.4117257693467877
  0
LINE
  5
A87D
  8
0
 10
4173.288132197430059
 20
44.955143492931299
 30
0.0
 11
4174.2360425604911143
 21
44.9551434924673003
 31
0.0
  0
ARC
  5
A87E
  8
0
 10
4173.3199435814376557
 20
45.4499257710573303
 30
0.0
 40
0.0500226695690817
 50
180.6321897799577982
 51
225.6649621234618053
  0
ARC
  5
A87F
  8
0
 10
4173.2896757700100352
 20
45.4493079608445285
 30
0.0
 40
0.0197519230500997
 50
92.0783656301945257
 51
179.8088922319051051
  0
ARC
  5
A880
  8
0
 10
4173.762087379463992
 20
39.5945683584901005
 30
0.0
 40
5.8935004935861048
 50
85.3953619137341349
 51
94.6046380862658651
  0
LINE
  5
A881
  8
0
 10
4173.2889594394846426
 20
45.4690468902673004
 30
0.0
 11
4174.2352153184347117
 21
45.4690468902673004
 31
0.0
  0
LINE
  5
A882
  8
0
 10
4174.1636621784991803
 20
45.3009192716672899
 30
0.0
 11
4174.1636621785992247
 21
45.1240366326672984
 31
0.0
  0
LINE
  5
A883
  8
0
 10
4174.1949615525991248
 20
45.0520530006672928
 30
0.0
 11
4174.2391896601593544
 21
45.0108096232044517
 31
0.0
  0
LINE
  5
A884
  8
0
 10
4174.2391896601620829
 20
45.4141462812672927
 30
0.0
 11
4174.1949615525991248
 21
45.3729029036673026
 31
0.0
  0
ARC
  5
A885
  8
0
 10
4174.2620873748974191
 20
45.3009192720226679
 30
0.0
 40
0.0984251962971558
 50
132.9999999999245119
 51
180.0000002068734943
  0
ARC
  5
A886
  8
0
 10
4174.2620873748974191
 20
45.1240366323119204
 30
0.0
 40
0.098425196297157
 50
179.9999997931273015
 51
227.0000000000752038
  0
ARC
  5
A887
  8
0
 10
4174.1984089561919973
 20
44.9727162126297415
 30
0.0
 40
0.0558047824628649
 50
2.1093482546006048
 51
43.0486495522892127
  0
ARC
  5
A888
  8
0
 10
4174.2345611121718321
 20
44.9747023990326014
 30
0.0
 40
0.0196149304613052
 50
274.3314780680104832
 51
0.1980655331107858
  0
ARC
  5
A889
  8
0
 10
4174.1998013197544424
 20
45.4517040536555967
 30
0.0
 40
0.0544245131069188
 50
316.3628244147719215
 51
357.546104064524684
  0
ARC
  5
A88A
  8
0
 10
4174.2328381425777479
 20
45.4477822944013496
 30
0.0
 40
0.0213970559282413
 50
4.2656935237067488
 51
83.621370224234596
  0
LINE
  5
A88B
  8
0
 10
4173.5343162407207274
 20
45.3009192716609519
 30
0.0
 11
4173.5343162407207274
 21
45.1240366326672984
 31
0.0
  0
LINE
  5
A88C
  8
0
 10
4173.2849850977572714
 20
45.4141462812672927
 30
0.0
 11
4173.3178512418207902
 21
45.3952840479673014
 31
0.0
  0
ARC
  5
A88D
  8
0
 10
4173.4566244226589333
 20
45.6389092651169506
 30
0.0
 40
0.2803769643729776
 50
240.333405010966402
 51
251.5762301046474931
  0
ARC
  5
A88E
  8
0
 10
4172.261519011008204
 20
42.5884918680923334
 30
0.0
 40
2.9962101407608599
 50
64.8618439929037436
 51
68.3276720723840185
  0
LINE
  5
A88F
  8
0
 10
4173.2849850974907895
 20
45.0108096233410393
 30
0.0
 11
4173.3178512416152444
 21
45.0296718566057024
 31
0.0
  0
ARC
  5
A890
  8
0
 10
4173.4566244221759916
 20
44.7860466392991299
 30
0.0
 40
0.2803769643729776
 50
108.4237698305928035
 51
119.6665949242610054
  0
ARC
  5
A891
  8
0
 10
4172.2615190139740662
 20
47.8364640376750501
 30
0.0
 40
2.9962101407608599
 50
291.6723278627994205
 51
295.1381559423340946
  0
LINE
  5
A892
  8
0
 10
4173.9898585242881381
 20
45.3009192716168627
 30
0.0
 11
4173.9898585242535773
 21
45.1240366326232092
 31
0.0
  0
LINE
  5
A893
  8
0
 10
4174.2391896601620829
 20
45.4141462812672927
 30
0.0
 11
4174.2063235232071747
 21
45.3952840478813116
 31
0.0
  0
ARC
  5
A894
  8
0
 10
4174.0675503424163253
 20
45.6389092650578334
 30
0.0
 40
0.2803769643729776
 50
288.4237698842580926
 51
299.6665949779401785
  0
ARC
  5
A895
  8
0
 10
4175.2626557534767926
 20
42.5884918678018991
 30
0.0
 40
2.9962101407608599
 50
111.6723279165152007
 51
115.1381559960375967
  0
LINE
  5
A896
  8
0
 10
4174.2391896674625968
 20
45.0108096232486972
 30
0.0
 11
4174.2063235233426894
 21
45.0296718565197196
 31
0.0
  0
ARC
  5
A897
  8
0
 10
4174.0675503427337389
 20
44.7860466392400127
 30
0.0
 40
0.2803769643729776
 50
60.3334050646454472
 51
71.5762301583127538
  0
ARC
  5
A898
  8
0
 10
4175.2626557515259265
 20
47.8364640373846299
 30
0.0
 40
2.9962101407608599
 50
244.8618440465600941
 51
248.3276721260995998
  0
LINE
  5
A899
  8
0
 10
4173.3683865951206826
 20
45.4749040428118292
 30
0.0
 11
4173.3683865951206826
 21
45.5628716529673028
 31
0.0
  0
LINE
  5
A89A
  8
0
 10
4174.1557881699218342
 20
45.4749040424024571
 30
0.0
 11
4174.1557881699218342
 21
45.5628716529673028
 31
0.0
  0
LINE
  5
A89B
  8
0
 10
4174.2443708470218553
 20
45.5825566923672909
 30
0.0
 11
4173.2798039179206171
 21
45.5825566923672909
 31
0.0
  0
ARC
  5
A89C
  8
0
 10
4172.8763310510521478
 20
45.1702356178672986
 30
0.0
 40
0.0787401574999996
 50
0.7223627570987143
 51
74.9999884862182142
  0
ARC
  5
A89D
  8
0
 10
4172.8368905713523418
 20
45.2827009243672975
 30
0.0
 40
0.0196850393999965
 50
180.0000002910522028
 51
255.000000072026495
  0
ARC
  5
A89E
  8
0
 10
4172.809331516252314
 20
45.3187771647672974
 30
0.0
 40
0.0118110236
 50
180.0
 51
270.0
  0
ARC
  5
A89F
  8
0
 10
4173.7620898731784109
 20
45.181403654240107
 30
0.0
 40
0.8070890676211824
 50
180.7223729908822918
 51
194.0890065295687918
  0
LINE
  5
A8A0
  8
0
 10
4172.8967105187111883
 20
45.2462927654673024
 30
0.0
 11
4172.8317957082754219
 21
45.2636866364129133
 31
0.0
  0
LINE
  5
A8A1
  8
0
 10
4172.8172055319510036
 20
45.2827009243672975
 30
0.0
 11
4172.8172055319510036
 21
45.306966141167301
 31
0.0
  0
ARC
  5
A8A2
  8
0
 10
4173.2462593421796555
 20
43.966099999655512
 30
0.0
 40
0.0300000001882197
 50
236.0000001595900017
 51
269.9999999483587771
  0
ARC
  5
A8A3
  8
0
 10
4172.8220873871041476
 20
44.2522075723673183
 30
0.0
 40
0.0300000000000358
 50
180.0000000000304965
 51
236.0000072816326053
  0
LINE
  5
A8A4
  8
0
 10
4173.2294835550392236
 20
43.941228872276092
 30
0.0
 11
4172.805311603174232
 21
44.227336443049829
 31
0.0
  0
LINE
  5
A8A5
  8
0
 10
4172.7975204926524384
 20
45.3187771647672974
 30
0.0
 11
4172.7975204926524384
 21
46.3109031490673004
 31
0.0
  0
ARC
  5
A8A6
  8
0
 10
4174.6478437788937299
 20
45.1702356336952704
 30
0.0
 40
0.0787401394927423
 50
105.0000071118595031
 51
160.8106671845517894
  0
ARC
  5
A8A7
  8
0
 10
4174.6872842690981997
 20
45.2827009243672975
 30
0.0
 40
0.0196850393999965
 50
284.9999999279734766
 51
359.9999997089478256
  0
ARC
  5
A8A8
  8
0
 10
4174.7148433241982275
 20
45.3187771647672974
 30
0.0
 40
0.0118110236
 50
270.0
 51
0.0
  0
LINE
  5
A8A9
  8
0
 10
4174.6274643217384437
 20
45.2462927654673024
 30
0.0
 11
4174.6923791321733006
 21
45.2636866364129133
 31
0.0
  0
LINE
  5
A8AA
  8
0
 10
4174.7069693084968094
 20
45.2827009243672975
 30
0.0
 11
4174.7069693084968094
 21
45.306966141167301
 31
0.0
  0
ARC
  5
A8AB
  8
0
 10
4174.2779154982699765
 20
43.966099999655512
 30
0.0
 40
0.0300000001882197
 50
270.0000000516412229
 51
303.9999998404097141
  0
ARC
  5
A8AC
  8
0
 10
4174.7020873871042568
 20
44.2522075723673112
 30
0.0
 40
0.0300000000000182
 50
304.0207821886430111
 51
359.9999999999828901
  0
LINE
  5
A8AD
  8
0
 10
4174.2946912854113179
 20
43.941228872276092
 30
0.0
 11
4174.7188721942866323
 21
44.2273425316913205
 31
0.0
  0
LINE
  5
A8AE
  8
0
 10
4174.7266543477981031
 20
45.3187771647672974
 30
0.0
 11
4174.7266543477981031
 21
46.3109031490673004
 31
0.0
  0
LINE
  5
A8AF
  8
0
 10
4173.2462593421523707
 20
43.9360999994673023
 30
0.0
 11
4174.2779154982699765
 21
43.9360999994673023
 31
0.0
  0
LINE
  5
A8B0
  8
0
 10
4172.805311603174232
 20
44.227336443049829
 30
0.0
 11
4174.7188721943002747
 21
44.227342531700117
 31
0.0
  0
LINE
  5
A8B1
  8
0
 10
4174.6923791321733006
 20
45.2636866364129133
 30
0.0
 11
4174.1636621785200987
 21
45.2636866358316112
 31
0.0
  0
LINE
  5
A8B2
  8
0
 10
4173.3605125793992556
 20
45.2636866349485771
 30
0.0
 11
4172.8318049083509322
 21
45.2636866343673034
 31
0.0
  0
LINE
  5
A8B3
  8
0
 10
4172.8093315170517599
 20
45.306966141167301
 30
0.0
 11
4173.3603266554146103
 21
45.306966141167301
 31
0.0
  0
LINE
  5
A8B4
  8
0
 10
4174.1638481025056535
 20
45.306966141167301
 30
0.0
 11
4174.7148433241982275
 21
45.306966141167301
 31
0.0
  0
ARC
  5
A8B5
  8
0
 10
4174.6983614917162413
 20
45.1625509378683319
 30
0.0
 40
0.0337524993183423
 50
2.2750245809859102
 51
83.7061153529037654
  0
LINE
  5
A8B6
  8
0
 10
4174.7320873871040021
 20
44.252207572367297
 30
0.0
 11
4174.7320873871040021
 21
45.1638907850673021
 31
0.0
  0
ARC
  5
A8B7
  8
0
 10
4173.7620899055145856
 20
45.1814032929016065
 30
0.0
 40
0.8070841257864136
 50
345.9016105869209809
 51
358.9135374532452261
  0
ARC
  5
A8B8
  8
0
 10
4174.6537943939174511
 20
45.1688725534913473
 30
0.0
 40
0.0848107911259672
 50
161.2623377966621092
 51
181.8733931204407952
  0
LINE
  5
A8B9
  8
0
 10
4174.5734786319899285
 20
45.1961167946660183
 30
0.0
 11
4174.702061718204277
 21
45.1960999994673003
 31
0.0
  0
ARC
  5
A8BA
  8
0
 10
4173.7617061147566346
 20
47.8971312549536989
 30
0.0
 40
3.064096642258495
 50
270.0073666348073971
 51
273.0762526833811989
  0
ARC
  5
A8BB
  8
0
 10
4173.7777732488066249
 20
47.5375095892788693
 30
0.0
 40
2.704132909206014
 50
273.1452224096997838
 51
276.1932727873078193
  0
ARC
  5
A8BC
  8
0
 10
4173.8772398702567443
 20
46.6951665490598202
 30
0.0
 40
1.8559926605231201
 50
275.9459386233273221
 51
283.4736863453754268
  0
ARC
  5
A8BD
  8
0
 10
4174.1391716144662496
 20
45.6541368441788507
 30
0.0
 40
0.7826799395574456
 50
282.5831921694560265
 51
301.2207798471835076
  0
ARC
  5
A8BE
  8
0
 10
4174.4445668834378012
 20
45.1722442526471966
 30
0.0
 40
0.2125841014544024
 50
298.1511033342699761
 51
358.3435329151637916
  0
ARC
  5
A8BF
  8
0
 10
4174.6870118072347395
 20
45.1661503378591576
 30
0.0
 40
0.0299497025054403
 50
89.9053133507927811
 51
180.0979614837976897
  0
ARC
  5
A8C0
  8
0
 10
4173.7876675702373177
 20
47.4934631964854574
 30
0.0
 40
2.694979786705975
 50
269.4561530106794862
 51
281.3210757688577246
  0
ARC
  5
A8C1
  8
0
 10
4174.1566868297850306
 20
45.7063541538448632
 30
0.0
 40
0.8702721265576951
 50
280.5957118628394937
 51
301.6328462575003755
  0
ARC
  5
A8C2
  8
0
 10
4174.4920781487107888
 20
45.1728245597934617
 30
0.0
 40
0.240175450129211
 50
300.2637329160189097
 51
357.8682846332764029
  0
ARC
  5
A8C3
  8
0
 10
4172.8248603847596314
 20
45.1633681602935795
 30
0.0
 40
0.0328202966189987
 50
94.8017468381821402
 51
176.9235889622343052
  0
LINE
  5
A8C4
  8
0
 10
4172.7920873871044023
 20
44.252207572367297
 30
0.0
 11
4172.7920873871044023
 21
45.1651295503173031
 31
0.0
  0
LINE
  5
A8C5
  8
0
 10
4172.9506961867982682
 20
45.1961167760441995
 30
0.0
 11
4172.8221130560041274
 21
45.1960732677672894
 31
0.0
  0
ARC
  5
A8C6
  8
0
 10
4173.7623230778553989
 20
47.8937078857374772
 30
0.0
 40
3.0606732558406349
 50
266.923035650259294
 51
269.9958253300329716
  0
ARC
  5
A8C7
  8
0
 10
4173.7471322627879999
 20
47.5458441276257773
 30
0.0
 40
2.7124978617026501
 50
263.8131607341259155
 51
266.8490318271432216
  0
ARC
  5
A8C8
  8
0
 10
4173.6471858278246145
 20
46.6967676191405303
 30
0.0
 40
1.8576118867458571
 50
256.5316692217207901
 51
264.0555472876254726
  0
ARC
  5
A8C9
  8
0
 10
4173.3823591514628788
 20
45.6467682482440509
 30
0.0
 40
0.7749174294973044
 50
238.6570985151990953
 51
257.4922055385268891
  0
ARC
  5
A8CA
  8
0
 10
4173.0841099008775927
 20
45.1751454570165123
 30
0.0
 40
0.2171855995882332
 50
182.3869745054005875
 51
241.1395082522168138
  0
ARC
  5
A8CB
  8
0
 10
4172.8371459109957868
 20
45.1661130962260202
 30
0.0
 40
0.0299668398450924
 50
359.974959354160319
 51
90.0620219062552394
  0
ARC
  5
A8CC
  8
0
 10
4173.7227447822579052
 20
47.3475625756929972
 30
0.0
 40
2.549261367300748
 50
258.3384957560490989
 51
270.8842783366156937
  0
ARC
  5
A8CD
  8
0
 10
4173.3422969026332794
 20
45.6411184539960786
 30
0.0
 40
0.8016183433433177
 50
237.4546589879900012
 51
260.3167904495207949
  0
ARC
  5
A8CE
  8
0
 10
4173.0318221676043322
 20
45.1726095291731369
 30
0.0
 40
0.2398514437418452
 50
181.7871091851826861
 51
239.7670190582691134
  0
ARC
  5
A8CF
  8
0
 10
4171.0812043583082414
 20
46.8003013681151714
 30
0.0
 40
0.0590582484124572
 50
185.0025435367919044
 51
264.8952448889169204
  0
ARC
  5
A8D0
  8
0
 10
4171.0199213737369064
 20
46.114052755400337
 30
0.0
 40
0.6299212597659654
 50
53.3504307208014978
 51
84.8971002931879468
  0
ARC
  5
A8D1
  8
0
 10
4171.0199208832200384
 20
46.1140522427363422
 30
0.0
 40
0.6299219638763294
 50
21.7965636799005189
 51
53.3504227598965386
  0
ARC
  5
A8D2
  8
0
 10
4171.6596094371252548
 20
46.3699582671672985
 30
0.0
 40
0.0590551181000003
 50
201.8806657256857022
 51
269.9999432428122077
  0
LINE
  5
A8D3
  8
0
 10
4171.0061818753692933
 20
46.9801944876672977
 30
0.0
 11
4171.0223710729251252
 21
46.7951514907518771
 31
0.0
  0
ARC
  5
A8D4
  8
0
 10
4176.4429704443427909
 20
46.8003013681151714
 30
0.0
 40
0.0590582484124572
 50
275.1047551110830796
 51
354.9974564632079819
  0
ARC
  5
A8D5
  8
0
 10
4176.5042534289123068
 20
46.114052755400337
 30
0.0
 40
0.6299212597659654
 50
95.102899706812039
 51
126.6495692791985022
  0
ARC
  5
A8D6
  8
0
 10
4176.5042539194300844
 20
46.1140522427363422
 30
0.0
 40
0.6299219638763294
 50
126.6495772401033975
 51
158.2034363200995131
  0
ARC
  5
A8D7
  8
0
 10
4175.8645653655239585
 20
46.3699582671673198
 30
0.0
 40
0.059055118100038
 50
270.0000384202830901
 51
338.1193342743039807
  0
LINE
  5
A8D8
  8
0
 10
4176.5179929009473199
 20
46.9801944876672977
 30
0.0
 11
4176.5018037297231785
 21
46.7951514907518771
 31
0.0
  0
LINE
  5
A8D9
  8
0
 10
4171.0061818753692933
 20
46.9801944876672977
 30
0.0
 11
4176.5179929009473199
 21
46.9801944876672977
 31
0.0
  0
LINE
  5
A8DA
  8
0
 10
4171.6596093786238271
 20
46.3109031490673289
 30
0.0
 11
4175.8645654051251768
 21
46.3109031490673004
 31
0.0
  0
LINE
  5
A8DB
  8
0
 10
4171.0759495348802375
 20
46.7414773633526721
 30
0.0
 11
4176.4482252677780707
 21
46.7414773633533827
 31
0.0
  0
ARC
  5
A8DC
  8
0
 10
4173.3921209877844376
 20
43.7233921391102101
 30
0.0
 40
0.0202530158971139
 50
180.5523094225146963
 51
249.5389442661767987
  0
ARC
  5
A8DD
  8
0
 10
4173.3413524376210262
 20
43.5656082326844611
 30
0.0
 40
0.1455216267230101
 50
16.0930604603320013
 51
72.5291052243652103
  0
ARC
  5
A8DE
  8
0
 10
4173.118116573989937
 20
43.527987521062613
 30
0.0
 40
0.3713306772822962
 50
2.820720628892889
 51
12.1191350843871408
  0
ARC
  5
A8DF
  8
0
 10
4173.5089968390821014
 20
43.0234200038625332
 30
0.0
 40
0.0199994898963526
 50
179.9985386202183975
 51
270.0006060132135985
  0
LINE
  5
A8E0
  8
0
 10
4173.371868912856371
 20
43.7231969107989329
 30
0.0
 11
4173.371868912856371
 21
43.9360999994673023
 31
0.0
  0
LINE
  5
A8E1
  8
0
 10
4173.4889973491908677
 20
43.0234205139991914
 30
0.0
 11
4173.4889973491908677
 21
43.546261066867288
 31
0.0
  0
ARC
  5
A8E2
  8
0
 10
4173.4848079496960054
 20
43.6060531809807301
 30
0.0
 40
0.0036380419485524
 50
127.1300108809004996
 51
181.6791509611047957
  0
ARC
  5
A8E3
  8
0
 10
4173.4958971340010976
 20
43.5943735497172185
 30
0.0
 40
0.0197250243370736
 50
119.3626141541615056
 51
132.3393304801749082
  0
ARC
  5
A8E4
  8
0
 10
4173.608682700256395
 20
43.5760272375678994
 30
0.0
 40
0.127509818519627
 50
132.3475111267676994
 51
163.8200124978050951
  0
ARC
  5
A8E5
  8
0
 10
4173.629401289938869
 20
43.5446331586973301
 30
0.0
 40
0.1647722589645627
 50
105.8216043309175944
 51
130.3179913236870959
  0
ARC
  5
A8E6
  8
0
 10
4173.7271190072560785
 20
43.1938933909194489
 30
0.0
 40
0.5288688510063074
 50
89.5766941037716578
 51
105.6470683225219034
  0
ARC
  5
A8E7
  8
0
 10
4173.9189097294711246
 20
43.5781493938709232
 30
0.0
 40
0.1236413366673796
 50
15.6799766433431493
 51
49.0545823426628118
  0
ARC
  5
A8E8
  8
0
 10
4173.904758807871076
 20
43.5595645608137687
 30
0.0
 40
0.146960319532465
 50
49.6357769914082922
 51
67.9194612243659037
  0
ARC
  5
A8E9
  8
0
 10
4173.8426356459267481
 20
43.3989550898008503
 30
0.0
 40
0.3191551485427386
 50
68.4235346228477397
 51
82.6457703641000592
  0
ARC
  5
A8EA
  8
0
 10
4173.7644415061231484
 20
42.8203427688274516
 30
0.0
 40
0.9030234942489139
 50
82.4245510709749567
 51
92.1206398339247272
  0
ARC
  5
A8EB
  8
0
 10
4174.1322784062886058
 20
43.7231012784517503
 30
0.0
 40
0.0199022823645072
 50
290.1479146602197261
 51
0.2339842185897754
  0
ARC
  5
A8EC
  8
0
 10
4174.1828223365855592
 20
43.5656082326844611
 30
0.0
 40
0.1455216267230101
 50
107.4708947756348039
 51
163.9069395396680022
  0
ARC
  5
A8ED
  8
0
 10
4174.6163355576109097
 20
43.5004711029177784
 30
0.0
 40
0.5829536416804989
 50
169.5758985007981892
 51
175.4948784320926904
  0
ARC
  5
A8EE
  8
0
 10
4174.015173950640019
 20
43.0234296232632971
 30
0.0
 40
0.0200091096517278
 50
270.0108037933670744
 51
359.9739156692689903
  0
LINE
  5
A8EF
  8
0
 10
4174.1521805226948345
 20
43.7231825550672895
 30
0.0
 11
4174.1521805226948345
 21
43.9360999994673023
 31
0.0
  0
LINE
  5
A8F0
  8
0
 10
4174.0351830582176262
 20
43.0234205139991914
 30
0.0
 11
4174.0351830582176262
 21
43.546261066867288
 31
0.0
  0
ARC
  5
A8F1
  8
0
 10
4174.03936682451058
 20
43.6060531809807301
 30
0.0
 40
0.0036380419485524
 50
358.3208490388951191
 51
52.869989119099472
  0
ARC
  5
A8F2
  8
0
 10
4174.0282414422454167
 20
43.5943290004339374
 30
0.0
 40
0.0197823341033605
 50
47.6700779760786091
 51
60.6091594837831877
  0
LINE
  5
A8F3
  8
0
 10
4173.5089970506151076
 20
43.0034205139672778
 30
0.0
 11
4174.0151777235932968
 21
43.0034205139672778
 31
0.0
  0
ARC
  5
A8F4
  8
0
 10
4173.3765968533753039
 20
42.8824196055542117
 30
0.0
 40
0.0199991468204682
 50
180.0336446219668005
 51
270.0238561995665805
  0
ARC
  5
A8F5
  8
0
 10
4173.3765960852742865
 20
43.6531608829692033
 30
0.0
 40
0.0199983760280892
 50
89.9856183659452569
 51
179.9842441054067024
  0
ARC
  5
A8F6
  8
0
 10
4174.1475786575838356
 20
43.6531607887868986
 30
0.0
 40
0.0199984702030969
 50
0.0168951834808794
 51
90.0142980506335135
  0
ARC
  5
A8F7
  8
0
 10
4174.1475751410707744
 20
42.8824208581103434
 30
0.0
 40
0.0200019900685529
 50
269.9816526610359801
 51
359.9627722079079035
  0
LINE
  5
A8F8
  8
0
 10
4173.3766051804032031
 20
42.8624204604672983
 30
0.0
 11
4174.1475687360043594
 21
42.862418869067298
 31
0.0
  0
LINE
  5
A8F9
  8
0
 10
4173.3565977100033706
 20
42.8824078618672999
 30
0.0
 11
4173.3565977100033706
 21
43.6531663823673028
 31
0.0
  0
LINE
  5
A8FA
  8
0
 10
4173.3766011050038287
 20
43.6731592583672992
 30
0.0
 11
4173.4393795803871399
 21
43.6731592583672992
 31
0.0
  0
LINE
  5
A8FB
  8
0
 10
4174.167577126917422
 20
42.8824078618672999
 30
0.0
 11
4174.167577126917422
 21
43.6531666858672978
 31
0.0
  0
LINE
  5
A8FC
  8
0
 10
4174.1475736670035985
 20
43.6731592583672992
 30
0.0
 11
4174.0847951916211969
 21
43.6731592583672992
 31
0.0
  0
LINE
  5
A8FD
  8
0
 10
4173.3624624059066264
 20
42.8682709919008076
 30
0.0
 11
4173.494854914834832
 21
43.0092783782584078
 31
0.0
  0
LINE
  5
A8FE
  8
0
 10
4174.1617118262829536
 20
42.8682704610172465
 30
0.0
 11
4174.0293198593717534
 21
43.0092783782584078
 31
0.0
  0
LINE
  5
A8FF
  8
0
 10
4174.1617158434346493
 20
43.6673131247212822
 30
0.0
 11
4174.0351830582176262
 21
43.546261066867288
 31
0.0
  0
LINE
  5
A900
  8
0
 10
4173.3624588264910926
 20
43.6673055978071218
 30
0.0
 11
4173.4889973491908677
 21
43.546261066867288
 31
0.0
  0
ENDSEC
  0
EOF
