  0
SECTION
  2
HEADER
  9
$ACADVER
  1
AC1009
  9
$INSBASE
 10
4169.2170307221567782
 20
45.8465871173391974
 30
0.0
  9
$EXTMIN
 10
4156.9252866598380933
 20
39.9868581764075373
 30
0.0
  9
$EXTMAX
 10
4171.9729363092574204
 20
49.8428427847421673
 30
0.0
  9
$LIMMIN
 10
0.0
 20
0.0
  9
$LIMMAX
 10
11.6929133858000007
 20
8.2677165353999982
  9
$ORTHOMODE
 70
     0
  9
$REGENMODE
 70
     1
  9
$FILLMODE
 70
     1
  9
$QTEXTMODE
 70
     0
  9
$MIRRTEXT
 70
     0
  9
$DRAGMODE
 70
     2
  9
$LTSCALE
 40
0.6431102362
  9
$OSMODE
 70
  4095
  9
$ATTMODE
 70
     1
  9
$TEXTSIZE
 40
0.2
  9
$TRACEWID
 40
0.05
  9
$TEXTSTYLE
  7
STANDARD
  9
$CLAYER
  8
0
  9
$CELTYPE
  6
BYLAYER
  9
$CECOLOR
 62
   256
  9
$DIMSCALE
 40
1.0
  9
$DIMASZ
 40
0.1875
  9
$DIMEXO
 40
0.0625
  9
$DIMDLI
 40
0.4443307087
  9
$DIMRND
 40
0.0
  9
$DIMDLE
 40
0.0
  9
$DIMEXE
 40
0.125
  9
$DIMTP
 40
0.01
  9
$DIMTM
 40
0.01
  9
$DIMTXT
 40
2.0
  9
$DIMCEN
 40
0.1052362205
  9
$DIMTSZ
 40
0.0
  9
$DIMTOL
 70
     1
  9
$DIMLIM
 70
     0
  9
$DIMTIH
 70
     1
  9
$DIMTOH
 70
     1
  9
$DIMSE1
 70
     0
  9
$DIMSE2
 70
     0
  9
$DIMTAD
 70
     0
  9
$DIMZIN
 70
     0
  9
$DIMBLK
  1

  9
$DIMASO
 70
     1
  9
$DIMSHO
 70
     1
  9
$DIMPOST
  1
\X
  9
$DIMAPOST
  1

  9
$DIMALT
 70
     1
  9
$DIMALTD
 70
     2
  9
$DIMALTF
 40
25.3999999999999986
  9
$DIMLFAC
 40
1.0
  9
$DIMTOFL
 70
     0
  9
$DIMTVP
 40
0.0
  9
$DIMTIX
 70
     0
  9
$DIMSOXD
 70
     0
  9
$DIMSAH
 70
     0
  9
$DIMBLK1
  1

  9
$DIMBLK2
  1

  9
$DIMSTYLE
  2
STANDARD
  9
$DIMCLRD
 70
     0
  9
$DIMCLRE
 70
     0
  9
$DIMCLRT
 70
     0
  9
$DIMTFAC
 40
1.0
  9
$DIMGAP
 40
0.09
  9
$LUNITS
 70
     2
  9
$LUPREC
 70
     4
  9
$SKETCHINC
 40
0.1
  9
$FILLETRAD
 40
0.0
  9
$AUNITS
 70
     0
  9
$AUPREC
 70
     0
  9
$MENU
  1
.
  9
$ELEVATION
 40
0.0
  9
$PELEVATION
 40
0.0
  9
$THICKNESS
 40
0.0
  9
$LIMCHECK
 70
     0
  9
$BLIPMODE
 70
     0
  9
$CHAMFERA
 40
0.0
  9
$CHAMFERB
 40
0.0
  9
$SKPOLY
 70
     0
  9
$TDCREATE
 40
2458060.468368056230247
  9
$TDUPDATE
 40
2459131.4947337969206274
  9
$TDINDWG
 40
0.4294052083
  9
$TDUSRTIMER
 40
0.4294052083
  9
$USRTIMER
 70
     1
  9
$ANGBASE
 50
0.0
  9
$ANGDIR
 70
     0
  9
$PDMODE
 70
     0
  9
$PDSIZE
 40
0.3125
  9
$PLINEWID
 40
0.0
  9
$COORDS
 70
     1
  9
$SPLFRAME
 70
     0
  9
$SPLINETYPE
 70
     6
  9
$SPLINESEGS
 70
     8
  9
$ATTDIA
 70
     1
  9
$ATTREQ
 70
     1
  9
$HANDLING
 70
     1
  9
$HANDSEED
  5
A78F
  9
$SURFTAB1
 70
     6
  9
$SURFTAB2
 70
     6
  9
$SURFTYPE
 70
     6
  9
$SURFU
 70
     6
  9
$SURFV
 70
     6
  9
$UCSNAME
  2

  9
$UCSORG
 10
0.0
 20
0.0
 30
0.0
  9
$UCSXDIR
 10
1.0
 20
0.0
 30
0.0
  9
$UCSYDIR
 10
0.0
 20
1.0
 30
0.0
  9
$PUCSNAME
  2

  9
$PUCSORG
 10
0.0
 20
0.0
 30
0.0
  9
$PUCSXDIR
 10
1.0
 20
0.0
 30
0.0
  9
$PUCSYDIR
 10
0.0
 20
1.0
 30
0.0
  9
$USERI1
 70
     0
  9
$USERI2
 70
     0
  9
$USERI3
 70
     0
  9
$USERI4
 70
     0
  9
$USERI5
 70
     0
  9
$USERR1
 40
0.0
  9
$USERR2
 40
0.0
  9
$USERR3
 40
0.0
  9
$USERR4
 40
0.0
  9
$USERR5
 40
0.0
  9
$WORLDVIEW
 70
     1
  9
$SHADEDGE
 70
     3
  9
$SHADEDIF
 70
    70
  9
$TILEMODE
 70
     1
  9
$MAXACTVP
 70
    64
  9
$PLIMCHECK
 70
     0
  9
$PEXTMIN
 10
1.0000000000000000E+20
 20
1.0000000000000000E+20
 30
1.0000000000000000E+20
  9
$PEXTMAX
 10
-1.0000000000000000E+20
 20
-1.0000000000000000E+20
 30
-1.0000000000000000E+20
  9
$PLIMMIN
 10
0.0
 20
0.0
  9
$PLIMMAX
 10
12.0
 20
9.0
  9
$UNITMODE
 70
     0
  9
$VISRETAIN
 70
     1
  9
$PLINEGEN
 70
     0
  9
$PSLTSCALE
 70
     1
  0
ENDSEC
  0
SECTION
  2
TABLES
  0
TABLE
  2
VPORT
 70
     1
  0
VPORT
  2
*ACTIVE
 70
     0
 10
0.0
 20
0.0
 11
1.0
 21
1.0
 12
373.9698707471831085
 22
-79.1243827229485959
 13
0.0
 23
0.0
 14
1.0
 24
1.0
 15
0.0
 25
0.0
 16
0.0
 26
0.0
 36
5.1040778033513332
 17
3792.35791015625
 27
120.1806564331053977
 37
0.0
 40
49.1604864041349572
 41
2.005224660397074
 42
50.0
 43
0.0
 44
0.0
 50
0.0
 51
0.0
 71
     0
 72
   100
 73
     1
 74
     1
 75
     0
 76
     0
 77
     0
 78
     0
  0
ENDTAB
  0
TABLE
  2
LTYPE
 70
     2
  0
LTYPE
  2
CONTINUOUS
 70
     0
  3
Solid line
 72
    65
 73
     0
 40
0.0
  0
LTYPE
  2
PHANTOM2
 70
     0
  3
___ _ _ ___ _ _ ___ _ _ ___ _ _
 72
    65
 73
     6
 40
1.25
 49
0.625
 49
-0.125
 49
0.125
 49
-0.125
 49
0.125
 49
-0.125
  0
ENDTAB
  0
TABLE
  2
LAYER
 70
     2
  0
LAYER
  2
0
 70
     0
 62
   255
  6
CONTINUOUS
  0
LAYER
  2
DEFPOINTS
 70
     0
 62
     7
  6
CONTINUOUS
  0
ENDTAB
  0
TABLE
  2
STYLE
 70
     1
  0
STYLE
  2
STANDARD
 70
     0
 40
0.0
 41
0.8
 50
0.0
 71
     0
 42
0.2
  3
txt
  4

  0
ENDTAB
  0
TABLE
  2
VIEW
 70
     0
  0
ENDTAB
  0
TABLE
  2
UCS
 70
     0
  0
ENDTAB
  0
TABLE
  2
APPID
 70
     9
  0
APPID
  2
ACAD
 70
     0
  0
APPID
  2
ACAD_MLEADERVER
 70
     0
  0
APPID
  2
ACAD_EXEMPT_FROM_CAD_STANDARDS
 70
     0
  0
APPID
  2
ACAD_NAV_VCDISPLAY
 70
     0
  0
APPID
  2
ACAECLAYERSTANDARD
 70
     0
  0
APPID
  2
ACCMTRANSPARENCY
 70
     0
  0
APPID
  2
ACAD_DSTYLE_DIMJAG
 70
     0
  0
APPID
  2
ACAD_DSTYLE_DIMTALN
 70
     0
  0
APPID
  2
ACDBATTR
 70
     0
  0
ENDTAB
  0
TABLE
  2
DIMSTYLE
 70
     1
  0
DIMSTYLE
  2
STANDARD
 70
     0
  3

  4

  5

  6

  7

 40
1.0
 41
0.1875
 42
0.0625
 43
0.38
 44
0.125
 45
0.0
 46
0.0
 47
0.01
 48
0.01
140
0.15625
141
0.09
142
0.0
143
25.3999999999999986
144
1.0
145
0.0
146
1.0
147
0.09
 71
     1
 72
     0
 73
     1
 74
     1
 75
     0
 76
     0
 77
     0
 78
     4
170
     0
171
     2
172
     0
173
     0
174
     0
175
     0
176
     0
177
     0
178
     0
  0
ENDTAB
  0
ENDSEC
  0
SECTION
  2
BLOCKS
  0
BLOCK
  8
0
  2
$MODEL_SPACE
 70
     0
 10
0.0
 20
0.0
 30
0.0
  3
$MODEL_SPACE
  1

  0
ENDBLK
  5
21
  8
0
  0
BLOCK
 67
     1
  8
0
  2
$PAPER_SPACE
 70
     0
 10
0.0
 20
0.0
 30
0.0
  3
$PAPER_SPACE
  1

  0
ENDBLK
  5
1D
 67
     1
  8
0
  0
BLOCK
  8
0
  2
_FILLED
 70
     0
 10
0.0
 20
0.0
 30
0.0
  3
_FILLED
  1

  0
SOLID
  5
69B4
  8
0
  6
BYBLOCK
 62
     0
 10
0.0
 20
0.0
 30
0.0
 11
-1.0
 21
0.1666666667
 31
0.0
 12
-1.0
 22
-0.1666666667
 32
0.0
 13
-1.0
 23
-0.1666666667
 33
0.0
  0
ENDBLK
  5
69B5
  8
0
  6
BYBLOCK
 62
     0
  0
BLOCK
  8
0
  2
A$CDFAF6206
 70
     0
 10
0.0
 20
0.0
 30
0.0
  3
A$CDFAF6206
  1

  0
LINE
  5
6A0E
  8
0
 10
7.4646650085734834
 20
10.9287685970688493
 30
0.0
 11
7.4646650085734896
 21
10.8905784766688498
 31
0.0
  0
ARC
  5
6A0F
  8
0
 10
7.7269027075262349
 20
10.8926811525838598
 30
0.0
 40
0.2622461286616791
 50
180.4593995232625048
 51
217.0214027758331099
  0
LINE
  5
6A10
  8
0
 10
9.767814609867095
 20
10.9287685970688493
 30
0.0
 11
9.767814609867095
 21
10.8905433757650094
 31
0.0
  0
ARC
  5
6A11
  8
0
 10
9.5068669568548287
 20
10.8922438613003703
 30
0.0
 40
0.2609531936261092
 50
322.8847083717149076
 51
359.6266329125650145
  0
LINE
  5
6A12
  8
0
 10
7.517522606271406
 20
10.7347792678688396
 30
0.0
 11
9.7149570120691777
 21
10.7347792678688396
 31
0.0
  0
LINE
  5
6A13
  8
0
 10
7.4646650085734834
 20
10.9287685970688493
 30
0.0
 11
9.7678146123202936
 21
10.9287685970688493
 31
0.0
  0
ARC
  5
6A14
  8
0
 10
4.0826771419203629
 20
8.527951346868889
 30
0.0
 40
4.0826771653999172
 50
13.3117747050523896
 51
32.7200330051415591
  0
ARC
  5
6A15
  8
0
 10
4.0826771460567306
 20
8.5279513475907933
 30
0.0
 40
4.0826771612084691
 50
359.6656501984817851
 51
13.3117747085593798
  0
ARC
  5
6A16
  8
0
 10
13.1498041284835097
 20
8.5279508235212234
 30
0.0
 40
4.0826788382043553
 50
147.2799733478981068
 51
166.6882233021349862
  0
ARC
  5
6A17
  8
0
 10
13.1498064934207992
 20
8.5279506557033251
 30
0.0
 40
4.0826811782395342
 50
166.688228652086309
 51
180.3343397625230011
  0
LINE
  5
6A18
  8
0
 10
8.1652847935202928
 20
8.504127000268852
 30
0.0
 11
9.0671948248202892
 21
8.5041270002687881
 31
0.0
  0
LINE
  5
6A19
  8
0
 10
8.1652847935202786
 20
8.5041270002667204
 30
0.0
 11
8.1652847935202928
 21
8.3607006934688481
 31
0.0
  0
ARC
  5
6A1A
  8
0
 10
5.6196779630382627
 20
8.3631022096452732
 30
0.0
 40
2.545607963272567
 50
342.0511668832173768
 51
359.945947387132378
  0
LINE
  5
6A1B
  8
0
 10
9.0671948248202892
 20
8.5041270002687881
 30
0.0
 11
9.0671948248202892
 21
8.2885990108688503
 31
0.0
  0
ARC
  5
6A1C
  8
0
 10
9.4521885297801163
 20
7.9614488056228501
 30
0.0
 40
0.5052201595850959
 50
139.6436242991769916
 51
174.6757930071850069
  0
ARC
  5
6A1D
  8
0
 10
9.9238413395551746
 20
8.1492417579399508
 30
0.0
 40
0.9848265662939324
 50
188.2263441834095943
 51
209.5593615864376034
  0
ARC
  5
6A1E
  8
0
 10
8.0788764238271256
 20
7.5665710856463297
 30
0.0
 40
0.0393715937169877
 50
162.1669117288323037
 51
227.2023190037006088
  0
ARC
  5
6A1F
  8
0
 10
8.7223682141740682
 20
8.2079667397440517
 30
0.0
 40
0.947895137885075
 50
225.0018610752970858
 51
261.4598823366255829
  0
ARC
  5
6A20
  8
0
 10
8.6645157662702701
 20
8.1695128573935332
 30
0.0
 40
0.9027466462812931
 50
264.7303071214498118
 51
281.8608311947915013
  0
ARC
  5
6A21
  8
0
 10
8.6645157662698935
 20
8.1695128573999671
 30
0.0
 40
0.9027466462876658
 50
299.1741886792128753
 51
299.1743179154552195
  0
ARC
  5
6A22
  8
0
 10
9.0843330931590316
 20
7.4150554710086141
 30
0.0
 40
0.0393703053609601
 50
251.9700352025496954
 51
252.4698971938937859
  0
ARC
  5
6A23
  8
0
 10
9.0843330931590316
 20
7.4150554710086141
 30
0.0
 40
0.0393703053609601
 50
297.2453716727138726
 51
6.8376113572703074
  0
LINE
  5
6A24
  8
0
 10
9.0671948248202892
 20
7.663402160468852
 30
0.0
 11
9.1234233799329516
 21
7.419742732911689
 31
0.0
  0
ARC
  5
6A25
  8
0
 10
8.8843741880892395
 20
9.8961379890094676
 30
0.0
 40
2.5255097382132701
 50
263.792800240752797
 51
274.9514951129821156
  0
ARC
  5
6A26
  8
0
 10
8.8258167405968848
 20
9.2763025889666508
 30
0.0
 40
1.9029970832759311
 50
246.0108363320686067
 51
263.5276935074397215
  0
ARC
  5
6A27
  8
0
 10
8.607491361665744
 20
8.3225444804829642
 30
0.0
 40
1.064510137163637
 50
283.1717405874071005
 51
297.7022170607311864
  0
LINE
  5
6A28
  8
0
 10
9.0671948248202892
 20
8.2885990108688503
 30
0.0
 11
26.2014378595979593
 21
8.2885990108689942
 31
0.0
  0
LINE
  5
6A29
  8
0
 10
26.2014378595979913
 20
7.6634021604689053
 30
0.0
 11
9.0671948248202892
 21
7.6634021604688618
 31
0.0
  0
LINE
  5
6A2A
  8
0
 10
27.8039676758446994
 20
10.9287685970690802
 30
0.0
 11
27.8039676758446888
 21
10.8905784766690807
 31
0.0
  0
ARC
  5
6A2B
  8
0
 10
27.5417299768919399
 20
10.8926811525840801
 30
0.0
 40
0.2622461286616791
 50
322.9785972241680838
 51
359.5406004767386889
  0
LINE
  5
6A2C
  8
0
 10
25.5008180745510913
 20
10.9287685970690305
 30
0.0
 11
25.5008180745510913
 21
10.8905433757651799
 31
0.0
  0
ARC
  5
6A2D
  8
0
 10
25.7617657275633505
 20
10.8922438613005497
 30
0.0
 40
0.2609531936261092
 50
180.3733670874362929
 51
217.1152916282862861
  0
LINE
  5
6A2E
  8
0
 10
27.7511100781467803
 20
10.7347792678690706
 30
0.0
 11
25.5536756723490015
 21
10.7347792678690208
 31
0.0
  0
LINE
  5
6A2F
  8
0
 10
27.8039676758446888
 20
10.9287685970686006
 30
0.0
 11
25.5008180745510806
 21
10.9287685970686006
 31
0.0
  0
ARC
  5
6A30
  8
0
 10
31.1859555424978616
 20
8.5279513468691981
 30
0.0
 40
4.0826771653999172
 50
147.2799669948597057
 51
166.6882252949490066
  0
ARC
  5
6A31
  8
0
 10
31.185955538361501
 20
8.5279513475911024
 30
0.0
 40
4.0826771612084691
 50
166.6882252914419098
 51
180.3343498015194086
  0
ARC
  5
6A32
  8
0
 10
22.1188285559344706
 20
8.5279508235212251
 30
0.0
 40
4.0826788382046102
 50
13.3117766978667795
 51
32.7200266521023977
  0
ARC
  5
6A33
  8
0
 10
22.1188261909974315
 20
8.5279506557034264
 30
0.0
 40
4.0826811782395342
 50
359.665660237478221
 51
13.31177134791497
  0
LINE
  5
6A34
  8
0
 10
27.1033478908979397
 20
8.5041270002690652
 30
0.0
 11
26.2014378595979416
 21
8.5041270002689835
 31
0.0
  0
LINE
  5
6A35
  8
0
 10
27.1033478908979504
 20
8.5041270002669354
 30
0.0
 11
27.1033478908979397
 21
8.3607006934690649
 31
0.0
  0
ARC
  5
6A36
  8
0
 10
29.6489547213799689
 20
8.3631022096455467
 30
0.0
 40
2.545607963272567
 50
180.0540526128687873
 51
197.9488331167837032
  0
LINE
  5
6A37
  8
0
 10
26.2014378595979416
 20
8.5041270002689835
 30
0.0
 11
26.2014378595979487
 21
8.2885990108690457
 31
0.0
  0
ARC
  5
6A38
  8
0
 10
25.8164441546381305
 20
7.9614488056230366
 30
0.0
 40
0.5052201595850959
 50
5.324206992816312
 51
40.3563757008241879
  0
ARC
  5
6A39
  8
0
 10
25.3447913448601803
 20
8.149241757940846
 30
0.0
 40
0.9848265662968968
 50
330.4406384136033807
 51
351.7736558165743759
  0
ARC
  5
6A3A
  8
0
 10
27.1897562605911212
 20
7.5665710856465473
 30
0.0
 40
0.0393715937169877
 50
312.7976809963004143
 51
17.8330882711689185
  0
ARC
  5
6A3B
  8
0
 10
26.5462644702441715
 20
8.2079667397442542
 30
0.0
 40
0.947895137885075
 50
278.5401176633754972
 51
314.9981389247041079
  0
ARC
  5
6A3C
  8
0
 10
26.6041169181479695
 20
8.1695128573937392
 30
0.0
 40
0.9027466462812931
 50
258.139168805210204
 51
275.2696928785518935
  0
ARC
  5
6A3D
  8
0
 10
26.6041169181483497
 20
8.1695128574001732
 30
0.0
 40
0.9027466462876658
 50
240.8256820845460027
 51
240.8258113207880058
  0
ARC
  5
6A3E
  8
0
 10
26.1842995912592293
 20
7.4150554710088086
 30
0.0
 40
0.0393703053609601
 50
287.5301028061073794
 51
288.0299647974517825
  0
ARC
  5
6A3F
  8
0
 10
26.1842995912592293
 20
7.4150554710088086
 30
0.0
 40
0.0393703053609601
 50
173.1623886427310026
 51
242.7546283272870085
  0
LINE
  5
6A40
  8
0
 10
26.2014378595981192
 20
7.6634021604690448
 30
0.0
 11
26.1452093044853093
 21
7.4197427329118826
 31
0.0
  0
ARC
  5
6A41
  8
0
 10
26.384258496328961
 20
9.8961379890096666
 30
0.0
 40
2.5255097382132701
 50
265.0485048870193054
 51
276.2071997592482262
  0
ARC
  5
6A42
  8
0
 10
26.4428159438213299
 20
9.2763025889668516
 30
0.0
 40
1.9029970832759311
 50
276.4723064925619838
 51
293.9891636679327007
  0
ARC
  5
6A43
  8
0
 10
26.6611413227524885
 20
8.3225444804831703
 30
0.0
 40
1.064510137163637
 50
242.2977829392704052
 51
256.8282594125943774
  0
LINE
  5
6A44
  8
0
 62
     4
 10
17.9031473532159602
 20
10.9287685970686006
 30
0.0
 11
24.6329820359843588
 21
20.0952817181593808
 31
0.0
  0
LINE
  5
6A45
  8
0
 62
     4
 10
17.9031473532159602
 20
-0.0000000300842942
 30
0.0
 11
22.3963351323106608
 21
4.993614497796286
 31
0.0
  0
ENDBLK
  5
6A49
  8
0
  0
ENDSEC
  0
SECTION
  2
ENTITIES
  0
ATTDEF
  5
3930
  8
DEFPOINTS
 10
4169.2190535249428649
 20
45.8507361199660792
 30
0.0
 40
0.001
  1
K-99960T-4V
  3

  2
MODELNUMBER
 70
     0
1001
ACDBATTR
1070
     0
1070
     1
  0
ATTDEF
  5
3931
  8
DEFPOINTS
 10
4169.2190535249428649
 20
45.8490694532994212
 30
0.0
 40
0.001
  1
MODULO
  3

  2
TRADENAME
 70
     0
1001
ACDBATTR
1070
     0
1070
     1
  0
ATTDEF
  5
3932
  8
DEFPOINTS
 10
4169.2190535249428649
 20
45.8474027866327489
 30
0.0
 40
0.001
  1
VALVE TRIM
  3

  2
PRODUCT
 70
     0
1001
ACDBATTR
1070
     0
1070
     1
  0
CIRCLE
  5
A6C0
  8
0
 10
4169.2169932751330634
 20
47.3623724765827276
 30
0.0
 40
0.4921259843000004
  0
ARC
  5
A6C1
  8
0
 10
4169.2169539137621541
 20
47.3624118382761381
 30
0.0
 40
0.5117716637434238
 50
89.9951228872943574
 51
180.0044067678389865
  0
ARC
  5
A6C2
  8
0
 10
4169.2170305401314181
 20
47.3624097412747815
 30
0.0
 40
0.5117737599587115
 50
359.9958280206064956
 51
90.0037016725915464
  0
ARC
  5
A6C3
  8
0
 10
4169.2169540998293087
 20
47.3623331919532973
 30
0.0
 40
0.5117718498055474
 50
179.9956018615145013
 51
270.1640715601257057
  0
ARC
  5
A6C4
  8
0
 10
4169.2170307174746995
 20
47.3623351384399669
 30
0.0
 40
0.5117735826190563
 50
270.1554931795104153
 51
0.0041802040385181
  0
ARC
  5
A6C5
  8
0
 10
4166.5198635466140331
 20
49.3311559023437169
 30
0.0
 40
0.0587384093858139
 50
89.9102026887881323
 51
180.0897974024101131
  0
ARC
  5
A6C6
  8
0
 10
4166.5198635464448671
 20
42.3620184034659033
 30
0.0
 40
0.0587384092157815
 50
179.9102025287363062
 51
270.0897974899501151
  0
LINE
  5
A6C7
  8
0
 10
4166.4611252093691292
 20
49.3310638440024292
 30
0.0
 11
4166.4611252093691292
 21
42.3621104618775206
 31
0.0
  0
ARC
  5
A6C8
  8
0
 10
4171.9141978955285595
 20
49.3311559040246479
 30
0.0
 40
0.0587384093858139
 50
359.9102026332980131
 51
90.0897973469595144
  0
ARC
  5
A6C9
  8
0
 10
4171.9141978971711069
 20
42.3620184063337675
 30
0.0
 40
0.058738412085781
 50
269.9102011833745109
 51
0.0897963448053105
  0
LINE
  5
A6CA
  8
0
 10
4171.9729362327752824
 20
49.3310638457199602
 30
0.0
 11
4171.9729362371190291
 21
42.3621104635950587
 31
0.0
  0
LINE
  5
A6CB
  8
0
 10
4166.5199556048619343
 20
49.3898942395899709
 30
0.0
 11
4171.9141058372442785
 21
49.3898942412708521
 31
0.0
  0
LINE
  5
A6CC
  8
0
 10
4166.5199556048746672
 20
42.3032800663899735
 30
0.0
 11
4168.6555163119746794
 21
42.3032800663899735
 31
0.0
  0
LINE
  5
A6CD
  8
0
 10
4168.6555163119746794
 20
42.3032800663899735
 30
0.0
 11
4168.6658496187747005
 21
42.3136133730899786
 31
0.0
  0
LINE
  5
A6CE
  8
0
 10
4168.6658496187747005
 20
42.3136133730899786
 30
0.0
 11
4168.8358313054341124
 21
42.3136133730899786
 31
0.0
  0
LINE
  5
A6CF
  8
0
 10
4169.5981961020161179
 20
42.3136133730899786
 30
0.0
 11
4169.7682118234752124
 21
42.3136133730899786
 31
0.0
  0
LINE
  5
A6D0
  8
0
 10
4169.7682118234752124
 20
42.3136133730899786
 30
0.0
 11
4169.7785451301751891
 21
42.3032800663899735
 31
0.0
  0
LINE
  5
A6D1
  8
0
 10
4169.7785451301751891
 20
42.3032800663899735
 30
0.0
 11
4171.9141058373752458
 21
42.3032800663899735
 31
0.0
  0
LINE
  5
A6D2
  8
0
 10
4166.5308915408750181
 20
49.3148754906899711
 30
0.0
 11
4166.5361447692757793
 21
49.3201266130899825
 31
0.0
  0
LINE
  5
A6D3
  8
0
 10
4166.5361447692757793
 20
49.3201266130899825
 30
0.0
 11
4171.8979186773758556
 21
49.3201266130899825
 31
0.0
  0
LINE
  5
A6D4
  8
0
 10
4171.8979186773758556
 20
49.3201266130899825
 30
0.0
 11
4171.9033937582380531
 21
49.3151203246309393
 31
0.0
  0
LINE
  5
A6D5
  8
0
 10
4171.9033937582380531
 20
49.3151203246309393
 30
0.0
 11
4171.9031699012757599
 21
42.3782988153899609
 31
0.0
  0
LINE
  5
A6D6
  8
0
 10
4171.8979166728668133
 20
42.373047046330278
 30
0.0
 11
4171.9031699012757599
 21
42.3782988153899609
 31
0.0
  0
LINE
  5
A6D7
  8
0
 10
4171.8979166728668133
 20
42.373047046330278
 30
0.0
 11
4169.5901145333064051
 21
42.3730473246211332
 31
0.0
  0
LINE
  5
A6D8
  8
0
 10
4168.8439238436130836
 20
42.3730474146019773
 30
0.0
 11
4166.5361453744508253
 21
42.373047692889962
 31
0.0
  0
LINE
  5
A6D9
  8
0
 10
4166.5361453744508253
 20
42.373047692889962
 30
0.0
 11
4166.5308928357753757
 21
42.3782996263899676
 31
0.0
  0
LINE
  5
A6DA
  8
0
 10
4166.5308928357753757
 20
42.3782996263899676
 30
0.0
 11
4166.5308915408750181
 21
49.3148754906899711
 31
0.0
  0
ARC
  5
A6DB
  8
0
 10
4167.1247557393671741
 20
48.7262636210189797
 30
0.0
 40
0.0658290052963632
 50
98.9164121903243654
 51
171.083448097901794
  0
ARC
  5
A6DC
  8
0
 10
4167.1247558928625949
 20
42.9669107641818186
 30
0.0
 40
0.0658291698526323
 50
188.9166028384219089
 51
261.0834774828612126
  0
ARC
  5
A6DD
  8
0
 10
4171.3093047507645679
 20
48.7262627567997626
 30
0.0
 40
0.0658300395733025
 50
8.9170592831962736
 51
81.0829001722218976
  0
ARC
  5
A6DE
  8
0
 10
4171.3093054109176592
 20
42.9669111397559291
 30
0.0
 40
0.0658295333001722
 50
278.9165897967228034
 51
351.0832360762926214
  0
LINE
  5
A6DF
  8
0
 10
4167.1145526794753096
 20
48.7912971162899822
 30
0.0
 11
4171.3195087514759507
 21
48.7912971513899691
 31
0.0
  0
LINE
  5
A6E0
  8
0
 10
4171.3743391525758852
 20
48.7364667114899675
 30
0.0
 11
4171.3743393651757287
 21
42.9567075987899685
 31
0.0
  0
LINE
  5
A6E1
  8
0
 10
4167.1145526822410829
 20
42.9018771259899694
 30
0.0
 11
4168.8972491185822946
 21
42.9018771380725923
 31
0.0
  0
LINE
  5
A6E2
  8
0
 10
4169.5353038121438658
 20
42.9018771553304106
 30
0.0
 11
4171.3195087542399051
 21
42.9018771544899593
 31
0.0
  0
LINE
  5
A6E3
  8
0
 10
4167.0597222689757473
 20
48.7364668394899709
 30
0.0
 11
4167.0597222689757473
 21
42.9567074623899714
 31
0.0
  0
LINE
  5
A6E4
  8
0
 10
4166.5335118892044193
 20
42.3756695071497802
 30
0.0
 11
4167.0782057367941889
 21
42.920364415524908
 31
0.0
  0
LINE
  5
A6E5
  8
0
 10
4171.3558536346217807
 20
48.7728116077179976
 30
0.0
 11
4171.9557322231294165
 21
49.3726902316103207
 31
0.0
  0
LINE
  5
A6E6
  8
0
 10
4166.5335181550753987
 20
49.3175010518899768
 30
0.0
 11
4167.0782076825953482
 21
48.7728118363351015
 31
0.0
  0
LINE
  5
A6E7
  8
0
 10
4171.3558755344929523
 20
42.9203842546299867
 30
0.0
 11
4171.9005432870717414
 21
42.3756729308601194
 31
0.0
  0
ARC
  5
A6E8
  8
0
 10
4168.8315444938871224
 20
42.1498777754754528
 30
0.0
 40
0.0200034498851861
 50
170.9786774632221125
 51
225.1582341733559929
  0
ARC
  5
A6E9
  8
0
 10
4168.9299999204304186
 20
42.0502699244648568
 30
0.0
 40
0.0200000001344477
 50
224.6677418535780077
 51
269.9999999228248271
  0
ARC
  5
A6EA
  8
0
 10
4169.5040615216767037
 20
42.0502699244648568
 30
0.0
 40
0.0200000001344435
 50
270.0000000771751729
 51
315.3322582694086123
  0
ARC
  5
A6EB
  8
0
 10
4169.6025194396142979
 20
42.1498775721263925
 30
0.0
 40
0.0200010213025477
 50
315.0640323851487778
 51
9.0230169498396808
  0
LINE
  5
A6EC
  8
0
 10
4168.8174390358926757
 20
42.1356941912282608
 30
0.0
 11
4168.9157760126317953
 21
42.0362100364023874
 31
0.0
  0
LINE
  5
A6ED
  8
0
 10
4168.9299999204304186
 20
42.0302699243304119
 30
0.0
 11
4169.5040615216767037
 21
42.0302699243304119
 31
0.0
  0
LINE
  5
A6EE
  8
0
 10
4169.5182854294216668
 20
42.0362100363493525
 30
0.0
 11
4169.6166780942903642
 21
42.1357505288791074
 31
0.0
  0
ARC
  5
A6EF
  8
0
 10
4160.9126039775383106
 20
43.4186877966958633
 30
0.0
 40
7.9999403215439706
 50
350.8969656310355276
 51
351.636671666398172
  0
ARC
  5
A6F0
  8
0
 10
4159.9035772597653704
 20
43.5600969073270718
 30
0.0
 40
9.0188072125687384
 50
351.6802364791569744
 51
354.4187125316402103
  0
ARC
  5
A6F1
  8
0
 10
4155.748432805493394
 20
43.927736431408583
 30
0.0
 40
13.1900642463640505
 50
354.5847516680714762
 51
358.6709626591130018
  0
ARC
  5
A6F2
  8
0
 10
4137.0907023473801019
 20
44.3904329238130515
 30
0.0
 40
31.8535212026346315
 50
358.6173162250216819
 51
0.2414637023233324
  0
ARC
  5
A6F3
  8
0
 10
4177.7021408955051811
 20
43.4464449148664826
 30
0.0
 40
8.1827396706709212
 50
187.6433871312148085
 51
189.0947827474159055
  0
ARC
  5
A6F4
  8
0
 10
4178.862656956544015
 20
43.5982528856656018
 30
0.0
 40
9.3531369955512957
 50
185.3226084594139138
 51
187.6195115204666024
  0
ARC
  5
A6F5
  8
0
 10
4182.4407952968758764
 20
43.9058562112091906
 30
0.0
 40
12.9444067759648593
 50
181.7272233734543079
 51
185.2091022563132867
  0
ARC
  5
A6F6
  8
0
 10
4200.1838475305867178
 20
44.3893505340601706
 30
0.0
 40
30.6940138101333702
 50
179.7473941355966929
 51
181.6310490259708104
  0
LINE
  5
A6F7
  8
0
 10
4168.9439406810797664
 20
44.5246739876304076
 30
0.0
 11
4168.9439406853025503
 21
45.0563700068023181
 31
0.0
  0
LINE
  5
A6F8
  8
0
 10
4168.9639406840251468
 20
45.0763701030304134
 30
0.0
 11
4169.4701207305042772
 21
45.0763701012304026
 31
0.0
  0
LINE
  5
A6F9
  8
0
 10
4169.4901207562043055
 20
45.0563699849304129
 30
0.0
 11
4169.4901320282324377
 21
44.5246739878692992
 31
0.0
  0
ARC
  5
A6FA
  8
0
 10
4168.9535763419680734
 20
45.0667339928877411
 30
0.0
 40
0.0175483305513509
 50
84.324477164263925
 51
185.6785389125055019
  0
ARC
  5
A6FB
  8
0
 10
4168.9639407229342396
 20
45.0563700874428932
 30
0.0
 40
0.0200000376316068
 50
90.0001078063797593
 51
179.9999547721778015
  0
ARC
  5
A6FC
  8
0
 10
4169.4804858481011252
 20
45.0667342529882404
 30
0.0
 40
0.0175476177356204
 50
354.3204037604916721
 51
95.4874194232923088
  0
ARC
  5
A6FD
  8
0
 10
4169.470120759976453
 20
45.056370104303177
 30
0.0
 40
0.0199999969272446
 50
359.9999969891222804
 51
90.0000844332318906
  0
LINE
  5
A6FE
  8
0
 10
4169.4701207569041799
 20
45.0763701251738382
 30
0.0
 11
4169.4788078187511928
 21
45.0842014538428231
 31
0.0
  0
LINE
  5
A6FF
  8
0
 10
4169.4901207569073449
 20
45.0563699857050821
 30
0.0
 11
4169.4979479578041719
 21
45.0649976337304068
 31
0.0
  0
LINE
  5
A700
  8
0
 10
4168.9361141263034369
 20
45.0649976377304071
 30
0.0
 11
4168.9439406860037707
 21
45.0563700060304129
 31
0.0
  0
LINE
  5
A701
  8
0
 10
4168.9553117779041713
 20
45.0841962999304116
 30
0.0
 11
4168.963940711703799
 21
45.0763701011304079
 31
0.0
  0
ARC
  5
A702
  8
0
 10
4169.2170307211026739
 20
44.8032800672304035
 30
0.0
 40
0.5326038666999997
 50
300.8147536853218753
 51
239.1846772967506922
  0
ARC
  5
A703
  8
0
 10
4169.2169680517763481
 20
44.8032508223285291
 30
0.0
 40
0.3901558049191344
 50
318.1734129168372078
 51
222.3274023119726905
  0
ARC
  5
A704
  8
0
 10
4168.8839058166422546
 20
44.5046474651165767
 30
0.0
 40
0.05725739740683
 50
17.0391695571059287
 51
38.8101861518573727
  0
ARC
  5
A705
  8
0
 10
4168.8155973625862316
 20
44.4874626478697834
 30
0.0
 40
0.1276533842851206
 50
4.0599181989368942
 51
15.4295890302077794
  0
ARC
  5
A706
  8
0
 10
4168.4160453721906379
 20
44.4593727826606369
 30
0.0
 40
0.528191542389076
 50
1.188087480149036
 51
4.0307633832825438
  0
ARC
  5
A707
  8
0
 10
4169.5484939517300518
 20
44.5052832681967487
 30
0.0
 40
0.0556024173975538
 50
137.196452192264104
 51
163.1233427147049895
  0
ARC
  5
A708
  8
0
 10
4169.6183387409646457
 20
44.4874626478697834
 30
0.0
 40
0.1276533842851206
 50
164.5704109697921922
 51
175.9400818010630871
  0
ARC
  5
A709
  8
0
 10
4169.8690511035765667
 20
44.4680071962862584
 30
0.0
 40
0.3791176554443281
 50
175.6897686372487044
 51
179.6498215322567091
  0
ARC
  5
A70A
  8
0
 10
4169.2169680517763481
 20
44.8032508223285291
 30
0.0
 40
0.9941571579584403
 50
286.2160579448938051
 51
253.8004358172194088
  0
ARC
  5
A70B
  8
0
 10
4169.2170307211026739
 20
44.8032800672304035
 30
0.0
 40
0.9699999999999998
 50
286.6010338887197122
 51
253.4073069157371947
  0
ENDSEC
  0
EOF
