  0
SECTION
  2
HEADER
  9
$ACADVER
  1
AC1009
  9
$INSBASE
 10
972.2244931733031308
 20
135.6651616791625088
 30
0.0
  9
$EXTMIN
 10
968.019229157490372
 20
132.1146068401619118
 30
-0.0000000000000058
  9
$EXTMAX
 10
972.2912225522494509
 20
139.2145754907319031
 30
0.0000000000000104
  9
$LIMMIN
 10
0.0
 20
0.0
  9
$LIMMAX
 10
11.6929133858000007
 20
8.2677165353999982
  9
$ORTHOMODE
 70
     0
  9
$REGENMODE
 70
     1
  9
$FILLMODE
 70
     1
  9
$QTEXTMODE
 70
     0
  9
$MIRRTEXT
 70
     0
  9
$DRAGMODE
 70
     2
  9
$LTSCALE
 40
0.6431102362
  9
$OSMODE
 70
  4095
  9
$ATTMODE
 70
     1
  9
$TEXTSIZE
 40
0.2
  9
$TRACEWID
 40
0.05
  9
$TEXTSTYLE
  7
STANDARD
  9
$CLAYER
  8
0
  9
$CELTYPE
  6
BYLAYER
  9
$CECOLOR
 62
   256
  9
$DIMSCALE
 40
1.0
  9
$DIMASZ
 40
0.1875
  9
$DIMEXO
 40
0.0625
  9
$DIMDLI
 40
0.4443307087
  9
$DIMRND
 40
0.0
  9
$DIMDLE
 40
0.0
  9
$DIMEXE
 40
0.125
  9
$DIMTP
 40
0.01
  9
$DIMTM
 40
0.01
  9
$DIMTXT
 40
1.0
  9
$DIMCEN
 40
0.1052362205
  9
$DIMTSZ
 40
0.0
  9
$DIMTOL
 70
     1
  9
$DIMLIM
 70
     0
  9
$DIMTIH
 70
     0
  9
$DIMTOH
 70
     1
  9
$DIMSE1
 70
     0
  9
$DIMSE2
 70
     0
  9
$DIMTAD
 70
     0
  9
$DIMZIN
 70
     0
  9
$DIMBLK
  1

  9
$DIMASO
 70
     1
  9
$DIMSHO
 70
     1
  9
$DIMPOST
  1
\X
  9
$DIMAPOST
  1

  9
$DIMALT
 70
     1
  9
$DIMALTD
 70
     2
  9
$DIMALTF
 40
25.3999999999999986
  9
$DIMLFAC
 40
1.0
  9
$DIMTOFL
 70
     0
  9
$DIMTVP
 40
0.0
  9
$DIMTIX
 70
     0
  9
$DIMSOXD
 70
     0
  9
$DIMSAH
 70
     0
  9
$DIMBLK1
  1

  9
$DIMBLK2
  1

  9
$DIMSTYLE
  2
STANDARD
  9
$DIMCLRD
 70
     0
  9
$DIMCLRE
 70
     0
  9
$DIMCLRT
 70
     0
  9
$DIMTFAC
 40
1.0
  9
$DIMGAP
 40
0.09
  9
$LUNITS
 70
     2
  9
$LUPREC
 70
     4
  9
$SKETCHINC
 40
0.1
  9
$FILLETRAD
 40
0.0
  9
$AUNITS
 70
     0
  9
$AUPREC
 70
     0
  9
$MENU
  1
.
  9
$ELEVATION
 40
0.0
  9
$PELEVATION
 40
0.0
  9
$THICKNESS
 40
0.0
  9
$LIMCHECK
 70
     0
  9
$BLIPMODE
 70
     0
  9
$CHAMFERA
 40
0.0
  9
$CHAMFERB
 40
0.0
  9
$SKPOLY
 70
     0
  9
$TDCREATE
 40
2458172.5207638889551163
  9
$TDUPDATE
 40
2459130.516296295914799
  9
$TDINDWG
 40
0.4424659954
  9
$TDUSRTIMER
 40
0.4424659954
  9
$USRTIMER
 70
     1
  9
$ANGBASE
 50
0.0
  9
$ANGDIR
 70
     0
  9
$PDMODE
 70
     0
  9
$PDSIZE
 40
0.3125
  9
$PLINEWID
 40
0.0
  9
$COORDS
 70
     1
  9
$SPLFRAME
 70
     0
  9
$SPLINETYPE
 70
     6
  9
$SPLINESEGS
 70
     8
  9
$ATTDIA
 70
     1
  9
$ATTREQ
 70
     1
  9
$HANDLING
 70
     1
  9
$HANDSEED
  5
B67A
  9
$SURFTAB1
 70
     6
  9
$SURFTAB2
 70
     6
  9
$SURFTYPE
 70
     6
  9
$SURFU
 70
     6
  9
$SURFV
 70
     6
  9
$UCSNAME
  2

  9
$UCSORG
 10
0.0
 20
0.0
 30
0.0
  9
$UCSXDIR
 10
1.0
 20
0.0
 30
0.0
  9
$UCSYDIR
 10
0.0
 20
1.0
 30
0.0
  9
$PUCSNAME
  2

  9
$PUCSORG
 10
0.0
 20
0.0
 30
0.0
  9
$PUCSXDIR
 10
1.0
 20
0.0
 30
0.0
  9
$PUCSYDIR
 10
0.0
 20
1.0
 30
0.0
  9
$USERI1
 70
     0
  9
$USERI2
 70
     0
  9
$USERI3
 70
     0
  9
$USERI4
 70
     0
  9
$USERI5
 70
     0
  9
$USERR1
 40
0.0
  9
$USERR2
 40
0.0
  9
$USERR3
 40
0.0
  9
$USERR4
 40
0.0
  9
$USERR5
 40
0.0
  9
$WORLDVIEW
 70
     1
  9
$SHADEDGE
 70
     3
  9
$SHADEDIF
 70
    70
  9
$TILEMODE
 70
     1
  9
$MAXACTVP
 70
    64
  9
$PLIMCHECK
 70
     0
  9
$PEXTMIN
 10
1.0000000000000000E+20
 20
1.0000000000000000E+20
 30
1.0000000000000000E+20
  9
$PEXTMAX
 10
-1.0000000000000000E+20
 20
-1.0000000000000000E+20
 30
-1.0000000000000000E+20
  9
$PLIMMIN
 10
0.0
 20
0.0
  9
$PLIMMAX
 10
12.0
 20
9.0
  9
$UNITMODE
 70
     0
  9
$VISRETAIN
 70
     1
  9
$PLINEGEN
 70
     0
  9
$PSLTSCALE
 70
     1
  0
ENDSEC
  0
SECTION
  2
TABLES
  0
TABLE
  2
VPORT
 70
     1
  0
VPORT
  2
*ACTIVE
 70
     0
 10
0.0
 20
0.0
 11
1.0
 21
1.0
 12
503.4130241470398914
 22
46.5314440455171621
 13
0.0
 23
0.0
 14
1.0
 24
1.0
 15
0.0
 25
0.0
 16
0.0
 26
0.0
 36
24.1179433675886514
 17
466.74220170783002
 27
89.133147119929788
 37
0.0
 40
7.1809568861277882
 41
2.5847619047619039
 42
50.0
 43
0.0
 44
0.0
 50
0.0
 51
0.0
 71
     0
 72
   100
 73
     1
 74
     1
 75
     0
 76
     0
 77
     0
 78
     0
  0
ENDTAB
  0
TABLE
  2
LTYPE
 70
     2
  0
LTYPE
  2
CONTINUOUS
 70
     0
  3
Solid line
 72
    65
 73
     0
 40
0.0
  0
LTYPE
  2
PHANTOM2
 70
     0
  3
___ _ _ ___ _ _ ___ _ _ ___ _ _
 72
    65
 73
     6
 40
1.25
 49
0.625
 49
-0.125
 49
0.125
 49
-0.125
 49
0.125
 49
-0.125
  0
ENDTAB
  0
TABLE
  2
LAYER
 70
     2
  0
LAYER
  2
0
 70
     0
 62
   255
  6
CONTINUOUS
  0
LAYER
  2
DEFPOINTS
 70
     0
 62
     7
  6
CONTINUOUS
  0
ENDTAB
  0
TABLE
  2
STYLE
 70
     1
  0
STYLE
  2
STANDARD
 70
     0
 40
0.0
 41
0.8
 50
0.0
 71
     0
 42
0.2
  3
txt
  4

  0
ENDTAB
  0
TABLE
  2
VIEW
 70
     0
  0
ENDTAB
  0
TABLE
  2
UCS
 70
     0
  0
ENDTAB
  0
TABLE
  2
APPID
 70
    11
  0
APPID
  2
ACAD
 70
     0
  0
APPID
  2
ACAD_MLEADERVER
 70
     0
  0
APPID
  2
ACAD_EXEMPT_FROM_CAD_STANDARDS
 70
     0
  0
APPID
  2
ACAD_DSTYLE_DIMJAG
 70
     0
  0
APPID
  2
ACAD_DSTYLE_DIMTALN
 70
     0
  0
APPID
  2
ACAD_NAV_VCDISPLAY
 70
     0
  0
APPID
  2
ACAECLAYERSTANDARD
 70
     0
  0
APPID
  2
ACCMTRANSPARENCY
 70
     0
  0
APPID
  2
DCO15
 70
     0
  0
APPID
  2
ACDBATTR
 70
     0
  0
APPID
  2
ACADANNOTATIVE
 70
     0
  0
ENDTAB
  0
TABLE
  2
DIMSTYLE
 70
     1
  0
DIMSTYLE
  2
STANDARD
 70
     0
  3

  4

  5

  6

  7

 40
1.0
 41
0.1875
 42
0.0625
 43
0.38
 44
0.125
 45
0.0
 46
0.0
 47
0.01
 48
0.01
140
0.15625
141
0.09
142
0.0
143
25.3999999999999986
144
1.0
145
0.0
146
1.0
147
0.09
 71
     1
 72
     0
 73
     1
 74
     1
 75
     0
 76
     0
 77
     0
 78
     4
170
     0
171
     2
172
     0
173
     0
174
     0
175
     0
176
     0
177
     0
178
     0
  0
ENDTAB
  0
ENDSEC
  0
SECTION
  2
BLOCKS
  0
BLOCK
  8
0
  2
$MODEL_SPACE
 70
     0
 10
0.0
 20
0.0
 30
0.0
  3
$MODEL_SPACE
  1

  0
ENDBLK
  5
21
  8
0
  0
BLOCK
 67
     1
  8
0
  2
$PAPER_SPACE
 70
     0
 10
0.0
 20
0.0
 30
0.0
  3
$PAPER_SPACE
  1

  0
ENDBLK
  5
1D
 67
     1
  8
0
  0
ENDSEC
  0
SECTION
  2
ENTITIES
  0
ATTDEF
  5
829
  8
DEFPOINTS
 10
972.2273062322905162
 20
135.6650784606569005
 30
0.0
 40
0.001
  1
K-99955T-4
  3

  2
MODELNUMBER
 70
     0
1001
ACDBATTR
1070
     0
1070
     1
  0
ATTDEF
  5
82A
  8
DEFPOINTS
 10
972.2273062322905162
 20
135.6634117939902922
 30
0.0
 40
0.001
  1
MODULO
  3

  2
TRADENAME
 70
     0
1001
ACDBATTR
1070
     0
1070
     1
  0
ATTDEF
  5
82B
  8
DEFPOINTS
 10
972.2273062322905162
 20
135.6617451273235986
 30
0.0
 40
0.001
  1
VALVE TRIM
  3

  2
PRODUCT
 70
     0
1001
ACDBATTR
1070
     0
1070
     1
  0
LINE
  5
B528
  8
0
 10
972.2244931733031308
 20
139.1984518113202967
 30
0.0
 11
972.2244931733031308
 21
132.1323843125472024
 31
0.0
  0
LINE
  5
B529
  8
0
 10
971.8307923859033508
 20
132.2478145062644046
 30
0.0
 11
971.8307923859033508
 21
139.0788363220607096
 31
0.0
  0
LINE
  5
B52A
  8
0
 10
971.6339419922031766
 20
138.817774696644392
 30
0.0
 11
971.6339419922031766
 21
132.5088761316744979
 31
0.0
  0
LINE
  5
B52B
  8
0
 10
971.9447707553476903
 20
139.1968643787317887
 30
0.0
 11
972.2163174672797368
 21
139.2063469988538031
 31
0.0
  0
LINE
  5
B52C
  8
0
 10
971.9447707553912323
 20
132.1297864495917054
 30
0.0
 11
972.0785490828202455
 21
132.125114807511892
 31
0.0
  0
ARC
  5
B52D
  8
0
 10
971.9488923859031502
 20
132.2478145062644046
 30
0.0
 40
0.1181
 50
180.0
 51
268.000000023675284
  0
ARC
  5
B52E
  8
0
 10
971.9488923859031502
 20
139.0788363220607096
 30
0.0
 40
0.1181
 50
91.9999999975529903
 51
180.0000000000015916
  0
ARC
  5
B52F
  8
0
 10
971.7323671889846537
 20
139.0334041543281103
 30
0.0
 40
0.0984251969232544
 50
275.2134359387500808
 51
0.0
  0
ARC
  5
B530
  8
0
 10
971.732367189003071
 20
132.2932466740124937
 30
0.0
 40
0.0984251968999965
 50
0.0
 51
84.7865640656257256
  0
ARC
  5
B531
  8
0
 10
971.7520419922030896
 20
138.8177746966443067
 30
0.0
 40
0.1181
 50
95.2134359387762572
 51
179.9999999999886029
  0
ARC
  5
B532
  8
0
 10
971.7520419922030896
 20
132.5088761316744979
 30
0.0
 40
0.1181
 50
179.9999999999951115
 51
264.7865640656323194
  0
ARC
  5
B533
  8
0
 10
972.2165931733031812
 20
139.1984518113202967
 30
0.0
 40
0.0079
 50
359.9999999999740226
 51
91.9999999975594989
  0
LINE
  5
B534
  8
0
 10
970.7766734882031869
 20
134.797183681912486
 30
0.0
 11
971.6339419922031766
 21
134.797183681912486
 31
0.0
  0
LINE
  5
B535
  8
0
 10
970.6782073465030862
 20
134.797183681912486
 30
0.0
 11
969.1896055613879071
 21
134.797183681912486
 31
0.0
  0
LINE
  5
B536
  8
0
 10
970.7766734882031869
 20
136.529467146412486
 30
0.0
 11
971.6339419922031766
 21
136.529467146412486
 31
0.0
  0
LINE
  5
B537
  8
0
 10
970.6782073465030862
 20
136.529467146412486
 30
0.0
 11
969.1896055613879071
 21
136.529467146412486
 31
0.0
  0
LINE
  5
B538
  8
0
 10
970.7569734882032435
 20
134.8168836819124863
 30
0.0
 11
970.7569734882032435
 21
136.5097671464125142
 31
0.0
  0
LINE
  5
B539
  8
0
 10
970.6861073465031495
 20
136.521567146412508
 30
0.0
 11
970.6861073465031495
 21
134.8050836819124925
 31
0.0
  0
ARC
  5
B53A
  8
0
 10
970.7766734882031869
 20
134.8168836819124863
 30
0.0
 40
0.0197
 50
179.9999999999951115
 51
270.0000000000130171
  0
ARC
  5
B53B
  8
0
 10
970.7766734882031869
 20
136.5097671464125142
 30
0.0
 40
0.0197
 50
89.9999999999869686
 51
180.0000000000032117
  0
ARC
  5
B53C
  8
0
 10
970.6782073465030862
 20
136.521567146412508
 30
0.0
 40
0.0079
 50
0.0000000000065138
 51
89.9999999999739515
  0
ARC
  5
B53D
  8
0
 10
970.6782073465030862
 20
134.8050836819124925
 30
0.0
 40
0.0079
 50
270.0000000000521254
 51
359.9999999999869829
  0
LINE
  5
B53E
  8
0
 10
969.1505710526090525
 20
134.8312295130336906
 30
0.0
 11
969.1406450053860908
 21
134.9035952501320139
 31
0.0
  0
ARC
  5
B53F
  8
0
 10
969.1896055613879071
 20
134.8365836819124866
 30
0.0
 40
0.0394
 50
187.8102384221849093
 51
270.0
  0
ARC
  5
B540
  8
0
 10
974.0470339825858446
 20
135.5955518971994991
 30
0.0
 40
5.0544969055134912
 50
183.8638130226788974
 51
186.8883771881494908
  0
ARC
  5
B541
  8
0
 10
968.8264031751757557
 20
135.241866979029794
 30
0.0
 40
0.1781040387000611
 50
4.2138148729117759
 51
126.0084734423447941
  0
LINE
  5
B542
  8
0
 10
969.1505710526090525
 20
136.4954213152913098
 30
0.0
 11
969.1406450053860908
 21
136.4230555781929866
 31
0.0
  0
ARC
  5
B543
  8
0
 10
969.1896055613879071
 20
136.4900671464125139
 30
0.0
 40
0.0394
 50
90.0
 51
172.1897615778150055
  0
ARC
  5
B544
  8
0
 10
974.0470339825853898
 20
135.7310989311255867
 30
0.0
 40
5.0544969055132061
 50
173.1116228118488038
 51
176.1361869773209889
  0
ARC
  5
B545
  8
0
 10
968.8275677045223802
 20
136.083933553979989
 30
0.0
 40
0.1768818219472748
 50
233.2338197598394913
 51
356.0331527529763775
  0
LINE
  5
B546
  8
0
 10
969.1505710526090525
 20
136.4954213152913098
 30
0.0
 11
969.1505710526090525
 21
134.8312295130336906
 31
0.0
  0
LINE
  5
B547
  8
0
 10
970.7569734882032435
 20
134.9448214771124981
 30
0.0
 11
970.6861073465031495
 21
134.9448214771124981
 31
0.0
  0
LINE
  5
B548
  8
0
 10
970.7569734882032435
 20
136.3818293512125024
 30
0.0
 11
970.6861073465031495
 21
136.3818293512125024
 31
0.0
  0
LINE
  5
B549
  8
0
 10
969.0040257611515244
 20
135.2549538255759103
 30
0.0
 11
969.0040257611515244
 21
136.0716970027465038
 31
0.0
  0
LINE
  5
B54A
  8
0
 10
972.2163351322253675
 20
132.1244885279249104
 30
0.0
 11
972.0854723360256457
 21
132.1287652374068955
 31
0.0
  0
ARC
  5
B54B
  8
0
 10
972.2165931733031812
 20
132.1323843125472024
 30
0.0
 40
0.0079
 50
268.1281905171077256
 51
359.9999999999805027
  0
ARC
  5
B54C
  8
0
 10
972.0788238820032348
 20
132.1329840266124904
 30
0.0
 40
0.0078740157000063
 50
268.0000000236688038
 51
327.6027525230799142
  0
LINE
  5
B54D
  8
0
 10
968.2405270737924639
 20
136.002077560912511
 30
0.0
 11
968.6434702315145842
 21
136.002077560912511
 31
0.0
  0
LINE
  5
B54E
  8
0
 10
968.2648332982531656
 20
136.0141831026124919
 30
0.0
 11
968.2648332982531656
 21
136.002077560912511
 31
0.0
  0
LINE
  5
B54F
  8
0
 10
968.2648332982531656
 20
136.0141831026124919
 30
0.0
 11
968.2653958393531184
 21
136.0162111572124957
 31
0.0
  0
ARC
  5
B550
  8
0
 10
968.3096994117724989
 20
136.1061023724232086
 30
0.0
 40
0.0652334406171563
 50
194.9706856657645062
 51
221.2904713425899956
  0
ARC
  5
B551
  8
0
 10
968.2928809856454109
 20
136.101605110099797
 30
0.0
 40
0.0478241090447055
 50
159.8391468389486931
 51
194.9706856657645062
  0
ARC
  5
B552
  8
0
 10
968.3164291063364999
 20
136.0929593511201006
 30
0.0
 40
0.0729092268721956
 50
131.6103454968205142
 51
159.8391468389486931
  0
ARC
  5
B553
  8
0
 10
968.3772383774454511
 20
136.0244931247844988
 30
0.0
 40
0.164481010743773
 50
111.5053738765653009
 51
131.6103454968205142
  0
ARC
  5
B554
  8
0
 10
968.4326748368781637
 20
135.8837981732849869
 30
0.0
 40
0.3157035963977893
 50
92.8061030891706054
 51
111.5053738765653009
  0
ARC
  5
B555
  8
0
 10
968.231697987322832
 20
136.0364817162981979
 30
0.0
 40
0.0393248114695201
 50
328.9714669618844027
 51
42.5141704378181231
  0
LINE
  5
B556
  8
0
 10
968.6191640069531559
 20
136.0141831026124919
 30
0.0
 11
968.6191640069531559
 21
136.002077560912511
 31
0.0
  0
LINE
  5
B557
  8
0
 10
968.6191640069531559
 20
136.0141831026124919
 30
0.0
 11
968.6186014658530894
 21
136.0162111572124957
 31
0.0
  0
ARC
  5
B558
  8
0
 10
968.5742978934339362
 20
136.1061023724232086
 30
0.0
 40
0.0652334406171563
 50
318.7095286574099759
 51
345.0293143342354938
  0
ARC
  5
B559
  8
0
 10
968.5911163195607969
 20
136.101605110099797
 30
0.0
 40
0.0478241090447055
 50
345.0293143342354938
 51
20.1608531610512109
  0
ARC
  5
B55A
  8
0
 10
968.5675681988698216
 20
136.0929593511201006
 30
0.0
 40
0.0729092268721956
 50
20.1608531610512109
 51
48.3896545031794574
  0
ARC
  5
B55B
  8
0
 10
968.5067589277608704
 20
136.0244931247844988
 30
0.0
 40
0.164481010743773
 50
48.3896545031794574
 51
68.4946261234346991
  0
ARC
  5
B55C
  8
0
 10
968.4513224683281578
 20
135.8837981732849869
 30
0.0
 40
0.3157035963977893
 50
68.4946261234346991
 51
87.1938969108293946
  0
ARC
  5
B55D
  8
0
 10
968.6522993178837169
 20
136.0364817162981979
 30
0.0
 40
0.0393248114695201
 50
137.4858295621820048
 51
211.028533038115512
  0
ARC
  5
B55E
  8
0
 10
968.4419986526031607
 20
135.7897055006054927
 30
0.0
 40
0.4101669037070527
 50
86.5364756446616923
 51
93.4635243553383219
  0
LINE
  5
B55F
  8
0
 10
968.2648332982531656
 20
136.0141831026124919
 30
0.0
 11
968.6191640069531559
 21
136.0141831026124919
 31
0.0
  0
LINE
  5
B560
  8
0
 10
968.6186014658530894
 20
136.0162111572124957
 30
0.0
 11
968.2653958393531184
 21
136.0162111572124957
 31
0.0
  0
ARC
  5
B561
  8
0
 10
1027.1801786811770398
 20
131.1548930863802127
 30
0.0
 40
59.0551187936084432
 50
175.9475998513987918
 51
178.1192696669612872
  0
ARC
  5
B562
  8
0
 10
909.7038186240290543
 20
131.1548930863802127
 30
0.0
 40
59.0551187936084432
 50
1.880730333038684
 51
4.0524001486012118
  0
LINE
  5
B563
  8
0
 10
968.6434702315145842
 20
135.3282457974125066
 30
0.0
 11
968.2405270737924639
 21
135.3282457974125066
 31
0.0
  0
ARC
  5
B564
  8
0
 10
968.4419986526031607
 20
133.0836629094318084
 30
0.0
 40
0.2852800487257181
 50
178.1192696669612872
 51
1.880730333038684
  0
ARC
  5
B565
  8
0
 10
968.441998652653524
 20
135.6651616791625088
 30
0.0
 40
0.3937007873663543
 50
121.4810550254062065
 51
238.5189449745938077
  0
ARC
  5
B566
  8
0
 10
968.2405270737924639
 20
135.9941775609125045
 30
0.0
 40
0.0079
 50
90.0
 51
121.4810550253989021
  0
ARC
  5
B567
  8
0
 10
968.2405270737924639
 20
135.336145797412513
 30
0.0
 40
0.0079
 50
238.5189449746009132
 51
270.0
  0
ARC
  5
B568
  8
0
 10
968.3783618946267779
 20
135.7591341910489007
 30
0.0
 40
0.5071005516689101
 50
302.068173034054098
 51
312.6136421798292986
  0
ARC
  5
B569
  8
0
 10
968.441998652653524
 20
135.6651616791625088
 30
0.0
 40
0.3937007873663543
 50
44.730204397204993
 51
58.5189449745929124
  0
ARC
  5
B56A
  8
0
 10
968.6434702315145842
 20
135.9941775609125045
 30
0.0
 40
0.0079
 50
58.5189449745929124
 51
90.0
  0
ARC
  5
B56B
  8
0
 10
968.6434702315145842
 20
135.336145797412513
 30
0.0
 40
0.0079
 50
270.0
 51
301.4810550254061923
  0
LINE
  5
B56D
  8
0
 10
969.0681375910768338
 20
136.371986831511208
 30
0.0
 11
969.082093242217752
 21
136.371986831511208
 31
0.0
  0
ARC
  5
B56E
  8
0
 10
969.0681375910768338
 20
136.3325868315112075
 30
0.0
 40
0.0394
 50
89.9999999999934914
 51
173.1116228118536924
  0
LINE
  5
B56F
  8
0
 10
969.0681375910768338
 20
134.9546639968137924
 30
0.0
 11
969.082093242217752
 21
134.9546639968137924
 31
0.0
  0
ARC
  5
B570
  8
0
 10
969.0681375910768338
 20
134.994063996813793
 30
0.0
 40
0.0394
 50
186.8883771881544078
 51
270.0
  0
ARC
  5
B571
  8
0
 10
969.082093242217752
 20
134.8955639968137916
 30
0.0
 40
0.0591
 50
7.8102384221864849
 51
90.0
  0
ARC
  5
B572
  8
0
 10
969.082093242217752
 20
136.4310868315112089
 30
0.0
 40
0.0591
 50
270.0
 51
352.189761577814977
  0
LINE
  5
B573
  8
0
 10
969.029021992411117
 20
134.9893385401134083
 30
0.0
 11
969.029021992411117
 21
136.3373122882115922
 31
0.0
  0
ENDSEC
  0
EOF
