  0
SECTION
  2
HEADER
  9
$ACADVER
  1
AC1009
  9
$INSBASE
 10
977.7499053679447343
 20
134.7524278405275879
 30
0.0
  9
$EXTMIN
 10
974.1452017356054967
 20
130.574538261349204
 30
-0.0000000000000058
  9
$EXTMAX
 10
981.3475607621217023
 20
134.7528903858002991
 30
0.0000000000000104
  9
$LIMMIN
 10
0.0
 20
0.0
  9
$LIMMAX
 10
11.6929133858000007
 20
8.2677165353999982
  9
$ORTHOMODE
 70
     0
  9
$REGENMODE
 70
     1
  9
$FILLMODE
 70
     1
  9
$QTEXTMODE
 70
     0
  9
$MIRRTEXT
 70
     0
  9
$DRAGMODE
 70
     2
  9
$LTSCALE
 40
0.6431102362
  9
$OSMODE
 70
  4095
  9
$ATTMODE
 70
     1
  9
$TEXTSIZE
 40
0.2
  9
$TRACEWID
 40
0.05
  9
$TEXTSTYLE
  7
STANDARD
  9
$CLAYER
  8
0
  9
$CELTYPE
  6
BYLAYER
  9
$CECOLOR
 62
   256
  9
$DIMSCALE
 40
1.0
  9
$DIMASZ
 40
0.1875
  9
$DIMEXO
 40
0.0625
  9
$DIMDLI
 40
0.4443307087
  9
$DIMRND
 40
0.0
  9
$DIMDLE
 40
0.0
  9
$DIMEXE
 40
0.125
  9
$DIMTP
 40
0.01
  9
$DIMTM
 40
0.01
  9
$DIMTXT
 40
1.0
  9
$DIMCEN
 40
0.1052362205
  9
$DIMTSZ
 40
0.0
  9
$DIMTOL
 70
     1
  9
$DIMLIM
 70
     0
  9
$DIMTIH
 70
     0
  9
$DIMTOH
 70
     1
  9
$DIMSE1
 70
     0
  9
$DIMSE2
 70
     0
  9
$DIMTAD
 70
     0
  9
$DIMZIN
 70
     0
  9
$DIMBLK
  1

  9
$DIMASO
 70
     1
  9
$DIMSHO
 70
     1
  9
$DIMPOST
  1
\X
  9
$DIMAPOST
  1

  9
$DIMALT
 70
     1
  9
$DIMALTD
 70
     2
  9
$DIMALTF
 40
25.3999999999999986
  9
$DIMLFAC
 40
1.0
  9
$DIMTOFL
 70
     0
  9
$DIMTVP
 40
0.0
  9
$DIMTIX
 70
     0
  9
$DIMSOXD
 70
     0
  9
$DIMSAH
 70
     0
  9
$DIMBLK1
  1

  9
$DIMBLK2
  1

  9
$DIMSTYLE
  2
STANDARD
  9
$DIMCLRD
 70
     0
  9
$DIMCLRE
 70
     0
  9
$DIMCLRT
 70
     0
  9
$DIMTFAC
 40
1.0
  9
$DIMGAP
 40
0.09
  9
$LUNITS
 70
     2
  9
$LUPREC
 70
     4
  9
$SKETCHINC
 40
0.1
  9
$FILLETRAD
 40
0.0
  9
$AUNITS
 70
     0
  9
$AUPREC
 70
     0
  9
$MENU
  1
.
  9
$ELEVATION
 40
0.0
  9
$PELEVATION
 40
0.0
  9
$THICKNESS
 40
0.0
  9
$LIMCHECK
 70
     0
  9
$BLIPMODE
 70
     0
  9
$CHAMFERA
 40
0.0
  9
$CHAMFERB
 40
0.0
  9
$SKPOLY
 70
     0
  9
$TDCREATE
 40
2458172.5207638889551163
  9
$TDUPDATE
 40
2459130.517118054907769
  9
$TDINDWG
 40
0.4441442361
  9
$TDUSRTIMER
 40
0.4441442361
  9
$USRTIMER
 70
     1
  9
$ANGBASE
 50
0.0
  9
$ANGDIR
 70
     0
  9
$PDMODE
 70
     0
  9
$PDSIZE
 40
0.3125
  9
$PLINEWID
 40
0.0
  9
$COORDS
 70
     1
  9
$SPLFRAME
 70
     0
  9
$SPLINETYPE
 70
     6
  9
$SPLINESEGS
 70
     8
  9
$ATTDIA
 70
     1
  9
$ATTREQ
 70
     1
  9
$HANDLING
 70
     1
  9
$HANDSEED
  5
B765
  9
$SURFTAB1
 70
     6
  9
$SURFTAB2
 70
     6
  9
$SURFTYPE
 70
     6
  9
$SURFU
 70
     6
  9
$SURFV
 70
     6
  9
$UCSNAME
  2

  9
$UCSORG
 10
0.0
 20
0.0
 30
0.0
  9
$UCSXDIR
 10
1.0
 20
0.0
 30
0.0
  9
$UCSYDIR
 10
0.0
 20
1.0
 30
0.0
  9
$PUCSNAME
  2

  9
$PUCSORG
 10
0.0
 20
0.0
 30
0.0
  9
$PUCSXDIR
 10
1.0
 20
0.0
 30
0.0
  9
$PUCSYDIR
 10
0.0
 20
1.0
 30
0.0
  9
$USERI1
 70
     0
  9
$USERI2
 70
     0
  9
$USERI3
 70
     0
  9
$USERI4
 70
     0
  9
$USERI5
 70
     0
  9
$USERR1
 40
0.0
  9
$USERR2
 40
0.0
  9
$USERR3
 40
0.0
  9
$USERR4
 40
0.0
  9
$USERR5
 40
0.0
  9
$WORLDVIEW
 70
     1
  9
$SHADEDGE
 70
     3
  9
$SHADEDIF
 70
    70
  9
$TILEMODE
 70
     1
  9
$MAXACTVP
 70
    64
  9
$PLIMCHECK
 70
     0
  9
$PEXTMIN
 10
1.0000000000000000E+20
 20
1.0000000000000000E+20
 30
1.0000000000000000E+20
  9
$PEXTMAX
 10
-1.0000000000000000E+20
 20
-1.0000000000000000E+20
 30
-1.0000000000000000E+20
  9
$PLIMMIN
 10
0.0
 20
0.0
  9
$PLIMMAX
 10
12.0
 20
9.0
  9
$UNITMODE
 70
     0
  9
$VISRETAIN
 70
     1
  9
$PLINEGEN
 70
     0
  9
$PSLTSCALE
 70
     1
  0
ENDSEC
  0
SECTION
  2
TABLES
  0
TABLE
  2
VPORT
 70
     1
  0
VPORT
  2
*ACTIVE
 70
     0
 10
0.0
 20
0.0
 11
1.0
 21
1.0
 12
511.0041795410334089
 22
43.5305672036449778
 13
0.0
 23
0.0
 14
1.0
 24
1.0
 15
0.0
 25
0.0
 16
0.0
 26
0.0
 36
24.1179433675886514
 17
466.74220170783002
 27
89.133147119929788
 37
0.0
 40
4.2260139357565967
 41
2.5847619047619039
 42
50.0
 43
0.0
 44
0.0
 50
0.0
 51
0.0
 71
     0
 72
   100
 73
     1
 74
     1
 75
     0
 76
     0
 77
     0
 78
     0
  0
ENDTAB
  0
TABLE
  2
LTYPE
 70
     2
  0
LTYPE
  2
CONTINUOUS
 70
     0
  3
Solid line
 72
    65
 73
     0
 40
0.0
  0
LTYPE
  2
PHANTOM2
 70
     0
  3
___ _ _ ___ _ _ ___ _ _ ___ _ _
 72
    65
 73
     6
 40
1.25
 49
0.625
 49
-0.125
 49
0.125
 49
-0.125
 49
0.125
 49
-0.125
  0
ENDTAB
  0
TABLE
  2
LAYER
 70
     2
  0
LAYER
  2
0
 70
     0
 62
   255
  6
CONTINUOUS
  0
LAYER
  2
DEFPOINTS
 70
     0
 62
     7
  6
CONTINUOUS
  0
ENDTAB
  0
TABLE
  2
STYLE
 70
     1
  0
STYLE
  2
STANDARD
 70
     0
 40
0.0
 41
0.8
 50
0.0
 71
     0
 42
0.2
  3
txt
  4

  0
ENDTAB
  0
TABLE
  2
VIEW
 70
     0
  0
ENDTAB
  0
TABLE
  2
UCS
 70
     0
  0
ENDTAB
  0
TABLE
  2
APPID
 70
    11
  0
APPID
  2
ACAD
 70
     0
  0
APPID
  2
ACAD_MLEADERVER
 70
     0
  0
APPID
  2
ACAD_EXEMPT_FROM_CAD_STANDARDS
 70
     0
  0
APPID
  2
ACAD_DSTYLE_DIMJAG
 70
     0
  0
APPID
  2
ACAD_DSTYLE_DIMTALN
 70
     0
  0
APPID
  2
ACAD_NAV_VCDISPLAY
 70
     0
  0
APPID
  2
ACAECLAYERSTANDARD
 70
     0
  0
APPID
  2
ACCMTRANSPARENCY
 70
     0
  0
APPID
  2
DCO15
 70
     0
  0
APPID
  2
ACDBATTR
 70
     0
  0
APPID
  2
ACADANNOTATIVE
 70
     0
  0
ENDTAB
  0
TABLE
  2
DIMSTYLE
 70
     1
  0
DIMSTYLE
  2
STANDARD
 70
     0
  3

  4

  5

  6

  7

 40
1.0
 41
0.1875
 42
0.0625
 43
0.38
 44
0.125
 45
0.0
 46
0.0
 47
0.01
 48
0.01
140
0.15625
141
0.09
142
0.0
143
25.3999999999999986
144
1.0
145
0.0
146
1.0
147
0.09
 71
     1
 72
     0
 73
     1
 74
     1
 75
     0
 76
     0
 77
     0
 78
     4
170
     0
171
     2
172
     0
173
     0
174
     0
175
     0
176
     0
177
     0
178
     0
  0
ENDTAB
  0
ENDSEC
  0
SECTION
  2
BLOCKS
  0
BLOCK
  8
0
  2
$MODEL_SPACE
 70
     0
 10
0.0
 20
0.0
 30
0.0
  3
$MODEL_SPACE
  1

  0
ENDBLK
  5
21
  8
0
  0
BLOCK
 67
     1
  8
0
  2
$PAPER_SPACE
 70
     0
 10
0.0
 20
0.0
 30
0.0
  3
$PAPER_SPACE
  1

  0
ENDBLK
  5
1D
 67
     1
  8
0
  0
ENDSEC
  0
SECTION
  2
ENTITIES
  0
ATTDEF
  5
829
  8
DEFPOINTS
 10
977.7457647661613009
 20
134.7501378181343057
 30
0.0
 40
0.001
  1
K-99955T-4
  3

  2
MODELNUMBER
 70
     0
1001
ACDBATTR
1070
     0
1070
     1
  0
ATTDEF
  5
82A
  8
DEFPOINTS
 10
977.7457647661613009
 20
134.7484711514676121
 30
0.0
 40
0.001
  1
MODULO
  3

  2
TRADENAME
 70
     0
1001
ACDBATTR
1070
     0
1070
     1
  0
ATTDEF
  5
82B
  8
DEFPOINTS
 10
977.7457647661613009
 20
134.7468044848010038
 30
0.0
 40
0.001
  1
VALVE TRIM
  3

  2
PRODUCT
 70
     0
1001
ACDBATTR
1070
     0
1070
     1
  0
LINE
  5
B632
  8
0
 10
974.2147789707868242
 20
134.7524278405275879
 30
0.0
 11
981.2850317650016905
 21
134.7524278405275879
 31
0.0
  0
LINE
  5
B633
  8
0
 10
981.1654162758427447
 20
134.3587270531276943
 30
0.0
 11
974.3343944600463828
 21
134.3587270531276943
 31
0.0
  0
LINE
  5
B634
  8
0
 10
974.5954560854627289
 20
134.1618766594276906
 30
0.0
 11
980.9043546504326514
 21
134.1618766594276906
 31
0.0
  0
LINE
  5
B635
  8
0
 10
974.2163664033753321
 20
134.4727054225720906
 30
0.0
 11
974.2068837832532608
 21
134.744252134503995
 31
0.0
  0
LINE
  5
B636
  8
0
 10
981.283444332515387
 20
134.4727054226158884
 30
0.0
 11
981.2929269525352538
 21
134.7442521345070077
 31
0.0
  0
ARC
  5
B637
  8
0
 10
981.1654162758427447
 20
134.4768270531276926
 30
0.0
 40
0.1181
 50
270.0
 51
358.0000000236735787
  0
ARC
  5
B638
  8
0
 10
974.3343944600463828
 20
134.4768270531276926
 30
0.0
 40
0.1181
 50
181.9999999975530898
 51
270.0
  0
ARC
  5
B639
  8
0
 10
974.379826627779039
 20
134.2603018562091108
 30
0.0
 40
0.0984251969232544
 50
5.2134359387482103
 51
90.0
  0
ARC
  5
B63A
  8
0
 10
981.1199841080947408
 20
134.2603018562276986
 30
0.0
 40
0.0984251968999965
 50
90.0
 51
174.7865640656243045
  0
ARC
  5
B63B
  8
0
 10
974.5954560854627289
 20
134.2799766594276889
 30
0.0
 40
0.1181
 50
185.2134359387731024
 51
269.9999999999869829
  0
ARC
  5
B63C
  8
0
 10
980.9043546504326514
 20
134.2799766594276036
 30
0.0
 40
0.1181
 50
269.9999999999935199
 51
354.7865640656356732
  0
ARC
  5
B63D
  8
0
 10
974.2147789707868242
 20
134.7445278405276952
 30
0.0
 40
0.0079
 50
89.9999999999739515
 51
181.999999997557893
  0
ARC
  5
B63E
  8
0
 10
981.2850317650016905
 20
134.7445278405276952
 30
0.0
 40
0.0079
 50
358.000000023675284
 51
89.9999999999869686
  0
LINE
  5
B63F
  8
0
 10
978.6160471001944643
 20
133.3046081554277009
 30
0.0
 11
978.6160471001944643
 21
134.1618766594276906
 31
0.0
  0
LINE
  5
B640
  8
0
 10
978.6160471001944643
 20
133.2061420137277139
 30
0.0
 11
978.6160471001944643
 21
131.7175402286125063
 31
0.0
  0
LINE
  5
B641
  8
0
 10
976.8837636356946632
 20
133.3046081554277009
 30
0.0
 11
976.8837636356946632
 21
134.1618766594276906
 31
0.0
  0
LINE
  5
B642
  8
0
 10
976.8837636356946632
 20
133.2061420137277139
 30
0.0
 11
976.8837636356946632
 21
131.7175402286125063
 31
0.0
  0
LINE
  5
B643
  8
0
 10
978.5963471001947482
 20
133.2849081554277006
 30
0.0
 11
976.9034636356947203
 21
133.2849081554277006
 31
0.0
  0
LINE
  5
B644
  8
0
 10
976.8916636356946128
 20
133.2140420137276919
 30
0.0
 11
978.6081471001946284
 21
133.2140420137276919
 31
0.0
  0
ARC
  5
B645
  8
0
 10
978.5963471001947482
 20
133.3046081554277009
 30
0.0
 40
0.0197
 50
269.9999999999935199
 51
0.0000000000097707
  0
ARC
  5
B646
  8
0
 10
976.9034636356947203
 20
133.3046081554277009
 30
0.0
 40
0.0197
 50
179.9999999999901945
 51
270.0
  0
ARC
  5
B647
  8
0
 10
976.8916636356946128
 20
133.2061420137277139
 30
0.0
 40
0.0079
 50
90.0000000000065086
 51
179.9999999999739089
  0
ARC
  5
B648
  8
0
 10
978.6081471001946284
 20
133.2061420137277139
 30
0.0
 40
0.0079
 50
0.0000000000521102
 51
89.9999999999869686
  0
LINE
  5
B649
  8
0
 10
978.5820012690734302
 20
131.6785057198335096
 30
0.0
 11
978.5077992669750984
 21
131.6683278012991991
 31
0.0
  0
ARC
  5
B64A
  8
0
 10
978.5766471001944637
 20
131.7175402286125063
 30
0.0
 40
0.0394
 50
277.810238422181726
 51
359.9999999999968168
  0
ARC
  5
B64B
  8
0
 10
977.8176788849076502
 20
136.574968649810188
 30
0.0
 40
5.0544969055134912
 50
273.8638130226806879
 51
276.8672464224238752
  0
ARC
  5
B64C
  8
0
 10
978.1705135077621662
 20
131.3555023717468941
 30
0.0
 40
0.1768818219472748
 50
93.9668472470237646
 51
222.6414841119855907
  0
ARC
  5
B64D
  8
0
 10
977.7499053679447343
 20
130.9699475255227981
 30
0.0
 40
0.3937007873663546
 50
137.5487057413282912
 51
42.4512942586705222
  0
LINE
  5
B64E
  8
0
 10
976.9178094668156973
 20
131.6785057198335096
 30
0.0
 11
976.9920114689140291
 21
131.6683278012991991
 31
0.0
  0
ARC
  5
B64F
  8
0
 10
976.9231636356946638
 20
131.7175402286125063
 30
0.0
 40
0.0394
 50
180.0000000000032117
 51
262.189761577818274
  0
ARC
  5
B650
  8
0
 10
977.6821318509814773
 20
136.5749686498099891
 30
0.0
 40
5.0544969055132061
 50
263.1327535775761248
 51
266.1361869773194258
  0
ARC
  5
B651
  8
0
 10
977.3292972281269613
 20
131.3555023717468941
 30
0.0
 40
0.1768818219472748
 50
317.3585158880143808
 51
86.0331527529762354
  0
LINE
  5
B652
  8
0
 10
976.9178094668156973
 20
131.6785057198335096
 30
0.0
 11
978.5820012690734302
 21
131.6785057198335096
 31
0.0
  0
LINE
  5
B653
  8
0
 10
978.4684093049945659
 20
133.2849081554277006
 30
0.0
 11
978.4684093049945659
 21
133.2140420137276919
 31
0.0
  0
LINE
  5
B654
  8
0
 10
977.0314014308946753
 20
133.2849081554277006
 30
0.0
 11
977.0314014308946753
 21
133.2140420137276919
 31
0.0
  0
LINE
  5
B655
  8
0
 10
977.3415337793603612
 20
131.53196042837601
 30
0.0
 11
978.1582769565287663
 21
131.53196042837601
 31
0.0
  0
CIRCLE
  5
B656
  8
0
 10
977.7499053678941436
 20
130.9699475255227981
 30
0.0
 40
0.1969417760024425
  0
LINE
  5
B658
  8
0
 10
978.4567305202933767
 20
131.5958507673063025
 30
0.0
 11
978.4567305202933767
 21
131.6097760381306898
 31
0.0
  0
LINE
  5
B659
  8
0
 10
977.0430802155959782
 20
131.6097760381306898
 30
0.0
 11
977.0430802155959782
 21
131.5958507673063025
 31
0.0
  0
ARC
  5
B65A
  8
0
 10
978.4173305202933761
 20
131.5958507673063025
 30
0.0
 40
0.0394
 50
276.8672464224175087
 51
0.0000000000081422
  0
ARC
  5
B65B
  8
0
 10
978.5158305202934343
 20
131.6097760381306898
 30
0.0
 40
0.0591
 50
97.8102384221881636
 51
180.0
  0
ARC
  5
B65C
  8
0
 10
976.9839802155958068
 20
131.6097760381306898
 30
0.0
 40
0.0591
 50
0.0000000000032569
 51
82.1897615778182882
  0
ARC
  5
B65D
  8
0
 10
977.0824802155959787
 20
131.5958507673063025
 30
0.0
 40
0.0394
 50
180.0
 51
263.1327535775761248
  0
LINE
  5
B65E
  8
0
 10
978.4220415507836606
 20
131.5567334285456127
 30
0.0
 11
977.0777691851054669
 21
131.556733428545698
 31
0.0
  0
ENDSEC
  0
EOF
