  0
SECTION
  2
HEADER
  9
$ACADVER
  1
AC1009
  9
$INSBASE
 10
4217.8079095692392002
 20
54.3933483268826521
 30
0.0
  9
$EXTMIN
 10
4213.5579996721262432
 20
51.9355060600029006
 30
-0.0015258207003583
  9
$EXTMAX
 10
4221.9325443334901138
 20
54.4007989998390968
 30
0.0000000349246037
  9
$LIMMIN
 10
0.0
 20
0.0
  9
$LIMMAX
 10
11.6929133858000007
 20
8.2677165353999982
  9
$ORTHOMODE
 70
     0
  9
$REGENMODE
 70
     1
  9
$FILLMODE
 70
     1
  9
$QTEXTMODE
 70
     0
  9
$MIRRTEXT
 70
     0
  9
$DRAGMODE
 70
     2
  9
$LTSCALE
 40
0.6431102362
  9
$OSMODE
 70
  4095
  9
$ATTMODE
 70
     1
  9
$TEXTSIZE
 40
0.2
  9
$TRACEWID
 40
0.05
  9
$TEXTSTYLE
  7
STANDARD
  9
$CLAYER
  8
0
  9
$CELTYPE
  6
BYLAYER
  9
$CECOLOR
 62
   256
  9
$DIMSCALE
 40
1.0
  9
$DIMASZ
 40
0.1875
  9
$DIMEXO
 40
0.0625
  9
$DIMDLI
 40
0.4443307087
  9
$DIMRND
 40
0.0
  9
$DIMDLE
 40
0.0
  9
$DIMEXE
 40
0.125
  9
$DIMTP
 40
0.01
  9
$DIMTM
 40
0.01
  9
$DIMTXT
 40
2.0
  9
$DIMCEN
 40
0.1052362205
  9
$DIMTSZ
 40
0.0
  9
$DIMTOL
 70
     1
  9
$DIMLIM
 70
     0
  9
$DIMTIH
 70
     1
  9
$DIMTOH
 70
     1
  9
$DIMSE1
 70
     0
  9
$DIMSE2
 70
     0
  9
$DIMTAD
 70
     0
  9
$DIMZIN
 70
     0
  9
$DIMBLK
  1

  9
$DIMASO
 70
     1
  9
$DIMSHO
 70
     1
  9
$DIMPOST
  1
\X
  9
$DIMAPOST
  1

  9
$DIMALT
 70
     1
  9
$DIMALTD
 70
     2
  9
$DIMALTF
 40
25.3999999999999986
  9
$DIMLFAC
 40
1.0
  9
$DIMTOFL
 70
     0
  9
$DIMTVP
 40
0.0
  9
$DIMTIX
 70
     0
  9
$DIMSOXD
 70
     0
  9
$DIMSAH
 70
     0
  9
$DIMBLK1
  1

  9
$DIMBLK2
  1

  9
$DIMSTYLE
  2
STANDARD
  9
$DIMCLRD
 70
     0
  9
$DIMCLRE
 70
     0
  9
$DIMCLRT
 70
     0
  9
$DIMTFAC
 40
1.0
  9
$DIMGAP
 40
0.09
  9
$LUNITS
 70
     2
  9
$LUPREC
 70
     4
  9
$SKETCHINC
 40
0.1
  9
$FILLETRAD
 40
0.0
  9
$AUNITS
 70
     0
  9
$AUPREC
 70
     0
  9
$MENU
  1
.
  9
$ELEVATION
 40
0.0
  9
$PELEVATION
 40
0.0
  9
$THICKNESS
 40
0.0
  9
$LIMCHECK
 70
     0
  9
$BLIPMODE
 70
     0
  9
$CHAMFERA
 40
0.0
  9
$CHAMFERB
 40
0.0
  9
$SKPOLY
 70
     0
  9
$TDCREATE
 40
2458060.468368056230247
  9
$TDUPDATE
 40
2459530.6183449071832001
  9
$TDINDWG
 40
0.4320788194
  9
$TDUSRTIMER
 40
0.4320788194
  9
$USRTIMER
 70
     1
  9
$ANGBASE
 50
0.0
  9
$ANGDIR
 70
     0
  9
$PDMODE
 70
     0
  9
$PDSIZE
 40
0.3125
  9
$PLINEWID
 40
0.0
  9
$COORDS
 70
     1
  9
$SPLFRAME
 70
     0
  9
$SPLINETYPE
 70
     6
  9
$SPLINESEGS
 70
     8
  9
$ATTDIA
 70
     1
  9
$ATTREQ
 70
     1
  9
$HANDLING
 70
     1
  9
$HANDSEED
  5
BBA8
  9
$SURFTAB1
 70
     6
  9
$SURFTAB2
 70
     6
  9
$SURFTYPE
 70
     6
  9
$SURFU
 70
     6
  9
$SURFV
 70
     6
  9
$UCSNAME
  2

  9
$UCSORG
 10
0.0
 20
0.0
 30
0.0
  9
$UCSXDIR
 10
1.0
 20
0.0
 30
0.0
  9
$UCSYDIR
 10
0.0
 20
1.0
 30
0.0
  9
$PUCSNAME
  2

  9
$PUCSORG
 10
0.0
 20
0.0
 30
0.0
  9
$PUCSXDIR
 10
1.0
 20
0.0
 30
0.0
  9
$PUCSYDIR
 10
0.0
 20
1.0
 30
0.0
  9
$USERI1
 70
     0
  9
$USERI2
 70
     0
  9
$USERI3
 70
     0
  9
$USERI4
 70
     0
  9
$USERI5
 70
     0
  9
$USERR1
 40
0.0
  9
$USERR2
 40
0.0
  9
$USERR3
 40
0.0
  9
$USERR4
 40
0.0
  9
$USERR5
 40
0.0
  9
$WORLDVIEW
 70
     1
  9
$SHADEDGE
 70
     3
  9
$SHADEDIF
 70
    70
  9
$TILEMODE
 70
     1
  9
$MAXACTVP
 70
    64
  9
$PLIMCHECK
 70
     0
  9
$PEXTMIN
 10
1.0000000000000000E+20
 20
1.0000000000000000E+20
 30
1.0000000000000000E+20
  9
$PEXTMAX
 10
-1.0000000000000000E+20
 20
-1.0000000000000000E+20
 30
-1.0000000000000000E+20
  9
$PLIMMIN
 10
0.0
 20
0.0
  9
$PLIMMAX
 10
12.0
 20
9.0
  9
$UNITMODE
 70
     0
  9
$VISRETAIN
 70
     1
  9
$PLINEGEN
 70
     0
  9
$PSLTSCALE
 70
     1
  0
ENDSEC
  0
SECTION
  2
TABLES
  0
TABLE
  2
VPORT
 70
     1
  0
VPORT
  2
*ACTIVE
 70
     0
 10
0.0
 20
0.0
 11
1.0
 21
1.0
 12
425.3873618465585764
 22
-67.0125039031844665
 13
0.0
 23
0.0
 14
1.0
 24
1.0
 15
0.0
 25
0.0
 16
0.0
 26
0.0
 36
5.1040778033513332
 17
3792.35791015625
 27
120.1806564331053977
 37
0.0
 40
3.0120898381553158
 41
2.7934065934065928
 42
50.0
 43
0.0
 44
0.0
 50
0.0
 51
0.0
 71
     0
 72
   100
 73
     1
 74
     1
 75
     0
 76
     0
 77
     0
 78
     0
  0
ENDTAB
  0
TABLE
  2
LTYPE
 70
     2
  0
LTYPE
  2
CONTINUOUS
 70
     0
  3
Solid line
 72
    65
 73
     0
 40
0.0
  0
LTYPE
  2
PHANTOM2
 70
     0
  3
___ _ _ ___ _ _ ___ _ _ ___ _ _
 72
    65
 73
     6
 40
1.25
 49
0.625
 49
-0.125
 49
0.125
 49
-0.125
 49
0.125
 49
-0.125
  0
ENDTAB
  0
TABLE
  2
LAYER
 70
     2
  0
LAYER
  2
0
 70
     0
 62
   255
  6
CONTINUOUS
  0
LAYER
  2
DEFPOINTS
 70
     0
 62
     7
  6
CONTINUOUS
  0
ENDTAB
  0
TABLE
  2
STYLE
 70
     1
  0
STYLE
  2
STANDARD
 70
     0
 40
0.0
 41
0.8
 50
0.0
 71
     0
 42
0.2
  3
txt
  4

  0
ENDTAB
  0
TABLE
  2
VIEW
 70
     0
  0
ENDTAB
  0
TABLE
  2
UCS
 70
     0
  0
ENDTAB
  0
TABLE
  2
APPID
 70
     9
  0
APPID
  2
ACAD
 70
     0
  0
APPID
  2
ACAD_MLEADERVER
 70
     0
  0
APPID
  2
ACAD_EXEMPT_FROM_CAD_STANDARDS
 70
     0
  0
APPID
  2
ACAD_NAV_VCDISPLAY
 70
     0
  0
APPID
  2
ACAECLAYERSTANDARD
 70
     0
  0
APPID
  2
ACCMTRANSPARENCY
 70
     0
  0
APPID
  2
ACAD_DSTYLE_DIMJAG
 70
     0
  0
APPID
  2
ACAD_DSTYLE_DIMTALN
 70
     0
  0
APPID
  2
ACDBATTR
 70
     0
  0
ENDTAB
  0
TABLE
  2
DIMSTYLE
 70
     1
  0
DIMSTYLE
  2
STANDARD
 70
     0
  3

  4

  5

  6

  7

 40
1.0
 41
0.1875
 42
0.0625
 43
0.38
 44
0.125
 45
0.0
 46
0.0
 47
0.01
 48
0.01
140
0.15625
141
0.09
142
0.0
143
25.3999999999999986
144
1.0
145
0.0
146
1.0
147
0.09
 71
     1
 72
     0
 73
     1
 74
     1
 75
     0
 76
     0
 77
     0
 78
     4
170
     0
171
     2
172
     0
173
     0
174
     0
175
     0
176
     0
177
     0
178
     0
  0
ENDTAB
  0
ENDSEC
  0
SECTION
  2
BLOCKS
  0
BLOCK
  8
0
  2
$MODEL_SPACE
 70
     0
 10
0.0
 20
0.0
 30
0.0
  3
$MODEL_SPACE
  1

  0
ENDBLK
  5
21
  8
0
  0
BLOCK
 67
     1
  8
0
  2
$PAPER_SPACE
 70
     0
 10
0.0
 20
0.0
 30
0.0
  3
$PAPER_SPACE
  1

  0
ENDBLK
  5
1D
 67
     1
  8
0
  0
BLOCK
  8
0
  2
_FILLED
 70
     0
 10
0.0
 20
0.0
 30
0.0
  3
_FILLED
  1

  0
SOLID
  5
69B4
  8
0
  6
BYBLOCK
 62
     0
 10
0.0
 20
0.0
 30
0.0
 11
-1.0
 21
0.1666666667
 31
0.0
 12
-1.0
 22
-0.1666666667
 32
0.0
 13
-1.0
 23
-0.1666666667
 33
0.0
  0
ENDBLK
  5
69B5
  8
0
  6
BYBLOCK
 62
     0
  0
BLOCK
  8
0
  2
A$CDFAF6206
 70
     0
 10
0.0
 20
0.0
 30
0.0
  3
A$CDFAF6206
  1

  0
LINE
  5
6A0E
  8
0
 10
7.4646650085734834
 20
10.9287685970688493
 30
0.0
 11
7.4646650085734896
 21
10.8905784766688498
 31
0.0
  0
ARC
  5
6A0F
  8
0
 10
7.7269027075262349
 20
10.8926811525838598
 30
0.0
 40
0.2622461286616791
 50
180.4593995232625048
 51
217.0214027758331099
  0
LINE
  5
6A10
  8
0
 10
9.767814609867095
 20
10.9287685970688493
 30
0.0
 11
9.767814609867095
 21
10.8905433757650094
 31
0.0
  0
ARC
  5
6A11
  8
0
 10
9.5068669568548287
 20
10.8922438613003703
 30
0.0
 40
0.2609531936261092
 50
322.8847083717149076
 51
359.6266329125650145
  0
LINE
  5
6A12
  8
0
 10
7.517522606271406
 20
10.7347792678688396
 30
0.0
 11
9.7149570120691777
 21
10.7347792678688396
 31
0.0
  0
LINE
  5
6A13
  8
0
 10
7.4646650085734834
 20
10.9287685970688493
 30
0.0
 11
9.7678146123202936
 21
10.9287685970688493
 31
0.0
  0
ARC
  5
6A14
  8
0
 10
4.0826771419203629
 20
8.527951346868889
 30
0.0
 40
4.0826771653999172
 50
13.3117747050523896
 51
32.7200330051415591
  0
ARC
  5
6A15
  8
0
 10
4.0826771460567306
 20
8.5279513475907933
 30
0.0
 40
4.0826771612084691
 50
359.6656501984817851
 51
13.3117747085593798
  0
ARC
  5
6A16
  8
0
 10
13.1498041284835097
 20
8.5279508235212234
 30
0.0
 40
4.0826788382043553
 50
147.2799733478981068
 51
166.6882233021349862
  0
ARC
  5
6A17
  8
0
 10
13.1498064934207992
 20
8.5279506557033251
 30
0.0
 40
4.0826811782395342
 50
166.688228652086309
 51
180.3343397625230011
  0
LINE
  5
6A18
  8
0
 10
8.1652847935202928
 20
8.504127000268852
 30
0.0
 11
9.0671948248202892
 21
8.5041270002687881
 31
0.0
  0
LINE
  5
6A19
  8
0
 10
8.1652847935202786
 20
8.5041270002667204
 30
0.0
 11
8.1652847935202928
 21
8.3607006934688481
 31
0.0
  0
ARC
  5
6A1A
  8
0
 10
5.6196779630382627
 20
8.3631022096452732
 30
0.0
 40
2.545607963272567
 50
342.0511668832173768
 51
359.945947387132378
  0
LINE
  5
6A1B
  8
0
 10
9.0671948248202892
 20
8.5041270002687881
 30
0.0
 11
9.0671948248202892
 21
8.2885990108688503
 31
0.0
  0
ARC
  5
6A1C
  8
0
 10
9.4521885297801163
 20
7.9614488056228501
 30
0.0
 40
0.5052201595850959
 50
139.6436242991769916
 51
174.6757930071850069
  0
ARC
  5
6A1D
  8
0
 10
9.9238413395551746
 20
8.1492417579399508
 30
0.0
 40
0.9848265662939324
 50
188.2263441834095943
 51
209.5593615864376034
  0
ARC
  5
6A1E
  8
0
 10
8.0788764238271256
 20
7.5665710856463297
 30
0.0
 40
0.0393715937169877
 50
162.1669117288323037
 51
227.2023190037006088
  0
ARC
  5
6A1F
  8
0
 10
8.7223682141740682
 20
8.2079667397440517
 30
0.0
 40
0.947895137885075
 50
225.0018610752970858
 51
261.4598823366255829
  0
ARC
  5
6A20
  8
0
 10
8.6645157662702701
 20
8.1695128573935332
 30
0.0
 40
0.9027466462812931
 50
264.7303071214498118
 51
281.8608311947915013
  0
ARC
  5
6A21
  8
0
 10
8.6645157662698935
 20
8.1695128573999671
 30
0.0
 40
0.9027466462876658
 50
299.1741886792128753
 51
299.1743179154552195
  0
ARC
  5
6A22
  8
0
 10
9.0843330931590316
 20
7.4150554710086141
 30
0.0
 40
0.0393703053609601
 50
251.9700352025496954
 51
252.4698971938937859
  0
ARC
  5
6A23
  8
0
 10
9.0843330931590316
 20
7.4150554710086141
 30
0.0
 40
0.0393703053609601
 50
297.2453716727138726
 51
6.8376113572703074
  0
LINE
  5
6A24
  8
0
 10
9.0671948248202892
 20
7.663402160468852
 30
0.0
 11
9.1234233799329516
 21
7.419742732911689
 31
0.0
  0
ARC
  5
6A25
  8
0
 10
8.8843741880892395
 20
9.8961379890094676
 30
0.0
 40
2.5255097382132701
 50
263.792800240752797
 51
274.9514951129821156
  0
ARC
  5
6A26
  8
0
 10
8.8258167405968848
 20
9.2763025889666508
 30
0.0
 40
1.9029970832759311
 50
246.0108363320686067
 51
263.5276935074397215
  0
ARC
  5
6A27
  8
0
 10
8.607491361665744
 20
8.3225444804829642
 30
0.0
 40
1.064510137163637
 50
283.1717405874071005
 51
297.7022170607311864
  0
LINE
  5
6A28
  8
0
 10
9.0671948248202892
 20
8.2885990108688503
 30
0.0
 11
26.2014378595979593
 21
8.2885990108689942
 31
0.0
  0
LINE
  5
6A29
  8
0
 10
26.2014378595979913
 20
7.6634021604689053
 30
0.0
 11
9.0671948248202892
 21
7.6634021604688618
 31
0.0
  0
LINE
  5
6A2A
  8
0
 10
27.8039676758446994
 20
10.9287685970690802
 30
0.0
 11
27.8039676758446888
 21
10.8905784766690807
 31
0.0
  0
ARC
  5
6A2B
  8
0
 10
27.5417299768919399
 20
10.8926811525840801
 30
0.0
 40
0.2622461286616791
 50
322.9785972241680838
 51
359.5406004767386889
  0
LINE
  5
6A2C
  8
0
 10
25.5008180745510913
 20
10.9287685970690305
 30
0.0
 11
25.5008180745510913
 21
10.8905433757651799
 31
0.0
  0
ARC
  5
6A2D
  8
0
 10
25.7617657275633505
 20
10.8922438613005497
 30
0.0
 40
0.2609531936261092
 50
180.3733670874362929
 51
217.1152916282862861
  0
LINE
  5
6A2E
  8
0
 10
27.7511100781467803
 20
10.7347792678690706
 30
0.0
 11
25.5536756723490015
 21
10.7347792678690208
 31
0.0
  0
LINE
  5
6A2F
  8
0
 10
27.8039676758446888
 20
10.9287685970686006
 30
0.0
 11
25.5008180745510806
 21
10.9287685970686006
 31
0.0
  0
ARC
  5
6A30
  8
0
 10
31.1859555424978616
 20
8.5279513468691981
 30
0.0
 40
4.0826771653999172
 50
147.2799669948597057
 51
166.6882252949490066
  0
ARC
  5
6A31
  8
0
 10
31.185955538361501
 20
8.5279513475911024
 30
0.0
 40
4.0826771612084691
 50
166.6882252914419098
 51
180.3343498015194086
  0
ARC
  5
6A32
  8
0
 10
22.1188285559344706
 20
8.5279508235212251
 30
0.0
 40
4.0826788382046102
 50
13.3117766978667795
 51
32.7200266521023977
  0
ARC
  5
6A33
  8
0
 10
22.1188261909974315
 20
8.5279506557034264
 30
0.0
 40
4.0826811782395342
 50
359.665660237478221
 51
13.31177134791497
  0
LINE
  5
6A34
  8
0
 10
27.1033478908979397
 20
8.5041270002690652
 30
0.0
 11
26.2014378595979416
 21
8.5041270002689835
 31
0.0
  0
LINE
  5
6A35
  8
0
 10
27.1033478908979504
 20
8.5041270002669354
 30
0.0
 11
27.1033478908979397
 21
8.3607006934690649
 31
0.0
  0
ARC
  5
6A36
  8
0
 10
29.6489547213799689
 20
8.3631022096455467
 30
0.0
 40
2.545607963272567
 50
180.0540526128687873
 51
197.9488331167837032
  0
LINE
  5
6A37
  8
0
 10
26.2014378595979416
 20
8.5041270002689835
 30
0.0
 11
26.2014378595979487
 21
8.2885990108690457
 31
0.0
  0
ARC
  5
6A38
  8
0
 10
25.8164441546381305
 20
7.9614488056230366
 30
0.0
 40
0.5052201595850959
 50
5.324206992816312
 51
40.3563757008241879
  0
ARC
  5
6A39
  8
0
 10
25.3447913448601803
 20
8.149241757940846
 30
0.0
 40
0.9848265662968968
 50
330.4406384136033807
 51
351.7736558165743759
  0
ARC
  5
6A3A
  8
0
 10
27.1897562605911212
 20
7.5665710856465473
 30
0.0
 40
0.0393715937169877
 50
312.7976809963004143
 51
17.8330882711689185
  0
ARC
  5
6A3B
  8
0
 10
26.5462644702441715
 20
8.2079667397442542
 30
0.0
 40
0.947895137885075
 50
278.5401176633754972
 51
314.9981389247041079
  0
ARC
  5
6A3C
  8
0
 10
26.6041169181479695
 20
8.1695128573937392
 30
0.0
 40
0.9027466462812931
 50
258.139168805210204
 51
275.2696928785518935
  0
ARC
  5
6A3D
  8
0
 10
26.6041169181483497
 20
8.1695128574001732
 30
0.0
 40
0.9027466462876658
 50
240.8256820845460027
 51
240.8258113207880058
  0
ARC
  5
6A3E
  8
0
 10
26.1842995912592293
 20
7.4150554710088086
 30
0.0
 40
0.0393703053609601
 50
287.5301028061073794
 51
288.0299647974517825
  0
ARC
  5
6A3F
  8
0
 10
26.1842995912592293
 20
7.4150554710088086
 30
0.0
 40
0.0393703053609601
 50
173.1623886427310026
 51
242.7546283272870085
  0
LINE
  5
6A40
  8
0
 10
26.2014378595981192
 20
7.6634021604690448
 30
0.0
 11
26.1452093044853093
 21
7.4197427329118826
 31
0.0
  0
ARC
  5
6A41
  8
0
 10
26.384258496328961
 20
9.8961379890096666
 30
0.0
 40
2.5255097382132701
 50
265.0485048870193054
 51
276.2071997592482262
  0
ARC
  5
6A42
  8
0
 10
26.4428159438213299
 20
9.2763025889668516
 30
0.0
 40
1.9029970832759311
 50
276.4723064925619838
 51
293.9891636679327007
  0
ARC
  5
6A43
  8
0
 10
26.6611413227524885
 20
8.3225444804831703
 30
0.0
 40
1.064510137163637
 50
242.2977829392704052
 51
256.8282594125943774
  0
LINE
  5
6A44
  8
0
 62
     4
 10
17.9031473532159602
 20
10.9287685970686006
 30
0.0
 11
24.6329820359843588
 21
20.0952817181593808
 31
0.0
  0
LINE
  5
6A45
  8
0
 62
     4
 10
17.9031473532159602
 20
-0.0000000300842942
 30
0.0
 11
22.3963351323106608
 21
4.993614497796286
 31
0.0
  0
ENDBLK
  5
6A49
  8
0
  0
ENDSEC
  0
SECTION
  2
ENTITIES
  0
ATTDEF
  5
3930
  8
DEFPOINTS
 10
4217.8089778333023787
 20
54.3981387432127832
 30
0.0
 40
0.001
  1
K-99945T-E
  3

  2
MODELNUMBER
 70
     0
1001
ACDBATTR
1070
     0
1070
     1
  0
ATTDEF
  5
3931
  8
DEFPOINTS
 10
4217.8089778333023787
 20
54.396472076546118
 30
0.0
 40
0.001
  1
CONTEMPORARY
  3

  2
TRADENAME
 70
     0
1001
ACDBATTR
1070
     0
1070
     1
  0
ATTDEF
  5
3932
  8
DEFPOINTS
 10
4217.8089778333023787
 20
54.3948054098794529
 30
0.0
 40
0.001
  1
SHOWERHEAD
  3

  2
PRODUCT
 70
     0
1001
ACDBATTR
1070
     0
1070
     1
  0
ARC
  5
B8A2
  8
0
 10
4217.4338938211431014
 20
53.5353909157522807
 30
0.0
 40
0.019685039496224
 50
0.0000000882877197
 51
69.9999997456928895
  0
ARC
  5
B8A3
  8
0
 10
4217.4338938212385983
 20
53.4078443682826034
 30
0.0
 40
0.0196850393999891
 50
316.484725947174411
 51
0.0000000000097707
  0
ARC
  5
B8A4
  8
0
 10
4217.8079095653556578
 20
53.0527271340092881
 30
0.0
 40
0.4960629871997393
 50
136.4847257043726074
 51
151.5531721402672929
  0
ARC
  5
B8A5
  8
0
 10
4214.5824999812348324
 20
53.4716176442836328
 30
0.0
 40
2.8717870676497839
 50
358.7275379892865885
 51
1.272461920869935
  0
ARC
  5
B8A6
  8
0
 10
4213.8278718903202389
 20
52.454301934345807
 30
0.0
 40
0.0157480313368412
 50
89.9999997473696993
 51
181.0000007993689053
  0
ARC
  5
B8A7
  8
0
 10
4213.8781263673754438
 20
52.0566641388479781
 30
0.0
 40
0.0590551180653266
 50
181.0000000415940917
 51
270.0000001107862886
  0
LINE
  5
B8A8
  8
0
 10
4213.8121262574877619
 20
52.4540270930826509
 30
0.0
 11
4213.8190802436893136
 21
52.0556334849591806
 31
0.0
  0
ARC
  5
B8A9
  8
0
 10
4218.181925317335299
 20
53.5353909157522807
 30
0.0
 40
0.0196850394962488
 50
110.0000002543607991
 51
179.999999911669903
  0
ARC
  5
B8AA
  8
0
 10
4218.1819253172388926
 20
53.4078443682826034
 30
0.0
 40
0.0196850393999891
 50
179.9999999999901945
 51
223.515274052824708
  0
ARC
  5
B8AB
  8
0
 10
4217.8079095692392002
 20
53.0527271309826887
 30
0.0
 40
0.496062992099808
 50
28.4368901582449709
 51
43.515274240305061
  0
ARC
  5
B8AC
  8
0
 10
4221.033319157243568
 20
53.4716176442836328
 30
0.0
 40
2.8717870676497839
 50
178.7275380791301131
 51
181.2724620107134115
  0
LINE
  5
B8AD
  8
0
 10
4221.7879472480881304
 20
52.4700499656826409
 30
0.0
 11
4213.82787189039027
 21
52.4700499656826409
 31
0.0
  0
LINE
  5
B8AE
  8
0
 10
4217.335468624339228
 20
54.3933483268826166
 30
0.0
 11
4218.2803505141391724
 21
54.3933483268826805
 31
0.0
  0
LINE
  5
B8AF
  8
0
 10
4217.4406265012548829
 20
53.5538888020768908
 30
0.0
 11
4218.175192637222608
 21
53.5538888020768908
 31
0.0
  0
LINE
  5
B8B0
  8
0
 10
4217.4535788605380731
 20
53.4078443682826034
 30
0.0
 11
4218.1622402778393734
 21
53.4078443682826034
 31
0.0
  0
LINE
  5
B8B1
  8
0
 10
4217.3354691467393422
 20
54.3933483268826166
 30
0.0
 11
4217.335468624339228
 21
54.0783876969826096
 31
0.0
  0
LINE
  5
B8B2
  8
0
 10
4217.335468624339228
 20
54.0783876969826096
 30
0.0
 11
4217.3748387031391758
 21
54.0783876969826096
 31
0.0
  0
LINE
  5
B8B3
  8
0
 10
4217.3748387031391758
 20
54.0783876969826096
 30
0.0
 11
4217.3748387031391758
 21
53.5778336023825972
 31
0.0
  0
LINE
  5
B8B4
  8
0
 10
4217.3748387031391758
 20
53.5778336023825972
 30
0.0
 11
4217.4406265012548829
 21
53.5538888020768908
 31
0.0
  0
LINE
  5
B8B5
  8
0
 10
4218.2803499917390582
 20
54.3933483268826166
 30
0.0
 11
4218.2803499917390582
 21
54.0783876969826096
 31
0.0
  0
LINE
  5
B8B6
  8
0
 10
4218.2803499917390582
 20
54.0783876969826096
 30
0.0
 11
4218.2409804353383151
 21
54.0783876969826096
 31
0.0
  0
LINE
  5
B8B7
  8
0
 10
4218.2409804353383151
 20
54.0783876969826096
 30
0.0
 11
4218.2409804353383151
 21
53.5778394688826083
 31
0.0
  0
LINE
  5
B8B8
  8
0
 10
4218.2409804353383151
 20
53.5778394688826083
 30
0.0
 11
4218.175192637222608
 21
53.5538888020768908
 31
0.0
  0
LINE
  5
B8B9
  8
0
 10
4217.3748387031391758
 20
53.5874488658825996
 30
0.0
 11
4218.2409804353383151
 21
53.5874488658825996
 31
0.0
  0
ARC
  5
B8BA
  8
0
 10
4217.1537647176346582
 20
53.2220184696744099
 30
0.0
 40
0.0590551180082231
 50
89.9999993830151368
 51
175.5518357766094084
  0
ARC
  5
B8BB
  8
0
 10
4229.2196759683647542
 20
52.2834321633560535
 30
0.0
 40
12.1614168116983699
 50
175.5520169845025862
 51
179.0651055458127985
  0
LINE
  5
B8BC
  8
0
 10
4217.008696970670826
 20
52.4700499656826409
 30
0.0
 11
4217.0205079941697477
 21
52.4818609892826302
 31
0.0
  0
ARC
  5
B8BD
  8
0
 10
4218.4620544203071404
 20
53.2220184696744099
 30
0.0
 40
0.0590551180082231
 50
4.4481642233905276
 51
90.0000006169848632
  0
ARC
  5
B8BE
  8
0
 10
4206.3961431695770443
 20
52.2834321633560535
 30
0.0
 40
12.1614168116983699
 50
0.9348944541871402
 51
4.4479830154973303
  0
LINE
  5
B8BF
  8
0
 10
4218.6071221672709726
 20
52.4700499656826409
 30
0.0
 11
4218.5953111437711414
 21
52.4818609892826302
 31
0.0
  0
LINE
  5
B8C0
  8
0
 10
4217.1537647182713044
 20
53.2810735876826413
 30
0.0
 11
4218.4620544203071404
 21
53.2810735876826413
 31
0.0
  0
LINE
  5
B8C1
  8
0
 10
4217.0205079941697477
 20
52.4818609892826302
 30
0.0
 11
4218.5953111437711414
 21
52.4818609892826302
 31
0.0
  0
LINE
  5
B8C2
  8
0
 10
4217.2803505141891947
 20
53.2810735876826413
 30
0.0
 11
4217.2803505141891947
 21
53.2889476034826473
 31
0.0
  0
LINE
  5
B8C3
  8
0
 10
4217.2803505141891947
 20
53.2889476034826473
 30
0.0
 11
4218.3349395072891639
 21
53.2889476034826473
 31
0.0
  0
LINE
  5
B8C4
  8
0
 10
4218.3349395072891639
 20
53.2889476034826473
 30
0.0
 11
4218.3349395072891639
 21
53.2810735876826413
 31
0.0
  0
ARC
  5
B8C5
  8
0
 10
4221.7879472480881304
 20
52.4543019341826806
 30
0.0
 40
0.0157480314999616
 50
358.9999998045539087
 51
90.0000000009379733
  0
ARC
  5
B8C6
  8
0
 10
4221.737692746319226
 20
52.0566641495245719
 30
0.0
 40
0.0590551430516946
 50
269.9601135469924884
 51
358.9999900960102082
  0
LINE
  5
B8C7
  8
0
 10
4221.803692881087045
 20
52.4540270930826509
 30
0.0
 11
4221.7967388948100051
 21
52.0556334850359903
 31
0.0
  0
LINE
  5
B8C8
  8
0
  6
CONTINUOUS
 62
     7
 10
4217.8620117844893684
 20
51.9453320672826209
 30
0.0
 11
4217.8693588311198255
 21
51.9976090207826402
 31
0.0
  0
LINE
  5
B8C9
  8
0
  6
CONTINUOUS
 62
     7
 10
4217.7538073540890764
 20
51.9453320672826209
 30
0.0
 11
4217.7464603073385661
 21
51.9976090207826402
 31
0.0
  0
LINE
  5
B8CA
  8
0
  6
CONTINUOUS
 62
     7
 10
4217.7616056952892905
 20
51.9385539026826422
 30
0.0
 11
4217.8542143980903347
 21
51.9385539026826422
 31
0.0
  0
LINE
  5
B8CB
  8
0
  6
CONTINUOUS
 62
     7
 10
4213.8781263674891306
 20
51.9976090207826473
 30
0.0
 11
4221.7376516350886959
 21
51.9976090207826402
 31
0.0
  0
ARC
  5
B8CC
  8
0
  6
CONTINUOUS
 62
     7
 10
4217.8542143980366745
 20
51.9464279185198592
 30
0.0
 40
0.0078740158372241
 50
270.0000003732653795
 51
351.9999997343651899
  0
ARC
  5
B8CD
  8
0
  6
CONTINUOUS
 62
     7
 10
4217.7616047404999335
 20
51.9464279184427582
 30
0.0
 40
0.0078740158179833
 50
188.0000003210170973
 51
270.0069475854604093
  0
CIRCLE
  5
B8CE
  8
0
 10
4217.8080373568882351
 20
53.4681514764826531
 30
0.0
 40
0.0236220472
  0
LINE
  5
B8CF
  8
0
  6
CONTINUOUS
 62
     7
 10
4218.5373150272389466
 20
51.945332067282628
 30
0.0
 11
4218.5446620738703132
 21
51.9976090207826473
 31
0.0
  0
LINE
  5
B8D0
  8
0
  6
CONTINUOUS
 62
     7
 10
4218.4291105968377451
 20
51.945332067282628
 30
0.0
 11
4218.4217635500899632
 21
51.9976090207826473
 31
0.0
  0
LINE
  5
B8D1
  8
0
  6
CONTINUOUS
 62
     7
 10
4218.3241916174893049
 20
51.9385539026826493
 30
0.0
 11
4218.5295176408380939
 21
51.9385539026826493
 31
0.0
  0
ARC
  5
B8D2
  8
0
  6
CONTINUOUS
 62
     7
 10
4218.5295176407880717
 20
51.9464279185198734
 30
0.0
 40
0.0078740158372241
 50
270.0000003732653795
 51
351.9999997343651899
  0
ARC
  5
B8D3
  8
0
  6
CONTINUOUS
 62
     7
 10
4218.4369079832486022
 20
51.9464279184427724
 30
0.0
 40
0.0078740158179833
 50
188.0000003210170973
 51
270.0069475854604093
  0
LINE
  5
B8D4
  8
0
  6
CONTINUOUS
 62
     7
 10
4218.9871696979889748
 20
51.945332067282628
 30
0.0
 11
4218.9945167446203413
 21
51.9976090207826473
 31
0.0
  0
LINE
  5
B8D5
  8
0
  6
CONTINUOUS
 62
     7
 10
4218.8789652675877733
 20
51.945332067282628
 30
0.0
 11
4218.8716182208399914
 21
51.9976090207826473
 31
0.0
  0
LINE
  5
B8D6
  8
0
  6
CONTINUOUS
 62
     7
 10
4218.8867636087888968
 20
51.9385539026826493
 30
0.0
 11
4218.9793723115890316
 21
51.9385539026826493
 31
0.0
  0
ARC
  5
B8D7
  8
0
  6
CONTINUOUS
 62
     7
 10
4218.9793723115380999
 20
51.9464279185198734
 30
0.0
 40
0.0078740158372241
 50
270.0000003732653795
 51
351.9999997343651899
  0
ARC
  5
B8D8
  8
0
  6
CONTINUOUS
 62
     7
 10
4218.8867626539986304
 20
51.9464279184427724
 30
0.0
 40
0.0078740158179833
 50
188.0000003210170973
 51
270.0069475854604093
  0
LINE
  5
B8D9
  8
0
  6
CONTINUOUS
 62
     7
 10
4219.5497436394889519
 20
51.945332067282628
 30
0.0
 11
4219.5570906861203184
 21
51.9976090207826473
 31
0.0
  0
LINE
  5
B8DA
  8
0
  6
CONTINUOUS
 62
     7
 10
4219.4415392090877504
 20
51.945332067282628
 30
0.0
 11
4219.434192162339059
 21
51.9976090207826473
 31
0.0
  0
LINE
  5
B8DB
  8
0
  6
CONTINUOUS
 62
     7
 10
4219.4493375502888739
 20
51.9385539026826493
 30
0.0
 11
4219.5419462530890087
 21
51.9385539026826493
 31
0.0
  0
ARC
  5
B8DC
  8
0
  6
CONTINUOUS
 62
     7
 10
4219.541946253038077
 20
51.9464279185198734
 30
0.0
 40
0.0078740158372241
 50
270.0000003732653795
 51
351.9999997343651899
  0
ARC
  5
B8DD
  8
0
  6
CONTINUOUS
 62
     7
 10
4219.4493365954986075
 20
51.9464279184427724
 30
0.0
 40
0.0078740158179833
 50
188.0000003210170973
 51
270.0069475854604093
  0
LINE
  5
B8DE
  8
0
  6
CONTINUOUS
 62
     7
 10
4220.1123208131393767
 20
51.945332067282628
 30
0.0
 11
4220.1196678597707432
 21
51.9976090207826473
 31
0.0
  0
LINE
  5
B8DF
  8
0
  6
CONTINUOUS
 62
     7
 10
4220.0041163827390847
 20
51.945332067282628
 30
0.0
 11
4219.9967693359885743
 21
51.9976090207826473
 31
0.0
  0
LINE
  5
B8E0
  8
0
  6
CONTINUOUS
 62
     7
 10
4220.0119147239392987
 20
51.9385539026826493
 30
0.0
 11
4220.104523426740343
 21
51.9385539026826493
 31
0.0
  0
ARC
  5
B8E1
  8
0
  6
CONTINUOUS
 62
     7
 10
4220.1045234266866828
 20
51.9464279185198734
 30
0.0
 40
0.0078740158372241
 50
270.0000003732653795
 51
351.9999997343651899
  0
ARC
  5
B8E2
  8
0
  6
CONTINUOUS
 62
     7
 10
4220.0119137691499418
 20
51.9464279184427724
 30
0.0
 40
0.0078740158179833
 50
188.0000003210170973
 51
270.0069475854604093
  0
LINE
  5
B8E3
  8
0
  6
CONTINUOUS
 62
     7
 10
4220.2757691063388847
 20
51.945332067282628
 30
0.0
 11
4220.2831161529702513
 21
51.9976090207826473
 31
0.0
  0
LINE
  5
B8E4
  8
0
  6
CONTINUOUS
 62
     7
 10
4220.1675646759385927
 20
51.945332067282628
 30
0.0
 11
4220.1602176291899013
 21
51.9976090207826473
 31
0.0
  0
LINE
  5
B8E5
  8
0
  6
CONTINUOUS
 62
     7
 10
4220.1753630171388068
 20
51.9385539026826493
 30
0.0
 11
4220.4526395948878417
 21
51.9385539026826493
 31
0.0
  0
ARC
  5
B8E6
  8
0
  6
CONTINUOUS
 62
     7
 10
4220.2679717198880098
 20
51.9464279185198734
 30
0.0
 40
0.0078740158372241
 50
270.0000003732653795
 51
351.9999997343651899
  0
ARC
  5
B8E7
  8
0
  6
CONTINUOUS
 62
     7
 10
4220.1753620623494498
 20
51.9464279184427724
 30
0.0
 40
0.0078740158179833
 50
188.0000003210170973
 51
270.0069475854604093
  0
LINE
  5
B8E8
  8
0
  6
CONTINUOUS
 62
     7
 10
4220.3718973123386604
 20
51.945332067282628
 30
0.0
 11
4220.3792443589709364
 21
51.9976090207826473
 31
0.0
  0
ARC
  5
B8E9
  8
0
  6
CONTINUOUS
 62
     7
 10
4220.3640999258877855
 20
51.9464279185198734
 30
0.0
 40
0.0078740158372241
 50
270.0000003732653795
 51
351.9999997343651899
  0
LINE
  5
B8EA
  8
0
  6
CONTINUOUS
 62
     7
 10
4220.4604369812886944
 20
51.9453320671826404
 30
0.0
 11
4220.4677840279200609
 21
51.9976090206826598
 31
0.0
  0
ARC
  5
B8EB
  8
0
  6
CONTINUOUS
 62
     7
 10
4220.4526395948378195
 20
51.9464279184198787
 30
0.0
 40
0.0078740158372241
 50
270.0000003732653795
 51
351.9999997343651899
  0
LINE
  5
B8EC
  8
0
  6
CONTINUOUS
 62
     7
 10
4220.674894754689376
 20
51.945332067282628
 30
0.0
 11
4220.6822418013207425
 21
51.9976090207826473
 31
0.0
  0
LINE
  5
B8ED
  8
0
  6
CONTINUOUS
 62
     7
 10
4220.5666903242890839
 20
51.945332067282628
 30
0.0
 11
4220.5593432775385736
 21
51.9976090207826473
 31
0.0
  0
LINE
  5
B8EE
  8
0
  6
CONTINUOUS
 62
     7
 10
4220.574488665489298
 20
51.9385539026826493
 30
0.0
 11
4220.6670973682903423
 21
51.9385539026826493
 31
0.0
  0
ARC
  5
B8EF
  8
0
  6
CONTINUOUS
 62
     7
 10
4220.6670973682366821
 20
51.9464279185198734
 30
0.0
 40
0.0078740158372241
 50
270.0000003732653795
 51
351.9999997343651899
  0
ARC
  5
B8F0
  8
0
  6
CONTINUOUS
 62
     7
 10
4220.5744877106999411
 20
51.9464279184427724
 30
0.0
 40
0.0078740158179833
 50
188.0000003210170973
 51
270.0069475854604093
  0
LINE
  5
B8F1
  8
0
  6
CONTINUOUS
 62
     7
 10
4220.9510750136387287
 20
51.945332067282628
 30
0.0
 11
4220.9584220602710047
 21
51.9976090207826473
 31
0.0
  0
LINE
  5
B8F2
  8
0
  6
CONTINUOUS
 62
     7
 10
4220.8428705832393462
 20
51.945332067282628
 30
0.0
 11
4220.8355235364888358
 21
51.9976090207826473
 31
0.0
  0
LINE
  5
B8F3
  8
0
  6
CONTINUOUS
 62
     7
 10
4220.8506689244377412
 20
51.9385539026826493
 30
0.0
 11
4220.943277627237876
 21
51.9385539026826493
 31
0.0
  0
ARC
  5
B8F4
  8
0
  6
CONTINUOUS
 62
     7
 10
4220.9432776271878538
 20
51.9464279185198734
 30
0.0
 40
0.0078740158372241
 50
270.0000003732653795
 51
351.9999997343651899
  0
ARC
  5
B8F5
  8
0
  6
CONTINUOUS
 62
     7
 10
4220.8506679696483843
 20
51.9464279184427724
 30
0.0
 40
0.0078740158179833
 50
188.0000003210170973
 51
270.0069475854604093
  0
LINE
  5
B8F6
  8
0
  6
CONTINUOUS
 62
     7
 10
4221.0922497467390713
 20
51.945332067282628
 30
0.0
 11
4221.0995967933704378
 21
51.9976090207826473
 31
0.0
  0
LINE
  5
B8F7
  8
0
  6
CONTINUOUS
 62
     7
 10
4220.9840453163378697
 20
51.945332067282628
 30
0.0
 11
4220.9766982695900879
 21
51.9976090207826473
 31
0.0
  0
LINE
  5
B8F8
  8
0
  6
CONTINUOUS
 62
     7
 10
4220.9918436575389933
 20
51.9385539026826493
 30
0.0
 11
4221.0844523603391281
 21
51.9385539026826493
 31
0.0
  0
ARC
  5
B8F9
  8
0
  6
CONTINUOUS
 62
     7
 10
4221.0844523602881964
 20
51.9464279185198734
 30
0.0
 40
0.0078740158372241
 50
270.0000003732653795
 51
351.9999997343651899
  0
ARC
  5
B8FA
  8
0
  6
CONTINUOUS
 62
     7
 10
4220.9918427027487269
 20
51.9464279184427724
 30
0.0
 40
0.0078740158179833
 50
188.0000003210170973
 51
270.0069475854604093
  0
LINE
  5
B8FB
  8
0
  6
CONTINUOUS
 62
     7
 10
4214.6317728673393503
 20
51.945332067282628
 30
0.0
 11
4214.6391199139707169
 21
51.9976090207826473
 31
0.0
  0
LINE
  5
B8FC
  8
0
  6
CONTINUOUS
 62
     7
 10
4214.5235684369390583
 20
51.945332067282628
 30
0.0
 11
4214.5162213901903669
 21
51.9976090207826473
 31
0.0
  0
LINE
  5
B8FD
  8
0
  6
CONTINUOUS
 62
     7
 10
4214.5313667781392724
 20
51.9385539026826493
 30
0.0
 11
4214.6239754809394071
 21
51.9385539026826493
 31
0.0
  0
ARC
  5
B8FE
  8
0
  6
CONTINUOUS
 62
     7
 10
4214.6239754808866564
 20
51.9464279185198734
 30
0.0
 40
0.0078740158372241
 50
270.0000003732653795
 51
351.9999997343651899
  0
ARC
  5
B8FF
  8
0
  6
CONTINUOUS
 62
     7
 10
4214.5313658233499154
 20
51.9464279184427724
 30
0.0
 40
0.0078740158179833
 50
188.0000003210170973
 51
270.0069475854604093
  0
LINE
  5
B900
  8
0
  6
CONTINUOUS
 62
     7
 10
4214.7729497875889138
 20
51.945332067282628
 30
0.0
 11
4214.7802968342202803
 21
51.9976090207826473
 31
0.0
  0
LINE
  5
B901
  8
0
  6
CONTINUOUS
 62
     7
 10
4214.6647453571886217
 20
51.945332067282628
 30
0.0
 11
4214.6573983104399304
 21
51.9976090207826473
 31
0.0
  0
LINE
  5
B902
  8
0
  6
CONTINUOUS
 62
     7
 10
4214.6725436983888358
 20
51.9385539026826493
 30
0.0
 11
4214.7651524011889705
 21
51.9385539026826493
 31
0.0
  0
ARC
  5
B903
  8
0
  6
CONTINUOUS
 62
     7
 10
4214.7651524011371293
 20
51.9464279185198734
 30
0.0
 40
0.0078740158372241
 50
270.0000003732653795
 51
351.9999997343651899
  0
ARC
  5
B904
  8
0
  6
CONTINUOUS
 62
     7
 10
4214.6725427435985694
 20
51.9464279184427724
 30
0.0
 40
0.0078740158179833
 50
188.0000003210170973
 51
270.0069475854604093
  0
LINE
  5
B905
  8
0
  6
CONTINUOUS
 62
     7
 10
4215.0491568168390586
 20
51.945332067282628
 30
0.0
 11
4215.0565038634704251
 21
51.9976090207826473
 31
0.0
  0
LINE
  5
B906
  8
0
  6
CONTINUOUS
 62
     7
 10
4214.9409523864378571
 20
51.945332067282628
 30
0.0
 11
4214.9336053396900752
 21
51.9976090207826473
 31
0.0
  0
LINE
  5
B907
  8
0
  6
CONTINUOUS
 62
     7
 10
4214.9487507276380711
 20
51.9385539026826493
 30
0.0
 11
4215.0413594304391154
 21
51.9385539026826493
 31
0.0
  0
ARC
  5
B908
  8
0
  6
CONTINUOUS
 62
     7
 10
4215.0413594303881837
 20
51.9464279185198734
 30
0.0
 40
0.0078740158372241
 50
270.0000003732653795
 51
351.9999997343651899
  0
ARC
  5
B909
  8
0
  6
CONTINUOUS
 62
     7
 10
4214.9487497728487142
 20
51.9464279184427724
 30
0.0
 40
0.0078740158179833
 50
188.0000003210170973
 51
270.0069475854604093
  0
LINE
  5
B90A
  8
0
  6
CONTINUOUS
 62
     7
 10
4215.4482535077377179
 20
51.945332067282628
 30
0.0
 11
4215.4556005543709034
 21
51.9976090207826473
 31
0.0
  0
LINE
  5
B90B
  8
0
  6
CONTINUOUS
 62
     7
 10
4215.3400490773392448
 20
51.945332067282628
 30
0.0
 11
4215.3327020305887345
 21
51.9976090207826473
 31
0.0
  0
ARC
  5
B90C
  8
0
  6
CONTINUOUS
 62
     7
 10
4215.4404561212877525
 20
51.9464279185198734
 30
0.0
 40
0.0078740158372241
 50
270.0000003732653795
 51
351.9999997343651899
  0
ARC
  5
B90D
  8
0
  6
CONTINUOUS
 62
     7
 10
4215.347846463750102
 20
51.9464279184427724
 30
0.0
 40
0.0078740158179833
 50
188.0000003210170973
 51
270.0069475854604093
  0
LINE
  5
B90E
  8
0
  6
CONTINUOUS
 62
     7
 10
4215.6117191475377695
 20
51.945332067282628
 30
0.0
 11
4215.619066194170955
 21
51.9976090207826473
 31
0.0
  0
LINE
  5
B90F
  8
0
  6
CONTINUOUS
 62
     7
 10
4215.5035147171402059
 20
51.945332067282628
 30
0.0
 11
4215.4961676703896956
 21
51.9976090207826473
 31
0.0
  0
LINE
  5
B910
  8
0
  6
CONTINUOUS
 62
     7
 10
4215.5113130583376915
 20
51.9385539026826493
 30
0.0
 11
4215.6039217611387357
 21
51.9385539026826493
 31
0.0
  0
ARC
  5
B911
  8
0
  6
CONTINUOUS
 62
     7
 10
4215.603921761087804
 20
51.9464279185198734
 30
0.0
 40
0.0078740158372241
 50
270.0000003732653795
 51
351.9999997343651899
  0
ARC
  5
B912
  8
0
  6
CONTINUOUS
 62
     7
 10
4215.5113121035501536
 20
51.9464279184427724
 30
0.0
 40
0.0078740158179833
 50
188.0000003210170973
 51
270.0069475854604093
  0
LINE
  5
B913
  8
0
  6
CONTINUOUS
 62
     7
 10
4216.1743079317893717
 20
51.945332067282628
 30
0.0
 11
4216.1816549784198287
 21
51.9976090207826473
 31
0.0
  0
LINE
  5
B914
  8
0
  6
CONTINUOUS
 62
     7
 10
4216.0661035013890796
 20
51.945332067282628
 30
0.0
 11
4216.0587564546385693
 21
51.9976090207826473
 31
0.0
  0
LINE
  5
B915
  8
0
  6
CONTINUOUS
 62
     7
 10
4216.0739018425892937
 20
51.9385539026826493
 30
0.0
 11
4216.1665105453894284
 21
51.9385539026826493
 31
0.0
  0
ARC
  5
B916
  8
0
  6
CONTINUOUS
 62
     7
 10
4216.1665105453366778
 20
51.9464279185198734
 30
0.0
 40
0.0078740158372241
 50
270.0000003732653795
 51
351.9999997343651899
  0
ARC
  5
B917
  8
0
  6
CONTINUOUS
 62
     7
 10
4216.0739008877999368
 20
51.9464279184427724
 30
0.0
 40
0.0078740158179833
 50
188.0000003210170973
 51
270.0069475854604093
  0
LINE
  5
B918
  8
0
  6
CONTINUOUS
 62
     7
 10
4216.7368702626890808
 20
51.945332067282628
 30
0.0
 11
4216.7442173093213569
 21
51.9976090207826473
 31
0.0
  0
LINE
  5
B919
  8
0
  6
CONTINUOUS
 62
     7
 10
4216.6286658322878793
 20
51.945332067282628
 30
0.0
 11
4216.6213187855410069
 21
51.9976090207826473
 31
0.0
  0
LINE
  5
B91A
  8
0
  6
CONTINUOUS
 62
     7
 10
4216.6364641734890029
 20
51.9385539026826493
 30
0.0
 11
4216.7290728762891376
 21
51.9385539026826493
 31
0.0
  0
ARC
  5
B91B
  8
0
  6
CONTINUOUS
 62
     7
 10
4216.7290728762382059
 20
51.9464279185198734
 30
0.0
 40
0.0078740158372241
 50
270.0000003732653795
 51
351.9999997343651899
  0
ARC
  5
B91C
  8
0
  6
CONTINUOUS
 62
     7
 10
4216.6364632186996459
 20
51.9464279184427724
 30
0.0
 40
0.0078740158179833
 50
188.0000003210170973
 51
270.0069475854604093
  0
LINE
  5
B91D
  8
0
  6
CONTINUOUS
 62
     7
 10
4217.0785036338684222
 20
51.9453320672006669
 30
0.0
 11
4217.0711565871188213
 21
51.9976090207007005
 31
0.0
  0
LINE
  5
B91E
  8
0
  6
CONTINUOUS
 62
     7
 10
4217.0863019750686362
 20
51.9385539026006882
 30
0.0
 11
4217.2916388404892132
 21
51.9385539026826493
 31
0.0
  0
ARC
  5
B91F
  8
0
  6
CONTINUOUS
 62
     7
 10
4217.0863010202792793
 20
51.9464279183608113
 30
0.0
 40
0.0078740158179833
 50
188.0000003210170973
 51
270.0069475854604093
  0
LINE
  5
B920
  8
0
  6
CONTINUOUS
 62
     7
 10
4216.4327139267688835
 20
51.9453320672006669
 30
0.0
 11
4216.4253668800192827
 21
51.9976090207007005
 31
0.0
  0
LINE
  5
B921
  8
0
  6
CONTINUOUS
 62
     7
 10
4216.4405122679681881
 20
51.9385539026006882
 30
0.0
 11
4216.6015149063887293
 21
51.9385539026826493
 31
0.0
  0
ARC
  5
B922
  8
0
  6
CONTINUOUS
 62
     7
 10
4216.4405113131788312
 20
51.9464279183608113
 30
0.0
 40
0.0078740158179833
 50
188.0000003210170973
 51
270.0069475854604093
  0
LINE
  5
B923
  8
0
  6
CONTINUOUS
 62
     7
 10
4215.8345953944681241
 20
51.9453320672006669
 30
0.0
 11
4215.8272483477203423
 21
51.9976090207007005
 31
0.0
  0
LINE
  5
B924
  8
0
  6
CONTINUOUS
 62
     7
 10
4215.8423937356692477
 20
51.9385539026006882
 30
0.0
 11
4216.0168503209888513
 21
51.9385539026826493
 31
0.0
  0
ARC
  5
B925
  8
0
  6
CONTINUOUS
 62
     7
 10
4215.8423927808789813
 20
51.9464279183608113
 30
0.0
 40
0.0078740158179833
 50
188.0000003210170973
 51
270.0069475854604093
  0
LINE
  5
B926
  8
0
  6
CONTINUOUS
 62
     7
 10
4215.8446623417676165
 20
51.9453320672006669
 30
0.0
 11
4215.8373152950189251
 21
51.9976090207007005
 31
0.0
  0
ARC
  5
B927
  8
0
  6
CONTINUOUS
 62
     7
 10
4215.8524597281793831
 20
51.9464279183608113
 30
0.0
 40
0.0078740158179833
 50
188.0000003210170973
 51
270.0069475854604093
  0
LINE
  5
B928
  8
0
  6
CONTINUOUS
 62
     7
 10
4215.1553821572688321
 20
51.9453320672006669
 30
0.0
 11
4215.1480351105192312
 21
51.9976090207007005
 31
0.0
  0
LINE
  5
B929
  8
0
  6
CONTINUOUS
 62
     7
 10
4215.1631804984681366
 20
51.9385539026006882
 30
0.0
 11
4215.4404561212877525
 21
51.9385539026826422
 31
0.0
  0
ARC
  5
B92A
  8
0
  6
CONTINUOUS
 62
     7
 10
4215.1631795436787797
 20
51.9464279183608113
 30
0.0
 40
0.0078740158179833
 50
188.0000003210170973
 51
270.0069475854604093
  0
LINE
  5
B92B
  8
0
  6
CONTINUOUS
 62
     7
 10
4215.2439213487714369
 20
51.9453320671826475
 30
0.0
 11
4215.2365743020209266
 21
51.9976090206826669
 31
0.0
  0
ARC
  5
B92C
  8
0
  6
CONTINUOUS
 62
     7
 10
4215.2517187351813845
 20
51.9464279183427777
 30
0.0
 40
0.0078740158179833
 50
188.0000003210170973
 51
270.0069475854604093
  0
LINE
  5
B92D
  8
0
  6
CONTINUOUS
 62
     7
 10
4219.0064839949864108
 20
51.9453320672023722
 30
0.0
 11
4218.9991369482359005
 21
51.9976090207023773
 31
0.0
  0
LINE
  5
B92E
  8
0
  6
CONTINUOUS
 62
     7
 10
4219.0142823361857154
 20
51.9385539026023935
 30
0.0
 11
4219.1068910389849407
 21
51.9385539026023935
 31
0.0
  0
ARC
  5
B92F
  8
0
  6
CONTINUOUS
 62
     7
 10
4219.0142813813963585
 20
51.9464279183624882
 30
0.0
 40
0.0078740158179833
 50
188.0000003210170973
 51
270.0069475854604093
  0
LINE
  5
B930
  8
0
  6
CONTINUOUS
 62
     7
 10
4219.0530199524891941
 20
51.9453320671888079
 30
0.0
 11
4219.0456729057377743
 21
51.9976090206888415
 31
0.0
  0
LINE
  5
B931
  8
0
  6
CONTINUOUS
 62
     7
 10
4219.0608182936875892
 20
51.9385539025888292
 30
0.0
 11
4219.1534269964886334
 21
51.9385539025888292
 31
0.0
  0
ARC
  5
B932
  8
0
  6
CONTINUOUS
 62
     7
 10
4219.0608173388991418
 20
51.9464279183489381
 30
0.0
 40
0.0078740158179833
 50
188.0000003210170973
 51
270.0069475854604093
  0
LINE
  5
B933
  8
0
  6
CONTINUOUS
 62
     7
 10
4219.0749007813892604
 20
51.9453320671826475
 30
0.0
 11
4219.0675537346396595
 21
51.9976090206826669
 31
0.0
  0
LINE
  5
B934
  8
0
  6
CONTINUOUS
 62
     7
 10
4219.0826991225903839
 20
51.9385539025826688
 30
0.0
 11
4219.1753078253886997
 21
51.9385539025826688
 31
0.0
  0
ARC
  5
B935
  8
0
  6
CONTINUOUS
 62
     7
 10
4219.0826981678001175
 20
51.9464279183427777
 30
0.0
 40
0.0078740158179833
 50
188.0000003210170973
 51
270.0069475854604093
  0
LINE
  5
B936
  8
0
  6
CONTINUOUS
 62
     7
 10
4219.5911714311887408
 20
51.9453320671826475
 30
0.0
 11
4219.58382438443914
 21
51.9976090206826669
 31
0.0
  0
LINE
  5
B937
  8
0
  6
CONTINUOUS
 62
     7
 10
4219.5989697723889549
 20
51.9385539025826688
 30
0.0
 11
4219.7733664528886948
 21
51.9385539026826493
 31
0.0
  0
ARC
  5
B938
  8
0
  6
CONTINUOUS
 62
     7
 10
4219.5989688175986885
 20
51.9464279183427777
 30
0.0
 40
0.0078740158179833
 50
188.0000003210170973
 51
270.0069475854604093
  0
LINE
  5
B939
  8
0
  6
CONTINUOUS
 62
     7
 10
4219.6629523663868895
 20
51.9453320671885805
 30
0.0
 11
4219.6556053196391076
 21
51.9976090206885999
 31
0.0
  0
ARC
  5
B93A
  8
0
  6
CONTINUOUS
 62
     7
 10
4219.6707497527986561
 20
51.9464279183487108
 30
0.0
 40
0.0078740158179833
 50
188.0000003210170973
 51
270.0069475854604093
  0
LINE
  5
B93B
  8
0
  6
CONTINUOUS
 62
     7
 10
4219.7711567968071904
 20
51.9453320671826404
 30
0.0
 11
4219.7785038434376474
 21
51.9976090206826598
 31
0.0
  0
ARC
  5
B93C
  8
0
  6
CONTINUOUS
 62
     7
 10
4219.7633594103563155
 20
51.9464279184198787
 30
0.0
 40
0.0078740158372241
 50
270.0000003732653795
 51
351.9999997343651899
  0
LINE
  5
B93D
  8
0
  6
CONTINUOUS
 62
     7
 10
4219.7812237440894023
 20
51.9453320671826404
 30
0.0
 11
4219.7885707907207689
 21
51.9976090206826598
 31
0.0
  0
ARC
  5
B93E
  8
0
  6
CONTINUOUS
 62
     7
 10
4219.7734263576376179
 20
51.9464279184198787
 30
0.0
 40
0.0078740158372241
 50
270.0000003732653795
 51
351.9999997343651899
  0
LINE
  5
B93F
  8
0
  6
CONTINUOUS
 62
     7
 10
4219.1831052117067884
 20
51.9453320671826404
 30
0.0
 11
4219.1904522583381549
 21
51.9976090206826598
 31
0.0
  0
ARC
  5
B940
  8
0
  6
CONTINUOUS
 62
     7
 10
4219.175307825255004
 20
51.9464279184198787
 30
0.0
 40
0.0078740158372241
 50
270.0000003732653795
 51
351.9999997343651899
  0
LINE
  5
B941
  8
0
  6
CONTINUOUS
 62
     7
 10
4216.6093351434892611
 20
51.9453320671826404
 30
0.0
 11
4216.6166821901197181
 21
51.9976090206826598
 31
0.0
  0
ARC
  5
B942
  8
0
  6
CONTINUOUS
 62
     7
 10
4216.6015377570365672
 20
51.9464279184198787
 30
0.0
 40
0.0078740158372241
 50
270.0000003732653795
 51
351.9999997343651899
  0
LINE
  5
B943
  8
0
  6
CONTINUOUS
 62
     7
 10
4216.5627991860092152
 20
51.9453320672006598
 30
0.0
 11
4216.5701462326405817
 21
51.9976090207006791
 31
0.0
  0
ARC
  5
B944
  8
0
  6
CONTINUOUS
 62
     7
 10
4216.5550017995583403
 20
51.9464279184378981
 30
0.0
 40
0.0078740158372241
 50
270.0000003732653795
 51
351.9999997343651899
  0
LINE
  5
B945
  8
0
  6
CONTINUOUS
 62
     7
 10
4216.5409183571919129
 20
51.9453320672031893
 30
0.0
 11
4216.5482654038232795
 21
51.9976090207032229
 31
0.0
  0
ARC
  5
B946
  8
0
  6
CONTINUOUS
 62
     7
 10
4216.533120970741038
 20
51.9464279184404276
 30
0.0
 40
0.0078740158372241
 50
270.0000003732653795
 51
351.9999997343651899
  0
LINE
  5
B947
  8
0
  6
CONTINUOUS
 62
     7
 10
4216.02464770730694
 20
51.9453320671826404
 30
0.0
 11
4216.0319947539383065
 21
51.9976090206826598
 31
0.0
  0
ARC
  5
B948
  8
0
  6
CONTINUOUS
 62
     7
 10
4216.0168503208560651
 20
51.9464279184198787
 30
0.0
 40
0.0078740158372241
 50
270.0000003732653795
 51
351.9999997343651899
  0
LINE
  5
B949
  8
0
  6
CONTINUOUS
 62
     7
 10
4215.9528667720887825
 20
51.9453320671826404
 30
0.0
 11
4215.960213818720149
 21
51.9976090206826598
 31
0.0
  0
ARC
  5
B94A
  8
0
  6
CONTINUOUS
 62
     7
 10
4215.9450693856379075
 20
51.9464279184198787
 30
0.0
 40
0.0078740158372241
 50
270.0000003732653795
 51
351.9999997343651899
  0
LINE
  5
B94B
  8
0
  6
CONTINUOUS
 62
     7
 10
4217.2994362268891564
 20
51.9453320671826404
 30
0.0
 11
4217.3067832735196134
 21
51.9976090206826598
 31
0.0
  0
ARC
  5
B94C
  8
0
  6
CONTINUOUS
 62
     7
 10
4217.291638840437372
 20
51.9464279184198787
 30
0.0
 40
0.0078740158372241
 50
270.0000003732653795
 51
351.9999997343651899
  0
LINE
  5
B94D
  8
0
  6
CONTINUOUS
 62
     7
 10
4217.2124054852920381
 20
51.9453320672016687
 30
0.0
 11
4217.2197525319234046
 21
51.9976090207017023
 31
0.0
  0
ARC
  5
B94E
  8
0
  6
CONTINUOUS
 62
     7
 10
4217.2046080988402537
 20
51.9464279184389
 30
0.0
 40
0.0078740158372241
 50
270.0000003732653795
 51
351.9999997343651899
  0
LINE
  5
B94F
  8
0
  6
CONTINUOUS
 62
     7
 10
4217.1954764657893975
 20
51.9453320671826404
 30
0.0
 11
4217.202823512420764
 21
51.9976090206826598
 31
0.0
  0
ARC
  5
B950
  8
0
  6
CONTINUOUS
 62
     7
 10
4217.1876790793367036
 20
51.9464279184198787
 30
0.0
 40
0.0078740158372241
 50
270.0000003732653795
 51
351.9999997343651899
  0
LINE
  5
B951
  8
0
  6
CONTINUOUS
 62
     7
 10
4217.1894898562086382
 20
51.9453320672006598
 30
0.0
 11
4217.1968369028409143
 21
51.9976090207006791
 31
0.0
  0
ARC
  5
B952
  8
0
  6
CONTINUOUS
 62
     7
 10
4217.1816924697577633
 20
51.9464279184378981
 30
0.0
 40
0.0078740158372241
 50
270.0000003732653795
 51
351.9999997343651899
  0
LINE
  5
B953
  8
0
  6
CONTINUOUS
 62
     7
 10
4217.1867080642887231
 20
51.9453320671885734
 30
0.0
 11
4217.1940551109209991
 21
51.9976090206885928
 31
0.0
  0
ARC
  5
B954
  8
0
  6
CONTINUOUS
 62
     7
 10
4217.1789106778387577
 20
51.9464279184258118
 30
0.0
 40
0.0078740158372241
 50
270.0000003732653795
 51
351.9999997343651899
  0
LINE
  5
B955
  8
0
  6
CONTINUOUS
 62
     7
 10
4218.3163829116074339
 20
51.9453320672826209
 30
0.0
 11
4218.3090358648578331
 21
51.9976090207826402
 31
0.0
  0
ARC
  5
B956
  8
0
  6
CONTINUOUS
 62
     7
 10
4218.3241802980182911
 20
51.9464279184427582
 30
0.0
 40
0.0078740158179833
 50
188.0000003210170973
 51
270.0069475854604093
  0
LINE
  5
B957
  8
0
  6
CONTINUOUS
 62
     7
 10
4218.4034136533073251
 20
51.9453320672826209
 30
0.0
 11
4218.3960666065568148
 21
51.9976090207826402
 31
0.0
  0
ARC
  5
B958
  8
0
  6
CONTINUOUS
 62
     7
 10
4218.4112110397172728
 20
51.9464279184427582
 30
0.0
 40
0.0078740158179833
 50
188.0000003210170973
 51
270.0069475854604093
  0
LINE
  5
B959
  8
0
  6
CONTINUOUS
 62
     7
 10
4218.4203426727071928
 20
51.9453320672826209
 30
0.0
 11
4218.4129956259566825
 21
51.9976090207826402
 31
0.0
  0
ARC
  5
B95A
  8
0
  6
CONTINUOUS
 62
     7
 10
4218.42814005911805
 20
51.9464279184427582
 30
0.0
 40
0.0078740158179833
 50
188.0000003210170973
 51
270.0069475854604093
  0
LINE
  5
B95B
  8
0
  6
CONTINUOUS
 62
     7
 10
4218.4263292823070515
 20
51.9453320672826209
 30
0.0
 11
4218.4189822355574506
 21
51.9976090207826402
 31
0.0
  0
ARC
  5
B95C
  8
0
  6
CONTINUOUS
 62
     7
 10
4218.4341266687169991
 20
51.9464279184427582
 30
0.0
 40
0.0078740158179833
 50
188.0000003210170973
 51
270.0069475854604093
  0
ENDSEC
  0
EOF
