  0
SECTION
  2
HEADER
  9
$ACADVER
  1
AC1009
  9
$INSBASE
 10
3776.6242168839198712
 20
131.2211718535328941
 30
0.0
  9
$EXTMIN
 10
3768.8796416603381658
 20
131.204700926102106
 30
-0.0000000000112498
  9
$EXTMAX
 10
3778.0723068897700614
 20
142.3937488128439099
 30
0.0000000000002956
  9
$LIMMIN
 10
0.0
 20
0.0
  9
$LIMMAX
 10
11.6929133858000007
 20
8.2677165353999982
  9
$ORTHOMODE
 70
     0
  9
$REGENMODE
 70
     1
  9
$FILLMODE
 70
     1
  9
$QTEXTMODE
 70
     0
  9
$MIRRTEXT
 70
     0
  9
$DRAGMODE
 70
     2
  9
$LTSCALE
 40
0.6431102362
  9
$OSMODE
 70
  4095
  9
$ATTMODE
 70
     1
  9
$TEXTSIZE
 40
0.2
  9
$TRACEWID
 40
0.05
  9
$TEXTSTYLE
  7
STANDARD
  9
$CLAYER
  8
0
  9
$CELTYPE
  6
BYLAYER
  9
$CECOLOR
 62
   256
  9
$DIMSCALE
 40
1.0
  9
$DIMASZ
 40
0.1875
  9
$DIMEXO
 40
0.0625
  9
$DIMDLI
 40
0.4443307087
  9
$DIMRND
 40
0.0
  9
$DIMDLE
 40
0.0
  9
$DIMEXE
 40
0.125
  9
$DIMTP
 40
0.01
  9
$DIMTM
 40
0.01
  9
$DIMTXT
 40
2.0
  9
$DIMCEN
 40
0.1052362205
  9
$DIMTSZ
 40
0.0
  9
$DIMTOL
 70
     1
  9
$DIMLIM
 70
     0
  9
$DIMTIH
 70
     1
  9
$DIMTOH
 70
     1
  9
$DIMSE1
 70
     0
  9
$DIMSE2
 70
     0
  9
$DIMTAD
 70
     0
  9
$DIMZIN
 70
     0
  9
$DIMBLK
  1

  9
$DIMASO
 70
     1
  9
$DIMSHO
 70
     1
  9
$DIMPOST
  1
\X
  9
$DIMAPOST
  1

  9
$DIMALT
 70
     1
  9
$DIMALTD
 70
     2
  9
$DIMALTF
 40
25.3999999999999986
  9
$DIMLFAC
 40
1.0
  9
$DIMTOFL
 70
     0
  9
$DIMTVP
 40
0.0
  9
$DIMTIX
 70
     0
  9
$DIMSOXD
 70
     0
  9
$DIMSAH
 70
     0
  9
$DIMBLK1
  1

  9
$DIMBLK2
  1

  9
$DIMSTYLE
  2
STANDARD
  9
$DIMCLRD
 70
     0
  9
$DIMCLRE
 70
     0
  9
$DIMCLRT
 70
     0
  9
$DIMTFAC
 40
1.0
  9
$DIMGAP
 40
0.09
  9
$LUNITS
 70
     2
  9
$LUPREC
 70
     4
  9
$SKETCHINC
 40
0.1
  9
$FILLETRAD
 40
0.0
  9
$AUNITS
 70
     0
  9
$AUPREC
 70
     0
  9
$MENU
  1
.
  9
$ELEVATION
 40
0.0
  9
$PELEVATION
 40
0.0
  9
$THICKNESS
 40
0.0
  9
$LIMCHECK
 70
     0
  9
$BLIPMODE
 70
     0
  9
$CHAMFERA
 40
0.0
  9
$CHAMFERB
 40
0.0
  9
$SKPOLY
 70
     0
  9
$TDCREATE
 40
2458060.468368056230247
  9
$TDUPDATE
 40
2459389.9638310191221535
  9
$TDINDWG
 40
0.352634375
  9
$TDUSRTIMER
 40
0.352634375
  9
$USRTIMER
 70
     1
  9
$ANGBASE
 50
0.0
  9
$ANGDIR
 70
     0
  9
$PDMODE
 70
     0
  9
$PDSIZE
 40
0.3125
  9
$PLINEWID
 40
0.0
  9
$COORDS
 70
     1
  9
$SPLFRAME
 70
     0
  9
$SPLINETYPE
 70
     6
  9
$SPLINESEGS
 70
     8
  9
$ATTDIA
 70
     1
  9
$ATTREQ
 70
     1
  9
$HANDLING
 70
     1
  9
$HANDSEED
  5
15C19
  9
$SURFTAB1
 70
     6
  9
$SURFTAB2
 70
     6
  9
$SURFTYPE
 70
     6
  9
$SURFU
 70
     6
  9
$SURFV
 70
     6
  9
$UCSNAME
  2

  9
$UCSORG
 10
0.0
 20
0.0
 30
0.0
  9
$UCSXDIR
 10
1.0
 20
0.0
 30
0.0
  9
$UCSYDIR
 10
0.0
 20
1.0
 30
0.0
  9
$PUCSNAME
  2

  9
$PUCSORG
 10
0.0
 20
0.0
 30
0.0
  9
$PUCSXDIR
 10
1.0
 20
0.0
 30
0.0
  9
$PUCSYDIR
 10
0.0
 20
1.0
 30
0.0
  9
$USERI1
 70
     0
  9
$USERI2
 70
     0
  9
$USERI3
 70
     0
  9
$USERI4
 70
     0
  9
$USERI5
 70
     0
  9
$USERR1
 40
0.0
  9
$USERR2
 40
0.0
  9
$USERR3
 40
0.0
  9
$USERR4
 40
0.0
  9
$USERR5
 40
0.0
  9
$WORLDVIEW
 70
     1
  9
$SHADEDGE
 70
     3
  9
$SHADEDIF
 70
    70
  9
$TILEMODE
 70
     1
  9
$MAXACTVP
 70
    64
  9
$PLIMCHECK
 70
     0
  9
$PEXTMIN
 10
1.0000000000000000E+20
 20
1.0000000000000000E+20
 30
1.0000000000000000E+20
  9
$PEXTMAX
 10
-1.0000000000000000E+20
 20
-1.0000000000000000E+20
 30
-1.0000000000000000E+20
  9
$PLIMMIN
 10
0.0
 20
0.0
  9
$PLIMMAX
 10
12.0
 20
9.0
  9
$UNITMODE
 70
     0
  9
$VISRETAIN
 70
     1
  9
$PLINEGEN
 70
     0
  9
$PSLTSCALE
 70
     1
  0
ENDSEC
  0
SECTION
  2
TABLES
  0
TABLE
  2
VPORT
 70
     1
  0
VPORT
  2
*ACTIVE
 70
     0
 10
0.0
 20
0.0
 11
1.0
 21
1.0
 12
-30.0680931077586102
 22
10.8039626727231308
 13
0.0
 23
0.0
 14
1.0
 24
1.0
 15
0.0
 25
0.0
 16
0.0
 26
0.0
 36
17.1152628219792007
 17
3803.5440673828129547
 27
125.9952621967499056
 37
0.0
 40
11.6381325998508096
 41
0.7982954545454546
 42
50.0
 43
0.0
 44
0.0
 50
0.0
 51
0.0
 71
     0
 72
   100
 73
     1
 74
     1
 75
     0
 76
     0
 77
     0
 78
     1
  0
ENDTAB
  0
TABLE
  2
LTYPE
 70
     2
  0
LTYPE
  2
CONTINUOUS
 70
     0
  3
Solid line
 72
    65
 73
     0
 40
0.0
  0
LTYPE
  2
PHANTOM2
 70
     0
  3
___ _ _ ___ _ _ ___ _ _ ___ _ _
 72
    65
 73
     6
 40
1.25
 49
0.625
 49
-0.125
 49
0.125
 49
-0.125
 49
0.125
 49
-0.125
  0
ENDTAB
  0
TABLE
  2
LAYER
 70
     2
  0
LAYER
  2
0
 70
     0
 62
   255
  6
CONTINUOUS
  0
LAYER
  2
DEFPOINTS
 70
     0
 62
     7
  6
CONTINUOUS
  0
ENDTAB
  0
TABLE
  2
STYLE
 70
     1
  0
STYLE
  2
STANDARD
 70
     0
 40
0.0
 41
0.8
 50
0.0
 71
     0
 42
0.2
  3
txt
  4

  0
ENDTAB
  0
TABLE
  2
VIEW
 70
     2
  0
ENDTAB
  0
TABLE
  2
UCS
 70
     0
  0
ENDTAB
  0
TABLE
  2
APPID
 70
     9
  0
APPID
  2
ACAD
 70
     0
  0
APPID
  2
ACAD_MLEADERVER
 70
     0
  0
APPID
  2
ACAD_EXEMPT_FROM_CAD_STANDARDS
 70
     0
  0
APPID
  2
ACAD_NAV_VCDISPLAY
 70
     0
  0
APPID
  2
ACAECLAYERSTANDARD
 70
     0
  0
APPID
  2
ACCMTRANSPARENCY
 70
     0
  0
APPID
  2
ACAD_DSTYLE_DIMJAG
 70
     0
  0
APPID
  2
ACAD_DSTYLE_DIMTALN
 70
     0
  0
APPID
  2
ACDBATTR
 70
     0
  0
ENDTAB
  0
TABLE
  2
DIMSTYLE
 70
     1
  0
DIMSTYLE
  2
STANDARD
 70
     0
  3

  4

  5

  6

  7

 40
1.0
 41
0.1875
 42
0.0625
 43
0.38
 44
0.125
 45
0.0
 46
0.0
 47
0.01
 48
0.01
140
0.15625
141
0.09
142
0.0
143
25.3999999999999986
144
1.0
145
0.0
146
1.0
147
0.09
 71
     1
 72
     0
 73
     1
 74
     1
 75
     0
 76
     0
 77
     0
 78
     4
170
     0
171
     2
172
     0
173
     0
174
     0
175
     0
176
     0
177
     0
178
     0
  0
ENDTAB
  0
ENDSEC
  0
SECTION
  2
BLOCKS
  0
BLOCK
  8
0
  2
$MODEL_SPACE
 70
     0
 10
0.0
 20
0.0
 30
0.0
  3
$MODEL_SPACE
  1

  0
ENDBLK
  5
21
  8
0
  0
BLOCK
 67
     1
  8
0
  2
$PAPER_SPACE
 70
     0
 10
0.0
 20
0.0
 30
0.0
  3
$PAPER_SPACE
  1

  0
ENDBLK
  5
1D
 67
     1
  8
0
  0
ENDSEC
  0
SECTION
  2
ENTITIES
  0
ATTDEF
  5
132A3
  8
DEFPOINTS
 10
3776.6198432086198409
 20
131.2180018369853087
 30
0.0
 40
0.001
  1
K-99874T-B9
  3

  2
MODELNUMBER
 70
     0
1001
ACDBATTR
1070
     0
1070
     1
  0
ATTDEF
  5
132A4
  8
DEFPOINTS
 10
3776.6198432086198409
 20
131.2163351703185867
 30
0.0
 40
0.001
  1
BEITOU
  3

  2
TRADENAME
 70
     0
1001
ACDBATTR
1070
     0
1070
     1
  0
ATTDEF
  5
132A5
  8
DEFPOINTS
 10
3776.6198432086198409
 20
131.2146685036520068
 30
0.0
 40
0.001
  1
BATH AND SHOWER FAUCET
  3

  2
PRODUCT
 70
     0
1001
ACDBATTR
1070
     0
1070
     1
  0
LINE
  5
158FF
  8
0
 10
3769.0844767264698021
 20
135.2959750031328952
 30
0.0
 11
3776.07303578157007
 21
135.2959750031328952
 31
0.0
  0
LINE
  5
15900
  8
0
 10
3777.1753979862701271
 20
135.2959750031328952
 30
0.0
 11
3777.8647444429698226
 21
135.2959750031328952
 31
0.0
  0
LINE
  5
15901
  8
0
 10
3769.0644767264698203
 20
134.0361324834329082
 30
0.0
 11
3776.07303578157007
 21
134.0361324834329082
 31
0.0
  0
LINE
  5
15902
  8
0
 10
3777.1753979862701271
 20
134.0361324834329082
 30
0.0
 11
3777.8847444429698044
 21
134.0361324834329082
 31
0.0
  0
LINE
  5
15903
  8
0
 10
3775.7773901122709503
 20
133.1896757905329025
 30
0.0
 11
3776.07303578157007
 21
133.1896757905329025
 31
0.0
  0
LINE
  5
15904
  8
0
 10
3777.1753979862701271
 20
133.1896757905329025
 30
0.0
 11
3777.4710436555701563
 21
133.1896757905329025
 31
0.0
  0
LINE
  5
15905
  8
0
 10
3775.3836893248708293
 20
131.4573923260329025
 30
0.0
 11
3777.8647444429698226
 21
131.4573923260329025
 31
0.0
  0
ARC
  5
15906
  8
0
 10
3775.9422405059699486
 20
131.4643923260329075
 30
0.0
 40
0.007
 50
180.0
 51
270.0
  0
LINE
  5
15907
  8
0
 10
3775.7383901122698262
 20
131.5881876015328942
 30
0.0
 11
3775.7383901122698262
 21
131.4573923260329025
 31
0.0
  0
LINE
  5
15908
  8
0
 10
3775.7383901122698262
 20
131.6218726409329065
 30
0.0
 11
3775.7383901122698262
 21
133.1506757905328868
 31
0.0
  0
LINE
  5
15909
  8
0
 10
3777.5030436555698543
 20
131.6148726409329015
 30
0.0
 11
3777.3131932618698556
 21
131.6148726409329015
 31
0.0
  0
LINE
  5
1590A
  8
0
 10
3775.9352405059698867
 20
131.6148726409329015
 30
0.0
 11
3775.745390112269888
 21
131.6148726409329015
 31
0.0
  0
LINE
  5
1590B
  8
0
 10
3777.5100436555699162
 20
133.0234435100614121
 30
0.0
 11
3777.5100436555699162
 21
133.1506757905328868
 31
0.0
  0
LINE
  5
1590C
  8
0
 10
3777.5100436555699162
 20
131.5881876015328942
 30
0.0
 11
3777.5100436555699162
 21
131.4573923260329025
 31
0.0
  0
ARC
  5
1590D
  8
0
 10
3777.5030436555698543
 20
131.5881876015328942
 30
0.0
 40
0.007
 50
0.000000000014656
 51
89.9999999999739515
  0
ARC
  5
1590E
  8
0
 10
3777.5020738205148518
 20
131.6227833321709113
 30
0.0
 40
0.0079699194410738
 50
276.989470301275901
 51
359.7363392139703819
  0
ARC
  5
1590F
  8
0
 10
3775.745390112269888
 20
131.6218726409329065
 30
0.0
 40
0.007
 50
179.9999999999926104
 51
270.0
  0
ARC
  5
15910
  8
0
 10
3775.745390112269888
 20
131.5881876015328942
 30
0.0
 40
0.007
 50
90.0000000000260485
 51
180.0000000000032117
  0
LINE
  5
15911
  8
0
 10
3775.7580751516711643
 20
131.5951876015328992
 30
0.0
 11
3775.7580751516711643
 21
131.6148726409329015
 31
0.0
  0
LINE
  5
15912
  8
0
 10
3777.4903586162699867
 20
131.6148726409329015
 30
0.0
 11
3777.4903586162699867
 21
131.5951876015328992
 31
0.0
  0
ARC
  5
15913
  8
0
 10
3775.7773901122709503
 20
133.1506757905328868
 30
0.0
 40
0.039
 50
90.0
 51
180.0
  0
ARC
  5
15914
  8
0
 10
3777.4710436555701563
 20
133.1506757905328868
 30
0.0
 40
0.039
 50
0.0000000000032569
 51
90.0
  0
LINE
  5
15915
  8
0
 10
3769.0454767264700422
 20
135.2569750031329079
 30
0.0
 11
3769.0454767264700422
 21
134.0551324834329137
 31
0.0
  0
ARC
  5
15916
  8
0
 10
3769.0844767264698021
 20
135.2569750031329079
 30
0.0
 40
0.039
 50
90.0
 51
180.0
  0
ARC
  5
15917
  8
0
 10
3769.0644767264698203
 20
134.0551324834329137
 30
0.0
 40
0.019
 50
179.9999999999893987
 51
270.0
  0
LINE
  5
15918
  8
0
 10
3777.9037444429709467
 20
134.0551324834329137
 30
0.0
 11
3777.9037444429709467
 21
135.2569750031329079
 31
0.0
  0
LINE
  5
15919
  8
0
 10
3777.9037444429709467
 20
134.0171324834329027
 30
0.0
 11
3777.9037444429709467
 21
131.2211718535328941
 31
0.0
  0
ARC
  5
1591A
  8
0
 10
3777.8847444429698044
 20
134.0551324834329137
 30
0.0
 40
0.019
 50
270.0
 51
0.0000000000162844
  0
ARC
  5
1591B
  8
0
 10
3777.8847444429698044
 20
134.0171324834329027
 30
0.0
 40
0.019
 50
359.9999999999919282
 51
90.0
  0
ARC
  5
1591C
  8
0
 10
3777.8647444429698226
 20
135.2569750031329079
 30
0.0
 40
0.039
 50
359.9999999999951115
 51
90.0
  0
LINE
  5
1591D
  8
0
 10
3775.3446893248701599
 20
134.0171324834329027
 30
0.0
 11
3775.3446893248701599
 21
131.2211718535328941
 31
0.0
  0
ARC
  5
1591E
  8
0
 10
3775.363689324869938
 20
134.0171324834329027
 30
0.0
 40
0.019
 50
90.0
 51
179.9999999999893987
  0
LINE
  5
1591F
  8
0
 10
3775.3446893248701599
 20
131.2211718535328941
 30
0.0
 11
3777.9037444429709467
 21
131.2211718535328941
 31
0.0
  0
ARC
  5
15920
  8
0
 10
3777.8647444429698226
 20
131.4183923260328868
 30
0.0
 40
0.039
 50
359.9999999999943157
 51
90.0
  0
ARC
  5
15921
  8
0
 10
3775.3836893248708293
 20
131.4183923260328868
 30
0.0
 40
0.039
 50
90.0
 51
180.0000000000015916
  0
LINE
  5
15922
  8
0
 10
3777.991161765869947
 20
133.9333372078328921
 30
0.0
 11
3777.9037444429709467
 21
133.9333372078328921
 31
0.0
  0
LINE
  5
15923
  8
0
 10
3775.3446893248701599
 20
133.9333372078328921
 30
0.0
 11
3775.1391617658709947
 21
133.9333372078328921
 31
0.0
  0
LINE
  5
15924
  8
0
 10
3777.991161765869947
 20
133.8633372078328989
 30
0.0
 11
3777.9037444429709467
 21
133.8633372078328989
 31
0.0
  0
LINE
  5
15925
  8
0
 10
3775.3446893248701599
 20
133.8633372078328989
 30
0.0
 11
3775.1391617658709947
 21
133.8633372078328989
 31
0.0
  0
ARC
  5
15926
  8
0
 10
3775.1391617658709947
 20
133.8983372078328955
 30
0.0
 40
0.0349999999999966
 50
90.0
 51
270.0
  0
ARC
  5
15927
  8
0
 10
3777.991161765869947
 20
133.8983372078328955
 30
0.0
 40
0.0349999999999966
 50
270.0
 51
90.0
  0
LINE
  5
15928
  8
0
 10
3777.1753979862701271
 20
132.9416442945328924
 30
0.0
 11
3777.1753979862701271
 21
142.3904631921328985
 31
0.0
  0
LINE
  5
15929
  8
0
 10
3776.07303578157007
 20
142.3904631921328985
 30
0.0
 11
3777.1753979862701271
 21
142.3904631921328985
 31
0.0
  0
LINE
  5
1592A
  8
0
 10
3777.2741932618700957
 20
132.8944002000328908
 30
0.0
 11
3775.9742405059701014
 21
132.8944002000328908
 31
0.0
  0
LINE
  5
1592B
  8
0
 10
3775.9352405059698867
 20
132.8554002000329035
 30
0.0
 11
3775.9352405059698867
 21
131.4643923260329075
 31
0.0
  0
LINE
  5
1592C
  8
0
 10
3777.3131932618698556
 20
132.8554002000329035
 30
0.0
 11
3777.3131932618698556
 21
131.4643923260329075
 31
0.0
  0
ARC
  5
1592D
  8
0
 10
3777.3061932618697938
 20
131.4643923260329075
 30
0.0
 40
0.007
 50
270.0
 51
0.0
  0
ARC
  5
1592E
  8
0
 10
3777.2741932618700957
 20
132.8554002000329035
 30
0.0
 40
0.039
 50
359.9999999999984084
 51
90.0
  0
ARC
  5
1592F
  8
0
 10
3775.9742405059701014
 20
132.8554002000329035
 30
0.0
 40
0.039
 50
90.0
 51
180.0000000000015916
  0
LINE
  5
15930
  8
0
 10
3777.1753979862701271
 20
132.9416442945328924
 30
0.0
 11
3776.07303578157007
 21
132.9416442945328924
 31
0.0
  0
LINE
  5
15931
  8
0
 10
3776.2620121595700766
 20
132.8944002000328908
 30
0.0
 11
3776.2620121595700766
 21
132.9416442945328924
 31
0.0
  0
LINE
  5
15932
  8
0
 10
3776.9864216083701649
 20
132.9416442945328924
 30
0.0
 11
3776.9864216083701649
 21
132.8944002000328908
 31
0.0
  0
ARC
  5
15933
  8
0
 10
3775.7580751516711643
 20
131.5755025622329129
 30
0.0
 40
0.0196850393999997
 50
90.0
 51
180.0
  0
ARC
  5
15934
  8
0
 10
3777.4903586161699423
 20
131.5755025622329129
 30
0.0
 40
0.0196850393999997
 50
0.0
 51
90.0
  0
LINE
  5
15935
  8
0
 10
3777.4058284171701416
 20
132.6384946882317024
 30
0.0
 11
3777.4058284171701416
 21
132.1581797275329961
 31
0.0
  0
ARC
  5
15936
  8
0
 10
3778.3381272974352214
 20
132.6189608251092125
 30
0.0
 40
0.9325034980906221
 50
152.6257378454675973
 51
178.7996937426173076
  0
LINE
  5
15937
  8
0
 10
3777.5329730891239706
 20
133.0234435100614121
 30
0.0
 11
3777.497915103089781
 21
133.0234435100614121
 31
0.0
  0
LINE
  5
15938
  8
0
 10
3777.549413734369864
 20
133.0072400160003951
 30
0.0
 11
3777.549413734369864
 21
132.9649837371048875
 31
0.0
  0
ARC
  5
15939
  8
0
 10
3777.5328325408640922
 20
133.0068585240651942
 30
0.0
 40
0.0165855815155086
 50
1.318000554766489
 51
89.5144626985142793
  0
LINE
  5
1593A
  8
0
 10
3777.4899078779108095
 20
132.6384946882328961
 30
0.0
 11
3777.4899078779108095
 21
132.158185742050506
 31
0.0
  0
ARC
  5
1593B
  8
0
 10
3777.5110344985719166
 20
132.9640660003369135
 30
0.0
 40
0.0383902068414313
 50
337.5512450351831149
 51
1.369814266658935
  0
ARC
  5
1593C
  8
0
 10
3778.6453111615742273
 20
132.5706147014720955
 30
0.0
 40
1.162254262298817
 50
160.9792085145375893
 51
166.7829343632357109
  0
ARC
  5
1593D
  8
0
 10
3778.3873668114488282
 20
132.6303010047242026
 30
0.0
 40
0.8974963363917854
 50
166.7273077537091979
 51
179.476911507754096
  0
ARC
  5
1593E
  8
0
 10
3778.3435762384287955
 20
132.6368467897964081
 30
0.0
 40
0.8921953502065989
 50
167.097824486566509
 51
179.894173760181701
  0
ARC
  5
1593F
  8
0
 10
3778.619306604709891
 20
132.5736850869658952
 30
0.0
 40
1.1750674690054861
 50
157.4969932737517126
 51
167.0978244865632973
  0
LINE
  5
15940
  8
0
 10
3777.4513824101259161
 20
132.1581797273094026
 30
0.0
 11
3777.4513824100699821
 21
132.6384946882317024
 31
0.0
  0
LINE
  5
15941
  8
0
 10
3777.5100436555699162
 20
131.7810927728118031
 30
0.0
 11
3777.5100436555699162
 21
131.6227466567328861
 31
0.0
  0
ARC
  5
15942
  8
0
 10
3778.3381272974352214
 20
132.1777135906565945
 30
0.0
 40
0.9325034980906221
 50
181.2003062573826071
 51
207.3742621545331133
  0
LINE
  5
15943
  8
0
 10
3777.5329730891239706
 20
131.7810927728118031
 30
0.0
 11
3777.4941754618398591
 21
131.7810927728118031
 31
0.0
  0
LINE
  5
15944
  8
0
 10
3777.549413734369864
 20
131.7972962668729053
 30
0.0
 11
3777.549413734369864
 21
131.839552545768413
 31
0.0
  0
ARC
  5
15945
  8
0
 10
3777.5328325408640922
 20
131.7976777588081063
 30
0.0
 40
0.0165855815155086
 50
270.4855373014856923
 51
358.6819994452334868
  0
ARC
  5
15946
  8
0
 10
3777.5110344985719166
 20
131.8404702825363017
 30
0.0
 40
0.0383902068415956
 50
358.6301857333850194
 51
22.3494244188085496
  0
ARC
  5
15947
  8
0
 10
3778.6455630874220333
 20
132.2342515354094132
 30
0.0
 40
1.162596084591387
 50
193.6072146119653041
 51
199.0353925703703055
  0
ARC
  5
15948
  8
0
 10
3778.3918388626921114
 20
132.1751438315212113
 30
0.0
 40
0.9020903935335937
 50
181.0771472553807939
 51
193.7497202516188111
  0
ARC
  5
15949
  8
0
 10
3778.3435762339759094
 20
132.1598276252123014
 30
0.0
 40
0.8921953456971226
 50
180.1058261918051073
 51
192.9021755298882113
  0
ARC
  5
1594A
  8
0
 10
3778.619306604709891
 20
132.2229893287999118
 30
0.0
 40
1.1750674690054861
 50
192.902175513436589
 51
202.0898784384347096
  0
ARC
  5
1594B
  8
0
 10
3776.1793697734910893
 20
138.5902470341171124
 30
0.0
 40
0.1244640640151086
 50
175.0415032676571059
 51
195.0772308462508988
  0
ARC
  5
1594C
  8
0
 10
3775.9350220889868979
 20
138.5686991830781096
 30
0.0
 40
0.1246393779980633
 50
355.0162405451130212
 51
15.0247132921546598
  0
LINE
  5
1594D
  8
0
 10
3776.052385504709946
 20
138.5998748832932961
 30
0.0
 11
3776.056235698042201
 21
138.5568559496379066
 31
0.0
  0
ARC
  5
1594E
  8
0
 10
3776.1602674207988457
 20
138.60662345677639
 30
0.0
 40
0.1080927891354974
 50
173.2684693739819011
 51
183.5794840684577025
  0
ARC
  5
1594F
  8
0
 10
3776.055134236396043
 20
138.6189543276414895
 30
0.0
 40
0.00224031392069
 50
132.3673128713400899
 51
171.2844881753619859
  0
LINE
  5
15950
  8
0
 10
3776.0536245314269763
 20
138.6206095609788917
 30
0.0
 11
3776.1022217109739358
 21
138.6345833431736878
 31
0.0
  0
ARC
  5
15951
  8
0
 10
3776.1222993736469107
 20
138.6267360293836077
 30
0.0
 40
0.03619550224984
 50
146.7999189563093125
 51
174.8373404361788914
  0
ARC
  5
15952
  8
0
 10
3776.0266958284159955
 20
138.6058881880954061
 30
0.0
 40
0.080793383770619
 50
12.3251391631642004
 51
31.0253554811832011
  0
ARC
  5
15953
  8
0
 10
3775.9424259119550698
 20
138.5852692088722904
 30
0.0
 40
0.1675362237007265
 50
355.0465240881580939
 51
13.0623459472366399
  0
ARC
  5
15954
  8
0
 10
3775.9903907032808092
 20
138.5781079963414868
 30
0.0
 40
0.1191698139659684
 50
332.8646088183634788
 51
356.485615634713497
  0
ARC
  5
15955
  8
0
 10
3776.0941717620189593
 20
138.5247955711066083
 30
0.0
 40
0.0024987325089363
 50
282.1658491706443783
 51
335.3969547431262868
  0
ARC
  5
15956
  8
0
 10
3776.1085745531968314
 20
138.5379438240474883
 30
0.0
 40
0.0214740086251006
 50
186.6348755853591115
 51
222.1217235036367015
  0
ARC
  5
15957
  8
0
 10
3776.0734654975522062
 20
138.5460225027202057
 30
0.0
 40
0.0150103334058757
 50
190.8470169456267911
 51
210.3676291434740904
  0
ARC
  5
15958
  8
0
 10
3776.0609360474768437
 20
138.5388211060873118
 30
0.0
 40
0.0005722000646107
 50
222.5611942848888987
 51
268.8080728711365168
  0
LINE
  5
15959
  8
0
 10
3776.1010957386920381
 20
138.5339963233377034
 30
0.0
 11
3776.0609241448278226
 21
138.5382490298773916
 31
0.0
  0
ARC
  5
1595A
  8
0
 10
3776.2057775783769102
 20
138.5770372986993095
 30
0.0
 40
0.1508975176232956
 50
187.6858870957696013
 51
192.9590840887971126
  0
LINE
  5
1595B
  8
0
 10
3776.0451426134700341
 20
138.6642425451329075
 30
0.0
 11
3776.037936823669952
 21
138.7466050989328892
 31
0.0
  0
LINE
  5
1595C
  8
0
 10
3776.037936823669952
 20
138.7466050989328892
 30
0.0
 11
3776.0757143592800276
 21
138.7574376329075108
 31
0.0
  0
LINE
  5
1595D
  8
0
 10
3776.0451426134700341
 20
138.6642425451329075
 30
0.0
 11
3776.0753449876301602
 21
138.6610681477069988
 31
0.0
  0
ARC
  5
1595E
  8
0
 10
3776.0999077875130752
 20
138.7420674789661064
 30
0.0
 40
0.0054900118258659
 50
125.0852477987818929
 51
167.4634225728833883
  0
ARC
  5
1595F
  8
0
 10
3776.2435594656622015
 20
138.719300967476812
 30
0.0
 40
0.1509245237791386
 50
170.8660657320548921
 51
188.379186680451113
  0
ARC
  5
15960
  8
0
 10
3776.1991220692011666
 20
138.7059507547454871
 30
0.0
 40
0.1052316023159729
 50
184.7112212662669037
 51
202.0603129106808922
  0
ARC
  5
15961
  8
0
 10
3776.1053820978659132
 20
138.6681547881705114
 30
0.0
 40
0.0041627434829233
 50
204.5137494582849911
 51
249.9122415786877127
  0
LINE
  5
15962
  8
0
 10
3776.0967521584698261
 20
138.74655994323291
 30
0.0
 11
3776.1598819327659839
 21
138.7648675530014089
 31
0.0
  0
LINE
  5
15963
  8
0
 10
3776.1039523659701445
 20
138.6642452741328952
 30
0.0
 11
3776.1602208522708679
 21
138.6581618090328902
 31
0.0
  0
ARC
  5
15964
  8
0
 10
3776.1501681841550635
 20
138.7434603144216965
 30
0.0
 40
0.0329882395974291
 50
117.1393591627171986
 51
163.397877684394814
  0
ARC
  5
15965
  8
0
 10
3776.1423348660468946
 20
138.7553363342348121
 30
0.0
 40
0.0189104779426593
 50
45.7074454158011818
 51
112.4270493442932946
  0
ARC
  5
15966
  8
0
 10
3776.1148952312501024
 20
138.7219834124223041
 30
0.0
 40
0.0620531121575395
 50
22.9246275924339002
 51
49.0797948445549466
  0
ARC
  5
15967
  8
0
 10
3776.0925759858027959
 20
138.7112899911628858
 30
0.0
 40
0.0867825273635881
 50
351.9746136656207227
 51
23.6872365407361407
  0
ARC
  5
15968
  8
0
 10
3776.1018265856660037
 20
138.7087837955014038
 30
0.0
 40
0.077281795309464
 50
319.0779848926778186
 51
352.857016703730892
  0
ARC
  5
15969
  8
0
 10
3776.138423258552848
 20
138.6761801448851088
 30
0.0
 40
0.0282806562647188
 50
280.2551639403347963
 51
320.4221697263047872
  0
ARC
  5
1596A
  8
0
 10
3776.1439068761242197
 20
138.6723815384025045
 30
0.0
 40
0.0240344462512473
 50
204.8632353444673129
 51
268.9301635479191077
  0
ARC
  5
1596B
  8
0
 10
3776.1630343835299755
 20
138.7108888323554936
 30
0.0
 40
0.0664316862400074
 50
165.9911645258698911
 51
204.0134384935813046
  0
ARC
  5
1596C
  8
0
 10
3776.0412433615579175
 20
138.7004104025909044
 30
0.0
 40
0.0633180756997023
 50
344.8418822163920936
 51
24.8253688357683302
  0
ARC
  5
1596D
  8
0
 10
3776.0964461069888785
 20
138.6424696647335111
 30
0.0
 40
0.0060292526441515
 50
111.9004151826579943
 51
137.3395890221792968
  0
ARC
  5
1596E
  8
0
 10
3776.095020504931199
 20
138.6460535108074907
 30
0.0
 40
0.0021723436086941
 50
94.0755857904783994
 51
112.2705520920562066
  0
ARC
  5
1596F
  8
0
 10
3776.0945736130897785
 20
138.6466023137884918
 30
0.0
 40
0.0016442723663633
 50
34.3673458634168867
 51
79.7531703906427083
  0
ARC
  5
15970
  8
0
 10
3776.0959463862068333
 20
138.5268733117034969
 30
0.0
 40
0.0046894786286507
 50
225.2825579875973858
 51
254.565575801470203
  0
ARC
  5
15971
  8
0
 10
3776.0996828268139325
 20
138.994899794966102
 30
0.0
 40
0.0054900118258659
 50
125.0852477987818929
 51
167.4634225728833883
  0
ARC
  5
15972
  8
0
 10
3776.2433345049621494
 20
138.9721332834768077
 30
0.0
 40
0.1509245237791386
 50
170.8660657320548921
 51
188.379186680451113
  0
ARC
  5
15973
  8
0
 10
3776.1988971085011144
 20
138.9587830707455112
 30
0.0
 40
0.1052316023159729
 50
184.7112212662669037
 51
202.0603129106808922
  0
ARC
  5
15974
  8
0
 10
3776.1051571371672253
 20
138.9209871041705071
 30
0.0
 40
0.0041627434829233
 50
204.5137494582849911
 51
249.9122415786877127
  0
LINE
  5
15975
  8
0
 10
3776.0965271977711382
 20
138.9993922592329056
 30
0.0
 11
3776.1596569720659318
 21
139.0176998690014045
 31
0.0
  0
LINE
  5
15976
  8
0
 10
3776.1037274052710018
 20
138.9170775901328909
 30
0.0
 11
3776.1599958915699062
 21
138.9109941250328859
 31
0.0
  0
ARC
  5
15977
  8
0
 10
3776.1499432234550113
 20
138.9962926304216921
 30
0.0
 40
0.0329882395974291
 50
117.1393591627171986
 51
163.397877684394814
  0
ARC
  5
15978
  8
0
 10
3776.1421099053468424
 20
139.0081686502348077
 30
0.0
 40
0.0189104779426593
 50
45.7074454158011818
 51
112.4270493442932946
  0
ARC
  5
15979
  8
0
 10
3776.1146702705500502
 20
138.9748157284222998
 30
0.0
 40
0.0620531121575395
 50
22.9246275924339002
 51
49.0797948445549466
  0
ARC
  5
1597A
  8
0
 10
3776.0923510251018342
 20
138.9641223071629099
 30
0.0
 40
0.0867825273635881
 50
351.9746136656207227
 51
23.6872365407361407
  0
ARC
  5
1597B
  8
0
 10
3776.1016016249659515
 20
138.9616161115013995
 30
0.0
 40
0.077281795309464
 50
319.0779848926778186
 51
352.857016703730892
  0
ARC
  5
1597C
  8
0
 10
3776.1381982978527958
 20
138.9290124608851045
 30
0.0
 40
0.0282806562647188
 50
280.2551639403347963
 51
320.4221697263047872
  0
ARC
  5
1597D
  8
0
 10
3776.1436819154241675
 20
138.9252138544025001
 30
0.0
 40
0.0240344462512473
 50
204.8632353444666023
 51
268.9301635479191077
  0
ARC
  5
1597E
  8
0
 10
3776.1628094228299233
 20
138.9637211483554893
 30
0.0
 40
0.0664316862400074
 50
165.9911645258698911
 51
204.0134384935813046
  0
ARC
  5
1597F
  8
0
 10
3776.0410184008587748
 20
138.9532427185909
 30
0.0
 40
0.0633180756997023
 50
344.8418822163920936
 51
24.8253688357683302
  0
ARC
  5
15980
  8
0
 10
3776.0994468964640873
 20
139.2477264309659972
 30
0.0
 40
0.0054900118258659
 50
125.0852477987818929
 51
167.4634225728833883
  0
ARC
  5
15981
  8
0
 10
3776.2430985746118495
 20
139.2249599194767882
 30
0.0
 40
0.1509245237791386
 50
170.8660657320548921
 51
188.379186680451113
  0
ARC
  5
15982
  8
0
 10
3776.1986611781508145
 20
139.2116097067454916
 30
0.0
 40
0.1052316023159729
 50
184.7112212662669037
 51
202.0603129106808922
  0
ARC
  5
15983
  8
0
 10
3776.1049212068160159
 20
139.1738137401704876
 30
0.0
 40
0.0041627434829233
 50
204.5137494582849911
 51
249.9122415786877127
  0
LINE
  5
15984
  8
0
 10
3776.0962912674199288
 20
139.2522188952328861
 30
0.0
 11
3776.1594210417160866
 21
139.2705265050014134
 31
0.0
  0
LINE
  5
15985
  8
0
 10
3776.1034914749197924
 20
139.1699042261328998
 30
0.0
 11
3776.1597599612200611
 21
139.1638207610328948
 31
0.0
  0
ARC
  5
15986
  8
0
 10
3776.1497072931051662
 20
139.249119266421701
 30
0.0
 40
0.0329882395974291
 50
117.1393591627171986
 51
163.397877684394814
  0
ARC
  5
15987
  8
0
 10
3776.1418739749960878
 20
139.2609952862347882
 30
0.0
 40
0.0189104779426593
 50
45.7074454158011818
 51
112.4270493442932946
  0
ARC
  5
15988
  8
0
 10
3776.114434340200205
 20
139.2276423644223087
 30
0.0
 40
0.0620531121575395
 50
22.9246275924339002
 51
49.0797948445549466
  0
ARC
  5
15989
  8
0
 10
3776.0921150947528986
 20
139.2169489431630041
 30
0.0
 40
0.0867825273635881
 50
351.9746136656207227
 51
23.6872365407361407
  0
ARC
  5
1598A
  8
0
 10
3776.1013656946161063
 20
139.2144427475014083
 30
0.0
 40
0.077281795309464
 50
319.0779848926778186
 51
352.857016703730892
  0
ARC
  5
1598B
  8
0
 10
3776.1379623675029507
 20
139.1818390968851133
 30
0.0
 40
0.0282806562647188
 50
280.2551639403347963
 51
320.4221697263047872
  0
ARC
  5
1598C
  8
0
 10
3776.1434459850747771
 20
139.178040490402509
 30
0.0
 40
0.0240344462512473
 50
204.8632353444666023
 51
268.9301635479191077
  0
ARC
  5
1598D
  8
0
 10
3776.1625734924800781
 20
139.2165477843554982
 30
0.0
 40
0.0664316862400074
 50
165.9911645258698911
 51
204.0134384935813046
  0
ARC
  5
1598E
  8
0
 10
3776.0407824705080202
 20
139.2060693545909089
 30
0.0
 40
0.0633180756997023
 50
344.8418822163920936
 51
24.8253688357683302
  0
ARC
  5
1598F
  8
0
 10
3776.0992002013640558
 20
139.5005474961160132
 30
0.0
 40
0.0054900118258659
 50
125.0852477987818929
 51
167.4634225728833883
  0
ARC
  5
15990
  8
0
 10
3776.2428518795131822
 20
139.4777809846268042
 30
0.0
 40
0.1509245237791386
 50
170.8660657320548921
 51
188.379186680451113
  0
ARC
  5
15991
  8
0
 10
3776.198414483050783
 20
139.4644307718955929
 30
0.0
 40
0.1052316023159729
 50
184.7112212662669037
 51
202.0603129106808922
  0
ARC
  5
15992
  8
0
 10
3776.1046745117159844
 20
139.4266348053205036
 30
0.0
 40
0.0041627434829233
 50
204.5137494582849911
 51
249.9122415786877127
  0
LINE
  5
15993
  8
0
 10
3776.0960445723208068
 20
139.5050399603829021
 30
0.0
 11
3776.1591743466160551
 21
139.523347570151401
 31
0.0
  0
LINE
  5
15994
  8
0
 10
3776.1032447798202156
 20
139.4227252912828874
 30
0.0
 11
3776.1595132661200296
 21
139.4166418261829108
 31
0.0
  0
ARC
  5
15995
  8
0
 10
3776.1494605980060442
 20
139.5019403315716886
 30
0.0
 40
0.0329882395974291
 50
117.1393591627171986
 51
163.397877684394814
  0
ARC
  5
15996
  8
0
 10
3776.1416272798969658
 20
139.5138163513848042
 30
0.0
 40
0.0189104779426593
 50
45.7074454158011818
 51
112.4270493442932946
  0
ARC
  5
15997
  8
0
 10
3776.1141876451001735
 20
139.4804634295722963
 30
0.0
 40
0.0620531121575395
 50
22.9246275924339002
 51
49.0797948445549466
  0
ARC
  5
15998
  8
0
 10
3776.0918683996519576
 20
139.4697700083129916
 30
0.0
 40
0.0867825273635881
 50
351.9746136656207227
 51
23.6872365407361407
  0
ARC
  5
15999
  8
0
 10
3776.1011189995160748
 20
139.4672638126513959
 30
0.0
 40
0.077281795309464
 50
319.0779848926778186
 51
352.857016703730892
  0
ARC
  5
1599A
  8
0
 10
3776.1377156724020097
 20
139.4346601620351009
 30
0.0
 40
0.0282806562647188
 50
280.2551639403347963
 51
320.4221697263047872
  0
ARC
  5
1599B
  8
0
 10
3776.1431992899738361
 20
139.4308615555524966
 30
0.0
 40
0.0240344462512473
 50
204.8632353444666023
 51
268.9301635479191077
  0
ARC
  5
1599C
  8
0
 10
3776.1623267973800466
 20
139.4693688495055142
 30
0.0
 40
0.0664316862400074
 50
165.9911645258698911
 51
204.0134384935813046
  0
ARC
  5
1599D
  8
0
 10
3776.0405357754079887
 20
139.4588904197408965
 30
0.0
 40
0.0633180756997023
 50
344.8418822163920936
 51
24.8253688357683302
  0
ARC
  5
1599E
  8
0
 10
3776.0989429280639342
 20
139.7533630766660053
 30
0.0
 40
0.0054900118258659
 50
125.0852477987818929
 51
167.4634225728833883
  0
ARC
  5
1599F
  8
0
 10
3776.2425946062130606
 20
139.7305965651767963
 30
0.0
 40
0.1509245237791386
 50
170.8660657320548921
 51
188.379186680451113
  0
ARC
  5
159A0
  8
0
 10
3776.1981572097502067
 20
139.7172463524456134
 30
0.0
 40
0.1052316023159729
 50
184.7112212662669037
 51
202.0603129106808922
  0
ARC
  5
159A1
  8
0
 10
3776.1044172384172271
 20
139.6794503858704957
 30
0.0
 40
0.0041627434829233
 50
204.5137494582849911
 51
249.9122415786877127
  0
LINE
  5
159A2
  8
0
 10
3776.0957872990197757
 20
139.7578555409328942
 30
0.0
 11
3776.1589170733159335
 21
139.7761631507013931
 31
0.0
  0
LINE
  5
159A3
  8
0
 10
3776.1029875065210035
 20
139.6755408718329079
 30
0.0
 11
3776.159255992819908
 21
139.6694574067329029
 31
0.0
  0
ARC
  5
159A4
  8
0
 10
3776.1492033247050131
 20
139.7547559121217091
 30
0.0
 40
0.0329882395974291
 50
117.1393591627171986
 51
163.397877684394814
  0
ARC
  5
159A5
  8
0
 10
3776.1413700065968442
 20
139.7666319319347963
 30
0.0
 40
0.0189104779426593
 50
45.7074454158011818
 51
112.4270493442932946
  0
ARC
  5
159A6
  8
0
 10
3776.1139303718000519
 20
139.7332790101222884
 30
0.0
 40
0.0620531121575395
 50
22.9246275924339002
 51
49.0797948445549466
  0
ARC
  5
159A7
  8
0
 10
3776.0916111263532002
 20
139.7225855888630122
 30
0.0
 40
0.0867825273635881
 50
351.9746136656207227
 51
23.6872365407361407
  0
ARC
  5
159A8
  8
0
 10
3776.1008617262168627
 20
139.720079393201388
 30
0.0
 40
0.077281795309464
 50
319.0779848926778186
 51
352.857016703730892
  0
ARC
  5
159A9
  8
0
 10
3776.1374583991018881
 20
139.687475742585093
 30
0.0
 40
0.0282806562647188
 50
280.2551639403347963
 51
320.4221697263047872
  0
ARC
  5
159AA
  8
0
 10
3776.1429420166741693
 20
139.6836771361024887
 30
0.0
 40
0.0240344462512473
 50
204.8632353444666023
 51
268.9301635479191077
  0
ARC
  5
159AB
  8
0
 10
3776.162069524079925
 20
139.7221844300555063
 30
0.0
 40
0.0664316862400074
 50
165.9911645258698911
 51
204.0134384935813046
  0
ARC
  5
159AC
  8
0
 10
3776.0402785021078671
 20
139.7117060002908886
 30
0.0
 40
0.0633180756997023
 50
344.8418822163920936
 51
24.8253688357683302
  0
ARC
  5
159AD
  8
0
 10
3776.0981168976140907
 20
140.0048071306659949
 30
0.0
 40
0.0054900118258659
 50
125.0852477987818929
 51
167.4634225728833883
  0
ARC
  5
159AE
  8
0
 10
3776.2417685757632171
 20
139.9820406191767859
 30
0.0
 40
0.1509245237791386
 50
170.8660657320548921
 51
188.379186680451113
  0
ARC
  5
159AF
  8
0
 10
3776.1973311793008179
 20
139.9686904064454893
 30
0.0
 40
0.1052316023159729
 50
184.7112212662669037
 51
202.0603129106808922
  0
ARC
  5
159B0
  8
0
 10
3776.1035912079669288
 20
139.9308944398705137
 30
0.0
 40
0.0041627434829233
 50
204.5137494582849911
 51
249.9122415786877127
  0
LINE
  5
159B1
  8
0
 10
3776.0949612685699321
 20
140.0092995949329122
 30
0.0
 11
3776.15809104286609
 21
140.0276072047014111
 31
0.0
  0
LINE
  5
159B2
  8
0
 10
3776.1021614760697958
 20
139.9269849258328975
 30
0.0
 11
3776.1584299623700645
 21
139.9209014607328925
 31
0.0
  0
ARC
  5
159B3
  8
0
 10
3776.1483772942551695
 20
140.0061999661216987
 30
0.0
 40
0.0329882395974291
 50
117.1393591627171986
 51
163.397877684394814
  0
ARC
  5
159B4
  8
0
 10
3776.1405439761470006
 20
140.0180759859347859
 30
0.0
 40
0.0189104779426593
 50
45.7074454158011818
 51
112.4270493442932946
  0
ARC
  5
159B5
  8
0
 10
3776.1131043413502084
 20
139.9847230641223064
 30
0.0
 40
0.0620531121575395
 50
22.9246275924339002
 51
49.0797948445549466
  0
ARC
  5
159B6
  8
0
 10
3776.0907850959019925
 20
139.9740296428630018
 30
0.0
 40
0.0867825273635881
 50
351.9746136656207227
 51
23.6872365407361407
  0
ARC
  5
159B7
  8
0
 10
3776.1000356957661097
 20
139.971523447201406
 30
0.0
 40
0.077281795309464
 50
319.0779848926778186
 51
352.857016703730892
  0
ARC
  5
159B8
  8
0
 10
3776.136632368652954
 20
139.938919796585111
 30
0.0
 40
0.0282806562647188
 50
280.2551639403347963
 51
320.4221697263047872
  0
ARC
  5
159B9
  8
0
 10
3776.1421159862247805
 20
139.9351211901025067
 30
0.0
 40
0.0240344462512473
 50
204.8632353444666023
 51
268.9301635479191077
  0
ARC
  5
159BA
  8
0
 10
3776.161243493630991
 20
139.9736284840554958
 30
0.0
 40
0.0664316862400074
 50
165.9911645258698911
 51
204.0134384935813046
  0
ARC
  5
159BB
  8
0
 10
3776.0394524716580236
 20
139.9631500542909066
 30
0.0
 40
0.0633180756997023
 50
344.8418822163920936
 51
24.8253688357683302
  0
ARC
  5
159BC
  8
0
 10
3776.0972579610129287
 20
140.2562710166160116
 30
0.0
 40
0.0054900118258659
 50
125.0852477987818929
 51
167.4634225728833883
  0
ARC
  5
159BD
  8
0
 10
3776.2409096391620551
 20
140.2335045051268025
 30
0.0
 40
0.1509245237791386
 50
170.8660657320548921
 51
188.379186680451113
  0
ARC
  5
159BE
  8
0
 10
3776.1964722427010201
 20
140.2201542923955913
 30
0.0
 40
0.1052316023159729
 50
184.7112212662669037
 51
202.0603129106808922
  0
ARC
  5
159BF
  8
0
 10
3776.102732271367131
 20
140.1823583258205019
 30
0.0
 40
0.0041627434829233
 50
204.5137494582849911
 51
249.9122415786877127
  0
LINE
  5
159C0
  8
0
 10
3776.0941023319701344
 20
140.2607634808829005
 30
0.0
 11
3776.157232106264928
 21
140.2790710906513993
 31
0.0
  0
LINE
  5
159C1
  8
0
 10
3776.101302539469998
 20
140.1784488117829142
 30
0.0
 11
3776.157571025769812
 21
140.1723653466829091
 31
0.0
  0
ARC
  5
159C2
  8
0
 10
3776.1475183576558265
 20
140.257663852071687
 30
0.0
 40
0.0329882395974291
 50
117.1393591627171986
 51
163.397877684394814
  0
ARC
  5
159C3
  8
0
 10
3776.1396850395472029
 20
140.2695398718848026
 30
0.0
 40
0.0189104779426593
 50
45.7074454158011818
 51
112.4270493442932946
  0
ARC
  5
159C4
  8
0
 10
3776.1122454047499559
 20
140.2361869500722946
 30
0.0
 40
0.0620531121575395
 50
22.9246275924339002
 51
49.0797948445549466
  0
ARC
  5
159C5
  8
0
 10
3776.0899261593031042
 20
140.22549352881299
 30
0.0
 40
0.0867825273635881
 50
351.9746136656207227
 51
23.6872365407361407
  0
ARC
  5
159C6
  8
0
 10
3776.0991767591658572
 20
140.2229873331513943
 30
0.0
 40
0.077281795309464
 50
319.0779848926778186
 51
352.857016703730892
  0
ARC
  5
159C7
  8
0
 10
3776.1357734320531563
 20
140.1903836825350993
 30
0.0
 40
0.0282806562647188
 50
280.2551639403347963
 51
320.4221697263047872
  0
ARC
  5
159C8
  8
0
 10
3776.1412570496249828
 20
140.186585076052495
 30
0.0
 40
0.0240344462512473
 50
204.8632353444666023
 51
268.9301635479191077
  0
ARC
  5
159C9
  8
0
 10
3776.160384557029829
 20
140.2250923700055125
 30
0.0
 40
0.0664316862400074
 50
165.9911645258698911
 51
204.0134384935813046
  0
ARC
  5
159CA
  8
0
 10
3776.0385935350591353
 20
140.2146139402408949
 30
0.0
 40
0.0633180756997023
 50
344.8418822163920936
 51
24.8253688357683302
  0
ARC
  5
159CB
  8
0
 10
3776.0969946599129798
 20
140.509085547416106
 30
0.0
 40
0.0054900118258659
 50
125.0852477987818929
 51
167.4634225728833883
  0
ARC
  5
159CC
  8
0
 10
3776.2406463380621062
 20
140.4863190359268117
 30
0.0
 40
0.1509245237791386
 50
170.8660657320548921
 51
188.379186680451113
  0
ARC
  5
159CD
  8
0
 10
3776.1962089416010713
 20
140.4729688231954867
 30
0.0
 40
0.1052316023159729
 50
184.7112212662669037
 51
202.0603129106808922
  0
ARC
  5
159CE
  8
0
 10
3776.1024689702671822
 20
140.4351728566205111
 30
0.0
 40
0.0041627434829233
 50
204.5137494582849911
 51
249.9122415786877127
  0
LINE
  5
159CF
  8
0
 10
3776.0938390308701855
 20
140.5135780116829096
 30
0.0
 11
3776.1569688051658886
 21
140.5318856214514085
 31
0.0
  0
LINE
  5
159D0
  8
0
 10
3776.1010392383700491
 20
140.4312633425828949
 30
0.0
 11
3776.1573077246698631
 21
140.4251798774828899
 31
0.0
  0
ARC
  5
159D1
  8
0
 10
3776.1472550565558777
 20
140.5104783828716961
 30
0.0
 40
0.0329882395974291
 50
117.1393591627171986
 51
163.397877684394814
  0
ARC
  5
159D2
  8
0
 10
3776.1394217384458898
 20
140.5223544026848117
 30
0.0
 40
0.0189104779426593
 50
45.7074454158011818
 51
112.4270493442932946
  0
ARC
  5
159D3
  8
0
 10
3776.111982103650007
 20
140.4890014808723038
 30
0.0
 40
0.0620531121575395
 50
22.9246275924339002
 51
49.0797948445549466
  0
ARC
  5
159D4
  8
0
 10
3776.0896628582031553
 20
140.4783080596129139
 30
0.0
 40
0.0867825273635881
 50
351.9746136656207227
 51
23.6872365407361407
  0
ARC
  5
159D5
  8
0
 10
3776.0989134580659083
 20
140.4758018639514034
 30
0.0
 40
0.077281795309464
 50
319.0779848926778186
 51
352.857016703730892
  0
ARC
  5
159D6
  8
0
 10
3776.1355101309532074
 20
140.4431982133351937
 30
0.0
 40
0.0282806562647188
 50
280.2551639403347963
 51
320.4221697263047872
  0
ARC
  5
159D7
  8
0
 10
3776.1409937485250339
 20
140.4393996068525041
 30
0.0
 40
0.0240344462512473
 50
204.8632353444666023
 51
268.9301635479191077
  0
ARC
  5
159D8
  8
0
 10
3776.1601212559298801
 20
140.4779069008054933
 30
0.0
 40
0.0664316862400074
 50
165.9911645258698911
 51
204.0134384935813046
  0
ARC
  5
159D9
  8
0
 10
3776.0383302339591864
 20
140.467428471040904
 30
0.0
 40
0.0633180756997023
 50
344.8418822163920936
 51
24.8253688357683302
  0
ARC
  5
159DA
  8
0
 10
3776.0967196712140321
 20
140.7618944163160961
 30
0.0
 40
0.0054900118258659
 50
125.0852477987818929
 51
167.4634225728833883
  0
ARC
  5
159DB
  8
0
 10
3776.2403713493631585
 20
140.7391279048268018
 30
0.0
 40
0.1509245237791386
 50
170.8660657320548921
 51
188.379186680451113
  0
ARC
  5
159DC
  8
0
 10
3776.1959339529012141
 20
140.7257776920955905
 30
0.0
 40
0.1052316023159729
 50
184.7112212662669037
 51
202.0603129106808922
  0
ARC
  5
159DD
  8
0
 10
3776.1021939815668702
 20
140.6879817255205012
 30
0.0
 40
0.0041627434829233
 50
204.5137494582849911
 51
249.9122415786877127
  0
LINE
  5
159DE
  8
0
 10
3776.0935640421707831
 20
140.7663868805828997
 30
0.0
 11
3776.1566938164660314
 21
140.7846944903513986
 31
0.0
  0
LINE
  5
159DF
  8
0
 10
3776.1007642496701919
 20
140.6840722114829134
 30
0.0
 11
3776.1570327359700059
 21
140.6779887463829084
 31
0.0
  0
ARC
  5
159E0
  8
0
 10
3776.146980067855111
 20
140.7632872517716862
 30
0.0
 40
0.0329882395974291
 50
117.1393591627171986
 51
163.397877684394814
  0
ARC
  5
159E1
  8
0
 10
3776.1391467497469421
 20
140.7751632715848018
 30
0.0
 40
0.0189104779426593
 50
45.7074454158011818
 51
112.4270493442932946
  0
ARC
  5
159E2
  8
0
 10
3776.1117071149501498
 20
140.7418103497722939
 30
0.0
 40
0.0620531121575395
 50
22.9246275924339002
 51
49.0797948445549466
  0
ARC
  5
159E3
  8
0
 10
3776.0893878695019339
 20
140.7311169285129893
 30
0.0
 40
0.0867825273635881
 50
351.9746136656207227
 51
23.6872365407361407
  0
ARC
  5
159E4
  8
0
 10
3776.0986384693660511
 20
140.7286107328513935
 30
0.0
 40
0.077281795309464
 50
319.0779848926778186
 51
352.857016703730892
  0
ARC
  5
159E5
  8
0
 10
3776.135235142251986
 20
140.6960070822350986
 30
0.0
 40
0.0282806562647188
 50
280.2551639403347963
 51
320.4221697263047872
  0
ARC
  5
159E6
  8
0
 10
3776.1407187598251767
 20
140.6922084757524942
 30
0.0
 40
0.0240344462512473
 50
204.8632353444666023
 51
268.9301635479191077
  0
ARC
  5
159E7
  8
0
 10
3776.1598462672300229
 20
140.7307157697055118
 30
0.0
 40
0.0664316862400074
 50
165.9911645258698911
 51
204.0134384935813046
  0
ARC
  5
159E8
  8
0
 10
3776.038055245257965
 20
140.7202373399408941
 30
0.0
 40
0.0633180756997023
 50
344.8418822163920936
 51
24.8253688357683302
  0
ARC
  5
159E9
  8
0
 10
3776.0964331789641619
 20
141.014697688766006
 30
0.0
 40
0.0054900118258659
 50
125.0852477987818929
 51
167.4634225728833883
  0
ARC
  5
159EA
  8
0
 10
3776.2400848571128336
 20
140.9919311772767969
 30
0.0
 40
0.1509245237791386
 50
170.8660657320548921
 51
188.379186680451113
  0
ARC
  5
159EB
  8
0
 10
3776.1956474606508891
 20
140.9785809645456141
 30
0.0
 40
0.1052316023159729
 50
184.7112212662669037
 51
202.0603129106808922
  0
ARC
  5
159EC
  8
0
 10
3776.1019074893160905
 20
140.9407849979704963
 30
0.0
 40
0.0041627434829233
 50
204.5137494582849911
 51
249.9122415786877127
  0
LINE
  5
159ED
  8
0
 10
3776.0932775499200034
 20
141.0191901530328948
 30
0.0
 11
3776.156407324214797
 21
141.0374977628015074
 31
0.0
  0
LINE
  5
159EE
  8
0
 10
3776.1004777574207765
 20
140.9368754839329085
 30
0.0
 11
3776.1567462437201357
 21
140.9307920188329035
 31
0.0
  0
ARC
  5
159EF
  8
0
 10
3776.1466935756061503
 20
141.0160905242217098
 30
0.0
 40
0.0329882395974291
 50
117.1393591627171986
 51
163.397877684394814
  0
ARC
  5
159F0
  8
0
 10
3776.1388602574970719
 20
141.0279665440347969
 30
0.0
 40
0.0189104779426593
 50
45.7074454158011818
 51
112.4270493442932946
  0
ARC
  5
159F1
  8
0
 10
3776.1114206226998249
 20
140.994613622222289
 30
0.0
 40
0.0620531121575395
 50
22.9246275924339002
 51
49.0797948445549466
  0
ARC
  5
159F2
  8
0
 10
3776.0891013772529732
 20
140.9839202009630128
 30
0.0
 40
0.0867825273635881
 50
351.9746136656207227
 51
23.6872365407361407
  0
ARC
  5
159F3
  8
0
 10
3776.0983519771170904
 20
140.9814140053013887
 30
0.0
 40
0.077281795309464
 50
319.0779848926778186
 51
352.857016703730892
  0
ARC
  5
159F4
  8
0
 10
3776.1349486500021158
 20
140.9488103546850937
 30
0.0
 40
0.0282806562647188
 50
280.2551639403347963
 51
320.4221697263047872
  0
ARC
  5
159F5
  8
0
 10
3776.1404322675739422
 20
140.9450117482024893
 30
0.0
 40
0.0240344462512473
 50
204.8632353444666023
 51
268.9301635479191077
  0
ARC
  5
159F6
  8
0
 10
3776.1595597749801527
 20
140.9835190421555069
 30
0.0
 40
0.0664316862400074
 50
165.9911645258698911
 51
204.0134384935813046
  0
ARC
  5
159F7
  8
0
 10
3776.0377687530080948
 20
140.9730406123908892
 30
0.0
 40
0.0633180756997023
 50
344.8418822163920936
 51
24.8253688357683302
  0
ARC
  5
159F8
  8
0
 10
3776.0961353481138758
 20
141.2674954097660134
 30
0.0
 40
0.0054900118258659
 50
125.0852477987818929
 51
167.4634225728833883
  0
ARC
  5
159F9
  8
0
 10
3776.2397870262630022
 20
141.2447288982768043
 30
0.0
 40
0.1509245237791386
 50
170.8660657320548921
 51
188.379186680451113
  0
ARC
  5
159FA
  8
0
 10
3776.1953496298010577
 20
141.2313786855455078
 30
0.0
 40
0.1052316023159729
 50
184.7112212662669037
 51
202.0603129106808922
  0
ARC
  5
159FB
  8
0
 10
3776.1016096584658044
 20
141.1935827189705037
 30
0.0
 40
0.0041627434829233
 50
204.5137494582849911
 51
249.9122415786877127
  0
LINE
  5
159FC
  8
0
 10
3776.092979719070172
 20
141.2719878740329023
 30
0.0
 11
3776.1561094933658751
 21
141.2902954838014011
 31
0.0
  0
LINE
  5
159FD
  8
0
 10
3776.1001799265700356
 20
141.1896732049328875
 30
0.0
 11
3776.1564484128698496
 21
141.1835897398329109
 31
0.0
  0
ARC
  5
159FE
  8
0
 10
3776.1463957447549546
 20
141.2688882452216887
 30
0.0
 40
0.0329882395974291
 50
117.1393591627171986
 51
163.397877684394814
  0
ARC
  5
159FF
  8
0
 10
3776.1385624266467858
 20
141.2807642650348043
 30
0.0
 40
0.0189104779426593
 50
45.7074454158011818
 51
112.4270493442932946
  0
ARC
  5
15A00
  8
0
 10
3776.1111227918499935
 20
141.2474113432222964
 30
0.0
 40
0.0620531121575395
 50
22.9246275924339002
 51
49.0797948445549466
  0
ARC
  5
15A01
  8
0
 10
3776.0888035464017776
 20
141.2367179219629065
 30
0.0
 40
0.0867825273635881
 50
351.9746136656207227
 51
23.6872365407361407
  0
ARC
  5
15A02
  8
0
 10
3776.0980541462658948
 20
141.2342117263013961
 30
0.0
 40
0.077281795309464
 50
319.0779848926778186
 51
352.857016703730892
  0
ARC
  5
15A03
  8
0
 10
3776.1346508191518296
 20
141.2016080756851011
 30
0.0
 40
0.0282806562647188
 50
280.2551639403347963
 51
320.4221697263047872
  0
ARC
  5
15A04
  8
0
 10
3776.1401344367250204
 20
141.1978094692024968
 30
0.0
 40
0.0240344462512473
 50
204.8632353444666023
 51
268.9301635479191077
  0
ARC
  5
15A05
  8
0
 10
3776.1592619441298666
 20
141.2363167631554859
 30
0.0
 40
0.0664316862400074
 50
165.9911645258698911
 51
204.0134384935813046
  0
ARC
  5
15A06
  8
0
 10
3776.0374709221591729
 20
141.2258383333908967
 30
0.0
 40
0.0633180756997023
 50
344.8418822163920936
 51
24.8253688357683302
  0
ARC
  5
15A07
  8
0
 10
3776.1797073490911316
 20
138.8428952682170916
 30
0.0
 40
0.1244640640151086
 50
175.0415032676571059
 51
195.0772308462508988
  0
ARC
  5
15A08
  8
0
 10
3775.9353596645869402
 20
138.8213474171780888
 30
0.0
 40
0.1246393779980633
 50
355.0162405451130212
 51
15.0247132921546598
  0
LINE
  5
15A09
  8
0
 10
3776.0527230803099883
 20
138.8525231173933037
 30
0.0
 11
3776.0565732736417885
 21
138.8095041837378858
 31
0.0
  0
ARC
  5
15A0A
  8
0
 10
3776.160604996398888
 20
138.8592716908763975
 30
0.0
 40
0.1080927891354974
 50
173.2684693739819011
 51
183.5794840684577025
  0
ARC
  5
15A0B
  8
0
 10
3776.0554718119960853
 20
138.8716025617414118
 30
0.0
 40
0.00224031392069
 50
132.3673128713400899
 51
171.2844881753619859
  0
LINE
  5
15A0C
  8
0
 10
3776.0539621070270186
 20
138.8732577950788993
 30
0.0
 11
3776.1025592865739782
 21
138.8872315772736101
 31
0.0
  0
ARC
  5
15A0D
  8
0
 10
3776.122636949246953
 20
138.8793842634835869
 30
0.0
 40
0.03619550224984
 50
146.7999189563093125
 51
174.8373404361788914
  0
ARC
  5
15A0E
  8
0
 10
3776.0270334040160378
 20
138.8585364221954137
 30
0.0
 40
0.080793383770619
 50
12.3251391631642004
 51
31.0253554811832011
  0
ARC
  5
15A0F
  8
0
 10
3775.9427634875551121
 20
138.8379174429722127
 30
0.0
 40
0.1675362237007265
 50
355.0465240881580939
 51
13.0623459472366399
  0
ARC
  5
15A10
  8
0
 10
3775.9907282788799421
 20
138.8307562304414944
 30
0.0
 40
0.1191698139659684
 50
332.8646088183634788
 51
356.485615634713497
  0
ARC
  5
15A11
  8
0
 10
3776.0945093376199111
 20
138.7774438052065875
 30
0.0
 40
0.0024987325089363
 50
282.1658491706443783
 51
335.3969547431262868
  0
ARC
  5
15A12
  8
0
 10
3776.1089121287968737
 20
138.7905920581474959
 30
0.0
 40
0.0214740086251006
 50
186.6348755853591115
 51
222.1217235036367015
  0
ARC
  5
15A13
  8
0
 10
3776.073803073153158
 20
138.7986707368202133
 30
0.0
 40
0.0150103334058757
 50
190.8470169456267911
 51
210.3676291434740904
  0
ARC
  5
15A14
  8
0
 10
3776.0612736230759765
 20
138.7914693401874047
 30
0.0
 40
0.0005722000646107
 50
222.5611942848888987
 51
268.8080728711365168
  0
LINE
  5
15A15
  8
0
 10
3776.10143331429299
 20
138.786644557437711
 30
0.0
 11
3776.0612617204278649
 21
138.7908972639773992
 31
0.0
  0
ARC
  5
15A16
  8
0
 10
3776.2061151539769526
 20
138.8296855327992887
 30
0.0
 40
0.1508975176232956
 50
187.6858870957696013
 51
192.9590840887971126
  0
ARC
  5
15A17
  8
0
 10
3776.0967836825880113
 20
138.8951178988334902
 30
0.0
 40
0.0060292526441515
 50
111.9004151826579943
 51
137.3395890221792968
  0
ARC
  5
15A18
  8
0
 10
3776.0953580805307865
 20
138.8987017449074983
 30
0.0
 40
0.0021723436086941
 50
94.0755857904783994
 51
112.2705520920562066
  0
ARC
  5
15A19
  8
0
 10
3776.0949111886898208
 20
138.8992505478884141
 30
0.0
 40
0.0016442723663633
 50
34.3673458634168867
 51
79.7531703906427083
  0
ARC
  5
15A1A
  8
0
 10
3776.0962839618077851
 20
138.7795215458035045
 30
0.0
 40
0.0046894786286507
 50
225.2825579875973858
 51
254.565575801470203
  0
ARC
  5
15A1B
  8
0
 10
3776.180041380890998
 20
139.0955482925670879
 30
0.0
 40
0.1244640640151086
 50
175.0415032676571059
 51
195.0772308462508988
  0
ARC
  5
15A1C
  8
0
 10
3775.9356936963881708
 20
139.0740004415281987
 30
0.0
 40
0.1246393779980633
 50
355.0162405451130212
 51
15.0247132921546598
  0
LINE
  5
15A1D
  8
0
 10
3776.0530571121098546
 20
139.1051761417432999
 30
0.0
 11
3776.0569073054421096
 21
139.0621572080879105
 31
0.0
  0
ARC
  5
15A1E
  8
0
 10
3776.1609390281992091
 20
139.1119247152263938
 30
0.0
 40
0.1080927891354974
 50
173.2684693739819011
 51
183.5794840684577025
  0
ARC
  5
15A1F
  8
0
 10
3776.0558058437950422
 20
139.1242555860914081
 30
0.0
 40
0.00224031392069
 50
132.3673128713400899
 51
171.2844881753619859
  0
LINE
  5
15A20
  8
0
 10
3776.054296138826885
 20
139.1259108194288956
 30
0.0
 11
3776.1028933183738445
 21
139.1398846016236917
 31
0.0
  0
ARC
  5
15A21
  8
0
 10
3776.1229709810468194
 20
139.1320372878336116
 30
0.0
 40
0.03619550224984
 50
146.7999189563093125
 51
174.8373404361788914
  0
ARC
  5
15A22
  8
0
 10
3776.0273674358168137
 20
139.11118944654541
 30
0.0
 40
0.080793383770619
 50
12.3251391631642004
 51
31.0253554811832011
  0
ARC
  5
15A23
  8
0
 10
3775.9430975193549784
 20
139.090570467322209
 30
0.0
 40
0.1675362237007265
 50
355.0465240881580939
 51
13.0623459472366399
  0
ARC
  5
15A24
  8
0
 10
3775.9910623106798084
 20
139.0834092547914906
 30
0.0
 40
0.1191698139659684
 50
332.8646088183634788
 51
356.485615634713497
  0
ARC
  5
15A25
  8
0
 10
3776.094843369418868
 20
139.0300968295566122
 30
0.0
 40
0.0024987325089363
 50
282.1658491706443783
 51
335.3969547431262868
  0
ARC
  5
15A26
  8
0
 10
3776.1092461605981043
 20
139.0432450824974921
 30
0.0
 40
0.0214740086251006
 50
186.6348755853591115
 51
222.1217235036367015
  0
ARC
  5
15A27
  8
0
 10
3776.0741371049521149
 20
139.0513237611702095
 30
0.0
 40
0.0150103334058757
 50
190.8470169456267911
 51
210.3676291434740904
  0
ARC
  5
15A28
  8
0
 10
3776.0616076548758429
 20
139.0441223645374009
 30
0.0
 40
0.0005722000646107
 50
222.5611942848888987
 51
268.8080728711365168
  0
LINE
  5
15A29
  8
0
 10
3776.1017673460928563
 20
139.0392975817877073
 30
0.0
 11
3776.061595752228186
 21
139.0435502883273955
 31
0.0
  0
ARC
  5
15A2A
  8
0
 10
3776.2064491857768189
 20
139.0823385571493134
 30
0.0
 40
0.1508975176232956
 50
187.6858870957696013
 51
192.9590840887971126
  0
ARC
  5
15A2B
  8
0
 10
3776.0971177143878776
 20
139.1477709231834865
 30
0.0
 40
0.0060292526441515
 50
111.9004151826579943
 51
137.3395890221792968
  0
ARC
  5
15A2C
  8
0
 10
3776.0956921123301981
 20
139.1513547692574093
 30
0.0
 40
0.0021723436086941
 50
94.0755857904783994
 51
112.2705520920562066
  0
ARC
  5
15A2D
  8
0
 10
3776.0952452204910514
 20
139.1519035722384956
 30
0.0
 40
0.0016442723663633
 50
34.3673458634168867
 51
79.7531703906427083
  0
ARC
  5
15A2E
  8
0
 10
3776.0966179936071967
 20
139.0321745701535008
 30
0.0
 40
0.0046894786286507
 50
225.2825579875973858
 51
254.565575801470203
  0
ARC
  5
15A2F
  8
0
 10
3776.1803718430410299
 20
139.3482058685671063
 30
0.0
 40
0.1244640640151086
 50
175.0415032676571059
 51
195.0772308462508988
  0
ARC
  5
15A30
  8
0
 10
3775.9360241585382028
 20
139.3266580175281035
 30
0.0
 40
0.1246393779980633
 50
355.0162405451130212
 51
15.0247132921546598
  0
LINE
  5
15A31
  8
0
 10
3776.0533875742598866
 20
139.35783371774329
 30
0.0
 11
3776.0572377675921416
 21
139.3148147840879005
 31
0.0
  0
ARC
  5
15A32
  8
0
 10
3776.1612694903487863
 20
139.3645822912264123
 30
0.0
 40
0.1080927891354974
 50
173.2684693739819011
 51
183.5794840684577025
  0
ARC
  5
15A33
  8
0
 10
3776.0561363059450741
 20
139.3769131620915118
 30
0.0
 40
0.00224031392069
 50
132.3673128713400899
 51
171.2844881753619859
  0
LINE
  5
15A34
  8
0
 10
3776.054626600976917
 20
139.3785683954289141
 30
0.0
 11
3776.1032237805238765
 21
139.3925421776237101
 31
0.0
  0
ARC
  5
15A35
  8
0
 10
3776.1233014431968513
 20
139.3846948638336016
 30
0.0
 40
0.03619550224984
 50
146.7999189563093125
 51
174.8373404361788914
  0
ARC
  5
15A36
  8
0
 10
3776.0276978979659361
 20
139.3638470225454
 30
0.0
 40
0.080793383770619
 50
12.3251391631642004
 51
31.0253554811832011
  0
ARC
  5
15A37
  8
0
 10
3775.9434279815050104
 20
139.3432280433223127
 30
0.0
 40
0.1675362237007265
 50
355.0465240881580939
 51
13.0623459472366399
  0
ARC
  5
15A38
  8
0
 10
3775.9913927728312046
 20
139.3360668307915091
 30
0.0
 40
0.1191698139659684
 50
332.8646088183634788
 51
356.485615634713497
  0
ARC
  5
15A39
  8
0
 10
3776.0951738315688999
 20
139.2827544055566023
 30
0.0
 40
0.0024987325089363
 50
282.1658491706443783
 51
335.3969547431262868
  0
ARC
  5
15A3A
  8
0
 10
3776.1095766227472268
 20
139.2959026584975106
 30
0.0
 40
0.0214740086251006
 50
186.6348755853591115
 51
222.1217235036367015
  0
ARC
  5
15A3B
  8
0
 10
3776.0744675671021469
 20
139.3039813371701996
 30
0.0
 40
0.0150103334058757
 50
190.8470169456267911
 51
210.3676291434740904
  0
ARC
  5
15A3C
  8
0
 10
3776.0619381170267843
 20
139.2967799405373057
 30
0.0
 40
0.0005722000646107
 50
222.5611942848888987
 51
268.8080728711365168
  0
LINE
  5
15A3D
  8
0
 10
3776.1020978082428883
 20
139.2919551577876973
 30
0.0
 11
3776.061926214378218
 21
139.296207864327414
 31
0.0
  0
ARC
  5
15A3E
  8
0
 10
3776.2067796479268509
 20
139.3349961331493034
 30
0.0
 40
0.1508975176232956
 50
187.6858870957696013
 51
192.9590840887971126
  0
ARC
  5
15A3F
  8
0
 10
3776.0974481765379096
 20
139.400428499183505
 30
0.0
 40
0.0060292526441515
 50
111.9004151826579943
 51
137.3395890221792968
  0
ARC
  5
15A40
  8
0
 10
3776.0960225744797754
 20
139.4040123452573994
 30
0.0
 40
0.0021723436086941
 50
94.0755857904783994
 51
112.2705520920562066
  0
ARC
  5
15A41
  8
0
 10
3776.0955756826410834
 20
139.4045611482385141
 30
0.0
 40
0.0016442723663633
 50
34.3673458634168867
 51
79.7531703906427083
  0
ARC
  5
15A42
  8
0
 10
3776.0969484557567739
 20
139.2848321461534908
 30
0.0
 40
0.0046894786286507
 50
225.2825579875973858
 51
254.565575801470203
  0
ARC
  5
15A43
  8
0
 10
3776.1806987049408235
 20
139.6008677729670922
 30
0.0
 40
0.1244640640151086
 50
175.0415032676571059
 51
195.0772308462508988
  0
ARC
  5
15A44
  8
0
 10
3775.9363510204370868
 20
139.579319921928203
 30
0.0
 40
0.1246393779980633
 50
355.0162405451130212
 51
15.0247132921546598
  0
LINE
  5
15A45
  8
0
 10
3776.0537144361601349
 20
139.6104956221433042
 30
0.0
 11
3776.0575646294919352
 21
139.5674766884878863
 31
0.0
  0
ARC
  5
15A46
  8
0
 10
3776.1615963522490347
 20
139.6172441956263981
 30
0.0
 40
0.1080927891354974
 50
173.2684693739819011
 51
183.5794840684577025
  0
ARC
  5
15A47
  8
0
 10
3776.0564631678457772
 20
139.6295750664914124
 30
0.0
 40
0.00224031392069
 50
132.3673128713400899
 51
171.2844881753619859
  0
LINE
  5
15A48
  8
0
 10
3776.0549534628771653
 20
139.6312302998288999
 30
0.0
 11
3776.1035506424241248
 21
139.6452040820236107
 31
0.0
  0
ARC
  5
15A49
  8
0
 10
3776.1236283050970997
 20
139.6373567682335874
 30
0.0
 40
0.03619550224984
 50
146.7999189563093125
 51
174.8373404361788914
  0
ARC
  5
15A4A
  8
0
 10
3776.028024759867094
 20
139.6165089269453858
 30
0.0
 40
0.080793383770619
 50
12.3251391631642004
 51
31.0253554811832011
  0
ARC
  5
15A4B
  8
0
 10
3775.943754843404804
 20
139.5958899477222133
 30
0.0
 40
0.1675362237007265
 50
355.0465240881580939
 51
13.0623459472366399
  0
ARC
  5
15A4C
  8
0
 10
3775.9917196347309982
 20
139.5887287351914949
 30
0.0
 40
0.1191698139659684
 50
332.8646088183634788
 51
356.485615634713497
  0
ARC
  5
15A4D
  8
0
 10
3776.0955006934691482
 20
139.5354163099565881
 30
0.0
 40
0.0024987325089363
 50
282.1658491706443783
 51
335.3969547431262868
  0
ARC
  5
15A4E
  8
0
 10
3776.1099034846470204
 20
139.5485645628974964
 30
0.0
 40
0.0214740086251006
 50
186.6348755853591115
 51
222.1217235036367015
  0
ARC
  5
15A4F
  8
0
 10
3776.0747944290019404
 20
139.5566432415702138
 30
0.0
 40
0.0150103334058757
 50
190.8470169456267911
 51
210.3676291434740904
  0
ARC
  5
15A50
  8
0
 10
3776.0622649789270326
 20
139.5494418449374052
 30
0.0
 40
0.0005722000646107
 50
222.5611942848888987
 51
268.8080728711365168
  0
LINE
  5
15A51
  8
0
 10
3776.1024246701422271
 20
139.5446170621877116
 30
0.0
 11
3776.0622530762780116
 21
139.5488697687273998
 31
0.0
  0
ARC
  5
15A52
  8
0
 10
3776.2071065098270992
 20
139.5876580375492892
 30
0.0
 40
0.1508975176232956
 50
187.6858870957696013
 51
192.9590840887971126
  0
ARC
  5
15A53
  8
0
 10
3776.0977750384381579
 20
139.6530904035834908
 30
0.0
 40
0.0060292526441515
 50
111.9004151826579943
 51
137.3395890221792968
  0
ARC
  5
15A54
  8
0
 10
3776.0963494363800237
 20
139.6566742496574136
 30
0.0
 40
0.0021723436086941
 50
94.0755857904783994
 51
112.2705520920562066
  0
ARC
  5
15A55
  8
0
 10
3776.0959025445399675
 20
139.6572230526384999
 30
0.0
 40
0.0016442723663633
 50
34.3673458634168867
 51
79.7531703906427083
  0
ARC
  5
15A56
  8
0
 10
3776.0972753176579317
 20
139.5374940505535051
 30
0.0
 40
0.0046894786286507
 50
225.2825579875973858
 51
254.565575801470203
  0
ARC
  5
15A57
  8
0
 10
3776.1810219308918022
 20
139.8535337971671026
 30
0.0
 40
0.1244640640151086
 50
175.0415032676571059
 51
195.0772308462508988
  0
ARC
  5
15A58
  8
0
 10
3775.9366742463880655
 20
139.8319859461280998
 30
0.0
 40
0.1246393779980633
 50
355.0162405451130212
 51
15.0247132921546598
  0
LINE
  5
15A59
  8
0
 10
3776.0540376621102041
 20
139.8631616463432863
 30
0.0
 11
3776.0578878554420044
 21
139.8201427126878968
 31
0.0
  0
ARC
  5
15A5A
  8
0
 10
3776.1619195781991039
 20
139.8699102198264086
 30
0.0
 40
0.1080927891354974
 50
173.2684693739819011
 51
183.5794840684577025
  0
ARC
  5
15A5B
  8
0
 10
3776.0567863937949369
 20
139.8822410906913944
 30
0.0
 40
0.00224031392069
 50
132.3673128713400899
 51
171.2844881753619859
  0
LINE
  5
15A5C
  8
0
 10
3776.0552766888267797
 20
139.8838963240289104
 30
0.0
 11
3776.103873868374194
 21
139.8978701062235928
 31
0.0
  0
ARC
  5
15A5D
  8
0
 10
3776.1239515310471688
 20
139.8900227924335979
 30
0.0
 40
0.03619550224984
 50
146.7999189563093125
 51
174.8373404361788914
  0
ARC
  5
15A5E
  8
0
 10
3776.0283479858171631
 20
139.8691749511453111
 30
0.0
 40
0.080793383770619
 50
12.3251391631642004
 51
31.0253554811832011
  0
ARC
  5
15A5F
  8
0
 10
3775.9440780693548732
 20
139.8485559719221953
 30
0.0
 40
0.1675362237007265
 50
355.0465240881580939
 51
13.0623459472366399
  0
ARC
  5
15A60
  8
0
 10
3775.9920428606810674
 20
139.8413947593915054
 30
0.0
 40
0.1191698139659684
 50
332.8646088183634788
 51
356.485615634713497
  0
ARC
  5
15A61
  8
0
 10
3776.0958239194192174
 20
139.7880823341565986
 30
0.0
 40
0.0024987325089363
 50
282.1658491706443783
 51
335.3969547431262868
  0
ARC
  5
15A62
  8
0
 10
3776.1102267105970895
 20
139.8012305870975069
 30
0.0
 40
0.0214740086251006
 50
186.6348755853591115
 51
222.1217235036367015
  0
ARC
  5
15A63
  8
0
 10
3776.0751176549520096
 20
139.8093092657701959
 30
0.0
 40
0.0150103334058757
 50
190.8470169456267911
 51
210.3676291434740904
  0
ARC
  5
15A64
  8
0
 10
3776.0625882048761923
 20
139.802107869137302
 30
0.0
 40
0.0005722000646107
 50
222.5611942848888987
 51
268.8080728711365168
  0
LINE
  5
15A65
  8
0
 10
3776.1027478960932058
 20
139.7972830863876936
 30
0.0
 11
3776.0625763022280807
 21
139.8015357929274103
 31
0.0
  0
ARC
  5
15A66
  8
0
 10
3776.2074297357771684
 20
139.8403240617492997
 30
0.0
 40
0.1508975176232956
 50
187.6858870957696013
 51
192.9590840887971126
  0
ARC
  5
15A67
  8
0
 10
3776.0980982643882271
 20
139.9057564277835013
 30
0.0
 40
0.0060292526441515
 50
111.9004151826579943
 51
137.3395890221792968
  0
ARC
  5
15A68
  8
0
 10
3776.0966726623300929
 20
139.9093402738575094
 30
0.0
 40
0.0021723436086941
 50
94.0755857904783994
 51
112.2705520920562066
  0
ARC
  5
15A69
  8
0
 10
3776.0962257704909462
 20
139.9098890768383967
 30
0.0
 40
0.0016442723663633
 50
34.3673458634168867
 51
79.7531703906427083
  0
ARC
  5
15A6A
  8
0
 10
3776.0975985436080009
 20
139.7901600747534872
 30
0.0
 40
0.0046894786286507
 50
225.2825579875973858
 51
254.565575801470203
  0
ARC
  5
15A6B
  8
0
 10
3776.1810219308918022
 20
140.1055023011170988
 30
0.0
 40
0.1244640640151086
 50
175.0415032676571059
 51
195.0772308462508988
  0
ARC
  5
15A6C
  8
0
 10
3775.9366742463880655
 20
140.083954450078096
 30
0.0
 40
0.1246393779980633
 50
355.0162405451130212
 51
15.0247132921546598
  0
LINE
  5
15A6D
  8
0
 10
3776.0540376621102041
 20
140.1151301502933109
 30
0.0
 11
3776.0578878554420044
 21
140.072111216637893
 31
0.0
  0
ARC
  5
15A6E
  8
0
 10
3776.1619195781991039
 20
140.1218787237764047
 30
0.0
 40
0.1080927891354974
 50
173.2684693739819011
 51
183.5794840684577025
  0
ARC
  5
15A6F
  8
0
 10
3776.0567863937949369
 20
140.1342095946413906
 30
0.0
 40
0.00224031392069
 50
132.3673128713400899
 51
171.2844881753619859
  0
LINE
  5
15A70
  8
0
 10
3776.0552766888267797
 20
140.1358648279789065
 30
0.0
 11
3776.103873868374194
 21
140.1498386101735889
 31
0.0
  0
ARC
  5
15A71
  8
0
 10
3776.1239515310471688
 20
140.1419912963835941
 30
0.0
 40
0.03619550224984
 50
146.7999189563093125
 51
174.840663816336189
  0
ARC
  5
15A72
  8
0
 10
3776.0283479858171631
 20
140.1211434550953072
 30
0.0
 40
0.080793383770619
 50
12.3251391631642004
 51
31.0253554811832011
  0
ARC
  5
15A73
  8
0
 10
3775.9440780693548732
 20
140.1005244758723052
 30
0.0
 40
0.1675362237007265
 50
355.0465240881580939
 51
13.0623459472366399
  0
ARC
  5
15A74
  8
0
 10
3775.9920428606810674
 20
140.0933632633415016
 30
0.0
 40
0.1191698139659684
 50
332.8646088183634788
 51
356.485615634713497
  0
ARC
  5
15A75
  8
0
 10
3776.0958239194192174
 20
140.0400508381065947
 30
0.0
 40
0.0024987325089363
 50
282.1658491706443783
 51
335.3969547431262868
  0
ARC
  5
15A76
  8
0
 10
3776.1102267105970895
 20
140.0531990910475031
 30
0.0
 40
0.0214740086251006
 50
186.6348755853591115
 51
222.1217235036367015
  0
ARC
  5
15A77
  8
0
 10
3776.0751176549520096
 20
140.0612777697201921
 30
0.0
 40
0.0150103334058757
 50
190.8470169456267911
 51
210.3676291434740904
  0
ARC
  5
15A78
  8
0
 10
3776.0625882048761923
 20
140.0540763730872982
 30
0.0
 40
0.0005722000646107
 50
222.5611942848888987
 51
268.8080728711365168
  0
LINE
  5
15A79
  8
0
 10
3776.1027478960932058
 20
140.0492515903376898
 30
0.0
 11
3776.0625763022280807
 21
140.0535042968774064
 31
0.0
  0
ARC
  5
15A7A
  8
0
 10
3776.2074297357771684
 20
140.0922925656992959
 30
0.0
 40
0.1508975176232956
 50
187.6858870957696013
 51
192.9590840887971126
  0
ARC
  5
15A7B
  8
0
 10
3776.0980982643882271
 20
140.1577249317334974
 30
0.0
 40
0.0060292526441515
 50
111.9004151826579943
 51
137.3395890221792968
  0
ARC
  5
15A7C
  8
0
 10
3776.0966726623300929
 20
140.1613087778073918
 30
0.0
 40
0.0021723436086941
 50
94.0755857904783994
 51
112.2705520920562066
  0
ARC
  5
15A7D
  8
0
 10
3776.0962257704909462
 20
140.1618575807883929
 30
0.0
 40
0.0016442723663633
 50
34.3673458634168867
 51
79.7531703906427083
  0
ARC
  5
15A7E
  8
0
 10
3776.0975985436080009
 20
140.0421285787035117
 30
0.0
 40
0.0046894786286507
 50
225.2825579875973858
 51
254.565575801470203
  0
ARC
  5
15A7F
  8
0
 10
3776.1813414808912057
 20
140.3581722512170984
 30
0.0
 40
0.1244640640151086
 50
175.0415032676571059
 51
195.0772308462508988
  0
ARC
  5
15A80
  8
0
 10
3775.9369937963879238
 20
140.3366244001782093
 30
0.0
 40
0.1246393779980633
 50
355.0162405451130212
 51
15.0247132921546598
  0
LINE
  5
15A81
  8
0
 10
3776.0543572121100624
 20
140.3678001003933105
 30
0.0
 11
3776.0582074054418626
 21
140.3247811667378926
 31
0.0
  0
ARC
  5
15A82
  8
0
 10
3776.1622391281989621
 20
140.3745486738764043
 30
0.0
 40
0.1080927891354974
 50
173.2684693739819011
 51
183.5794840684577025
  0
ARC
  5
15A83
  8
0
 10
3776.0571059437947952
 20
140.3868795447413902
 30
0.0
 40
0.00224031392069
 50
132.3673128713400899
 51
171.2844881753619859
  0
LINE
  5
15A84
  8
0
 10
3776.0555962388270927
 20
140.3885347780789061
 30
0.0
 11
3776.1041934183749618
 21
140.4025085602737022
 31
0.0
  0
ARC
  5
15A85
  8
0
 10
3776.1242710810470271
 20
140.3946612464835937
 30
0.0
 40
0.03619550224984
 50
146.7999189563093125
 51
174.8406638163394859
  0
ARC
  5
15A86
  8
0
 10
3776.0286675358161119
 20
140.3738134051953921
 30
0.0
 40
0.080793383770619
 50
12.3251391631642004
 51
31.0253554811832011
  0
ARC
  5
15A87
  8
0
 10
3775.9443976193551862
 20
140.3531944259721911
 30
0.0
 40
0.1675362237007265
 50
355.0465240881580939
 51
13.0623459472366399
  0
ARC
  5
15A88
  8
0
 10
3775.9923624106809257
 20
140.3460332134415012
 30
0.0
 40
0.1191698139659684
 50
332.8646088183634788
 51
356.485615634713497
  0
ARC
  5
15A89
  8
0
 10
3776.0961434694190757
 20
140.2927207882065943
 30
0.0
 40
0.0024987325089363
 50
282.1658491706443783
 51
335.3969547431262868
  0
ARC
  5
15A8A
  8
0
 10
3776.1105462605969478
 20
140.3058690411475027
 30
0.0
 40
0.0214740086251006
 50
186.6348755853591115
 51
222.1217235036367015
  0
ARC
  5
15A8B
  8
0
 10
3776.0754372049518679
 20
140.3139477198201917
 30
0.0
 40
0.0150103334058757
 50
190.8470169456267911
 51
210.3676291434740904
  0
ARC
  5
15A8C
  8
0
 10
3776.0629077548769601
 20
140.3067463231874115
 30
0.0
 40
0.0005722000646107
 50
222.5611942848888987
 51
268.8080728711365168
  0
LINE
  5
15A8D
  8
0
 10
3776.1030674460921546
 20
140.3019215404376894
 30
0.0
 11
3776.0628958522270295
 21
140.306174246977406
 31
0.0
  0
ARC
  5
15A8E
  8
0
 10
3776.2077492857761172
 20
140.3449625157992955
 30
0.0
 40
0.1508975176232956
 50
187.6858870957696013
 51
192.9590840887971126
  0
ARC
  5
15A8F
  8
0
 10
3776.0984178143880854
 20
140.410394881833497
 30
0.0
 40
0.0060292526441515
 50
111.9004151826579943
 51
137.3395890221792968
  0
ARC
  5
15A90
  8
0
 10
3776.0969922123299511
 20
140.4139787279075051
 30
0.0
 40
0.0021723436086941
 50
94.0755857904783994
 51
112.2705520920562066
  0
ARC
  5
15A91
  8
0
 10
3776.0965453204898949
 20
140.4145275308883924
 30
0.0
 40
0.0016442723663633
 50
34.3673458634168867
 51
79.7531703906427083
  0
ARC
  5
15A92
  8
0
 10
3776.0979180936078592
 20
140.2947985288035966
 30
0.0
 40
0.0046894786286507
 50
225.2825579875973858
 51
254.565575801470203
  0
ARC
  5
15A93
  8
0
 10
3776.1816561300411195
 20
140.6108457594671108
 30
0.0
 40
0.1244640640151086
 50
175.0415032676571059
 51
195.0772308462508988
  0
ARC
  5
15A94
  8
0
 10
3775.9373084455378375
 20
140.589297908428108
 30
0.0
 40
0.1246393779980633
 50
355.0162405451130212
 51
15.0247132921546598
  0
LINE
  5
15A95
  8
0
 10
3776.0546718612599761
 20
140.6204736086432945
 30
0.0
 11
3776.0585220545917764
 21
140.577454674987905
 31
0.0
  0
ARC
  5
15A96
  8
0
 10
3776.1625537773488759
 20
140.6272221821263884
 30
0.0
 40
0.1080927891354974
 50
173.2684693739819011
 51
183.5794840684577025
  0
ARC
  5
15A97
  8
0
 10
3776.0574205929451637
 20
140.6395530529914879
 30
0.0
 40
0.00224031392069
 50
132.3673128713400899
 51
171.2844881753619859
  0
LINE
  5
15A98
  8
0
 10
3776.0559108879770065
 20
140.6412082863290038
 30
0.0
 11
3776.104508067523966
 21
140.6551820685236862
 31
0.0
  0
ARC
  5
15A99
  8
0
 10
3776.1245857301969409
 20
140.6473347547336061
 30
0.0
 40
0.03619550224984
 50
146.7999189563093125
 51
174.840663816336189
  0
ARC
  5
15A9A
  8
0
 10
3776.0289821849660257
 20
140.6264869134452908
 30
0.0
 40
0.080793383770619
 50
12.3251391631642004
 51
31.0253554811832011
  0
ARC
  5
15A9B
  8
0
 10
3775.9447122685050999
 20
140.6058679342222888
 30
0.0
 40
0.1675362237007265
 50
355.0465240881580939
 51
13.0623459472366399
  0
ARC
  5
15A9C
  8
0
 10
3775.9926770598308394
 20
140.5987067216915136
 30
0.0
 40
0.1191698139659684
 50
332.8646088183634788
 51
356.485615634713497
  0
ARC
  5
15A9D
  8
0
 10
3776.0964581185689894
 20
140.5453942964566068
 30
0.0
 40
0.0024987325089363
 50
282.1658491706443783
 51
335.3969547431262868
  0
ARC
  5
15A9E
  8
0
 10
3776.1108609097468616
 20
140.5585425493974867
 30
0.0
 40
0.0214740086251006
 50
186.6348755853591115
 51
222.1217235036367015
  0
ARC
  5
15A9F
  8
0
 10
3776.0757518541017816
 20
140.5666212280702041
 30
0.0
 40
0.0150103334058757
 50
190.8470169456267911
 51
210.3676291434740904
  0
ARC
  5
15AA0
  8
0
 10
3776.0632224040259644
 20
140.5594198314373102
 30
0.0
 40
0.0005722000646107
 50
222.5611942848888987
 51
268.8080728711365168
  0
LINE
  5
15AA1
  8
0
 10
3776.1033820952420683
 20
140.5545950486877018
 30
0.0
 11
3776.0632105013778528
 21
140.5588477552273901
 31
0.0
  0
ARC
  5
15AA2
  8
0
 10
3776.2080639349269404
 20
140.5976360240493079
 30
0.0
 40
0.1508975176232956
 50
187.6858870957696013
 51
192.9590840887971126
  0
ARC
  5
15AA3
  8
0
 10
3776.0987324635370896
 20
140.6630683900835095
 30
0.0
 40
0.0060292526441515
 50
111.9004151826579943
 51
137.3395890221792968
  0
ARC
  5
15AA4
  8
0
 10
3776.0973068614798649
 20
140.6666522361574891
 30
0.0
 40
0.0021723436086941
 50
94.0755857904783994
 51
112.2705520920562066
  0
ARC
  5
15AA5
  8
0
 10
3776.0968599696411729
 20
140.6672010391384902
 30
0.0
 40
0.0016442723663633
 50
34.3673458634168867
 51
79.7531703906427083
  0
ARC
  5
15AA6
  8
0
 10
3776.0982327427577729
 20
140.5474720370534953
 30
0.0
 40
0.0046894786286507
 50
225.2825579875973858
 51
254.565575801470203
  0
ARC
  5
15AA7
  8
0
 10
3776.1819630936911381
 20
140.8635223364670992
 30
0.0
 40
0.1244640640151086
 50
175.0415032676571059
 51
195.0772308462508988
  0
ARC
  5
15AA8
  8
0
 10
3775.9376154091869466
 20
140.8419744854282101
 30
0.0
 40
0.1246393779980633
 50
355.0162405451130212
 51
15.0247132921546598
  0
LINE
  5
15AA9
  8
0
 10
3776.0549788249099947
 20
140.8731501856433113
 30
0.0
 11
3776.058829018241795
 21
140.8301312519878934
 31
0.0
  0
ARC
  5
15AAA
  8
0
 10
3776.1628607409988945
 20
140.8798987591264051
 30
0.0
 40
0.1080927891354974
 50
173.2684693739819011
 51
183.5794840684577025
  0
ARC
  5
15AAB
  8
0
 10
3776.0577275565951823
 20
140.8922296299915047
 30
0.0
 40
0.00224031392069
 50
132.3673128713400899
 51
171.2844881753619859
  0
LINE
  5
15AAC
  8
0
 10
3776.0562178516270251
 20
140.8938848633289069
 30
0.0
 11
3776.1048150311748941
 21
140.907858645523703
 31
0.0
  0
ARC
  5
15AAD
  8
0
 10
3776.1248926938469594
 20
140.9000113317335945
 30
0.0
 40
0.03619550224984
 50
146.7999189563093125
 51
174.8373404361788914
  0
ARC
  5
15AAE
  8
0
 10
3776.0292891486160443
 20
140.8791634904453076
 30
0.0
 40
0.080793383770619
 50
12.3251391631642004
 51
31.0253554811832011
  0
ARC
  5
15AAF
  8
0
 10
3775.9450192321551185
 20
140.8585445112223056
 30
0.0
 40
0.1675362237007265
 50
355.0465240881580939
 51
13.0623459472366399
  0
ARC
  5
15AB0
  8
0
 10
3775.9929840234799485
 20
140.851383298691502
 30
0.0
 40
0.1191698139659684
 50
332.8646088183634788
 51
356.485615634713497
  0
ARC
  5
15AB1
  8
0
 10
3776.096765082219008
 20
140.7980708734565951
 30
0.0
 40
0.0024987325089363
 50
282.1658491706443783
 51
335.3969547431262868
  0
ARC
  5
15AB2
  8
0
 10
3776.1111678733968802
 20
140.8112191263975035
 30
0.0
 40
0.0214740086251006
 50
186.6348755853591115
 51
222.1217235036367015
  0
ARC
  5
15AB3
  8
0
 10
3776.0760588177531645
 20
140.8192978050701925
 30
0.0
 40
0.0150103334058757
 50
190.8470169456267911
 51
210.3676291434740904
  0
ARC
  5
15AB4
  8
0
 10
3776.0635293676759829
 20
140.8120964084372986
 30
0.0
 40
0.0005722000646107
 50
222.5611942848888987
 51
268.8080728711365168
  0
LINE
  5
15AB5
  8
0
 10
3776.1036890588920869
 20
140.8072716256876902
 30
0.0
 11
3776.0635174650278714
 21
140.8115243322274068
 31
0.0
  0
ARC
  5
15AB6
  8
0
 10
3776.2083708985760495
 20
140.8503126010492963
 30
0.0
 40
0.1508975176232956
 50
187.6858870957696013
 51
192.9590840887971126
  0
ARC
  5
15AB7
  8
0
 10
3776.0990394271880177
 20
140.9157449670834978
 30
0.0
 40
0.0060292526441515
 50
111.9004151826579943
 51
137.3395890221792968
  0
ARC
  5
15AB8
  8
0
 10
3776.0976138251298835
 20
140.9193288131573922
 30
0.0
 40
0.0021723436086941
 50
94.0755857904783994
 51
112.2705520920562066
  0
ARC
  5
15AB9
  8
0
 10
3776.0971669332898273
 20
140.9198776161385069
 30
0.0
 40
0.0016442723663633
 50
34.3673458634168867
 51
79.7531703906427083
  0
ARC
  5
15ABA
  8
0
 10
3776.0985397064077915
 20
140.8001486140535121
 30
0.0
 40
0.0046894786286507
 50
225.2825579875973858
 51
254.565575801470203
  0
ARC
  5
15ABB
  8
0
 10
3776.1793697734910893
 20
141.3620644717387904
 30
0.0
 40
0.1244640640151086
 50
175.0415032676571059
 51
195.0772308462508988
  0
ARC
  5
15ABC
  8
0
 10
3775.9350220889868979
 20
141.3405166206997876
 30
0.0
 40
0.1246393779980633
 50
355.0162405451130212
 51
15.0247132921546598
  0
LINE
  5
15ABD
  8
0
 10
3776.052385504709946
 20
141.3716923209148888
 30
0.0
 11
3776.056235698042201
 21
141.328673387259613
 31
0.0
  0
ARC
  5
15ABE
  8
0
 10
3776.1602674207988457
 20
141.3784408943980964
 30
0.0
 40
0.1080927891354974
 50
173.2684693739819011
 51
183.5794840684577025
  0
ARC
  5
15ABF
  8
0
 10
3776.055134236396043
 20
141.3907717652631106
 30
0.0
 40
0.00224031392069
 50
132.3673128713400899
 51
171.2844881753619859
  0
LINE
  5
15AC0
  8
0
 10
3776.0536245314269763
 20
141.3924269986005982
 30
0.0
 11
3776.1022217109739358
 21
141.4064007807953089
 31
0.0
  0
ARC
  5
15AC1
  8
0
 10
3776.1222993736469107
 20
141.3985534670052004
 30
0.0
 40
0.03619550224984
 50
146.7999189563093125
 51
174.8373404361788914
  0
ARC
  5
15AC2
  8
0
 10
3776.0266958284159955
 20
141.3777056257169988
 30
0.0
 40
0.080793383770619
 50
12.3251391631642004
 51
31.0253554811832011
  0
ARC
  5
15AC3
  8
0
 10
3775.9424259119550698
 20
141.3570866464939115
 30
0.0
 40
0.1675362237007265
 50
355.0465240881580939
 51
13.0623459472366399
  0
ARC
  5
15AC4
  8
0
 10
3775.9903907032808092
 20
141.3499254339631932
 30
0.0
 40
0.1191698139659684
 50
332.8646088183634788
 51
356.485615634713497
  0
ARC
  5
15AC5
  8
0
 10
3776.0941717620189593
 20
141.2966130087282863
 30
0.0
 40
0.0024987325089363
 50
282.1658491706443783
 51
335.3969547431262868
  0
ARC
  5
15AC6
  8
0
 10
3776.1085745531968314
 20
141.3097612616691094
 30
0.0
 40
0.0214740086251006
 50
186.6348755853591115
 51
222.1217235036367015
  0
ARC
  5
15AC7
  8
0
 10
3776.0734654975522062
 20
141.3178399403417984
 30
0.0
 40
0.0150103334058757
 50
190.8470169456267911
 51
210.3676291434740904
  0
ARC
  5
15AC8
  8
0
 10
3776.0609360474768437
 20
141.3106385437089898
 30
0.0
 40
0.0005722000646107
 50
222.5611942848888987
 51
268.8080728711365168
  0
LINE
  5
15AC9
  8
0
 10
3776.1010957386920381
 20
141.3058137609594098
 30
0.0
 11
3776.0609241448278226
 21
141.3100664674990128
 31
0.0
  0
ARC
  5
15ACA
  8
0
 10
3776.2057775783769102
 20
141.3488547363209875
 30
0.0
 40
0.1508975176232956
 50
187.6858870957696013
 51
192.9590840887971126
  0
ARC
  5
15ACB
  8
0
 10
3776.0964461069888785
 20
141.4142871023551891
 30
0.0
 40
0.0060292526441515
 50
111.9004151826579943
 51
137.3395890221792968
  0
ARC
  5
15ACC
  8
0
 10
3776.094870645104038
 20
141.4178654773658934
 30
0.0
 40
0.0021252787025965
 50
90.1222301034767526
 51
108.4731487516893935
  0
ARC
  5
15ACD
  8
0
 10
3776.0947585188851008
 20
141.4186093227548895
 30
0.0
 40
0.0013856120480604
 50
32.2124680703944506
 51
85.5465181869671767
  0
ARC
  5
15ACE
  8
0
 10
3776.0959463862068333
 20
141.2986907493252033
 30
0.0
 40
0.0046894786286507
 50
225.2825579875973858
 51
254.565575801470203
  0
ARC
  5
15ACF
  8
0
 10
3776.1766044501518991
 20
141.1162280285923885
 30
0.0
 40
0.1244640640151086
 50
175.0415032676571059
 51
195.0772308462508988
  0
ARC
  5
15AD0
  8
0
 10
3775.9322567656481624
 20
141.0946801775534993
 30
0.0
 40
0.1246393779980633
 50
355.0162405451130212
 51
15.0247132921546598
  0
LINE
  5
15AD1
  8
0
 10
3776.0496201813698463
 20
141.1258558777686005
 30
0.0
 11
3776.0534703747021013
 21
141.0828369441132963
 31
0.0
  0
ARC
  5
15AD2
  8
0
 10
3776.1575020974592007
 20
141.1326044512516944
 30
0.0
 40
0.1080927891354974
 50
173.2684693739819011
 51
183.5794840684577025
  0
ARC
  5
15AD3
  8
0
 10
3776.0523689130550338
 20
141.1449353221167939
 30
0.0
 40
0.00224031392069
 50
132.3673128713400899
 51
171.2844881753619859
  0
LINE
  5
15AD4
  8
0
 10
3776.0508592080868766
 20
141.1465905554543099
 30
0.0
 11
3776.0994563876352004
 21
141.1605643376489923
 31
0.0
  0
ARC
  5
15AD5
  8
0
 10
3776.119534050306811
 20
141.1527170238589122
 30
0.0
 40
0.03619550224984
 50
146.7999189563093125
 51
174.8373404361788914
  0
ARC
  5
15AD6
  8
0
 10
3776.0239305050768053
 20
141.1318691825707106
 30
0.0
 40
0.080793383770619
 50
12.3251391631642004
 51
31.0253554811832011
  0
ARC
  5
15AD7
  8
0
 10
3775.93966058861497
 20
141.1112502033475948
 30
0.0
 40
0.1675362237007265
 50
355.0465240881580939
 51
13.0623459472366399
  0
ARC
  5
15AD8
  8
0
 10
3775.9876253799398
 20
141.1040889908169049
 30
0.0
 40
0.1191698139659684
 50
332.8646088183634788
 51
356.485615634713497
  0
ARC
  5
15AD9
  8
0
 10
3776.0914064386788596
 20
141.0507765655819981
 30
0.0
 40
0.0024987325089363
 50
282.1658491706443783
 51
335.3969547431262868
  0
ARC
  5
15ADA
  8
0
 10
3776.1058092298580959
 20
141.0639248185227927
 30
0.0
 40
0.0214740086251006
 50
186.6348755853591115
 51
222.1217235036367015
  0
ARC
  5
15ADB
  8
0
 10
3776.0707001742121065
 20
141.0720034971955101
 30
0.0
 40
0.0150103334058757
 50
190.8470169456267911
 51
210.3676291434740904
  0
ARC
  5
15ADC
  8
0
 10
3776.0581707241358345
 20
141.0648021005627015
 30
0.0
 40
0.0005722000646107
 50
222.5611942848888987
 51
268.8080728711365168
  0
LINE
  5
15ADD
  8
0
 10
3776.0983304153528479
 20
141.0599773178130931
 30
0.0
 11
3776.0581588214881776
 21
141.0642300243526961
 31
0.0
  0
ARC
  5
15ADE
  8
0
 10
3776.2030122550368105
 20
141.103018293174614
 30
0.0
 40
0.1508975176232956
 50
187.6858870957696013
 51
192.9590840887971126
  0
ARC
  5
15ADF
  8
0
 10
3776.0936807836478692
 20
141.1684506592087871
 30
0.0
 40
0.0060292526441515
 50
111.9004151826579943
 51
137.3395890221792968
  0
ARC
  5
15AE0
  8
0
 10
3776.0922551815901897
 20
141.1720345052827952
 30
0.0
 40
0.0021723436086941
 50
94.0755857904783994
 51
112.2705520920562066
  0
ARC
  5
15AE1
  8
0
 10
3776.091808289751043
 20
141.1725833082637962
 30
0.0
 40
0.0016442723663633
 50
34.3673458634168867
 51
79.7531703906427083
  0
ARC
  5
15AE2
  8
0
 10
3776.0931810628680978
 20
141.0528543061788866
 30
0.0
 40
0.0046894786286507
 50
225.2825579875973858
 51
254.565575801470203
  0
LINE
  5
15AE3
  8
0
 10
3776.0459535506711291
 20
138.9171963550778912
 30
0.0
 11
3776.0387477608701374
 21
138.9995589088779013
 31
0.0
  0
LINE
  5
15AE4
  8
0
 10
3776.0387477608701374
 20
138.9995589088779013
 30
0.0
 11
3776.0757083579687787
 21
139.0101571895050085
 31
0.0
  0
LINE
  5
15AE5
  8
0
 10
3776.0459535506711291
 20
138.9171963550778912
 30
0.0
 11
3776.0753806925517893
 21
138.9141034378473023
 31
0.0
  0
LINE
  5
15AE6
  8
0
 10
3776.0456284188198879
 20
139.1702668666779061
 30
0.0
 11
3776.03842262902117
 21
139.2526294204778878
 31
0.0
  0
LINE
  5
15AE7
  8
0
 10
3776.03842262902117
 20
139.2526294204778878
 30
0.0
 11
3776.075666781567179
 21
139.2633090093210058
 31
0.0
  0
LINE
  5
15AE8
  8
0
 10
3776.0456284188198879
 20
139.1702668666779061
 30
0.0
 11
3776.0754143026101701
 21
139.1671362441535962
 31
0.0
  0
LINE
  5
15AE9
  8
0
 10
3776.045301696270144
 20
139.4233346523778891
 30
0.0
 11
3776.0380959064700619
 21
139.5056972061778993
 31
0.0
  0
LINE
  5
15AEA
  8
0
 10
3776.0380959064700619
 20
139.5056972061778993
 30
0.0
 11
3776.0756401697240108
 21
139.5164628503810036
 31
0.0
  0
LINE
  5
15AEB
  8
0
 10
3776.045301696270144
 20
139.4233346523778891
 30
0.0
 11
3776.0755155445040145
 21
139.4201590489782063
 31
0.0
  0
LINE
  5
15AEC
  8
0
 10
3776.0449739219211551
 20
139.6763994187778906
 30
0.0
 11
3776.0377681321201635
 21
139.7587619725779007
 31
0.0
  0
LINE
  5
15AED
  8
0
 10
3776.0377681321201635
 20
139.7587619725779007
 30
0.0
 11
3776.0755872655968233
 21
139.7696064345487912
 31
0.0
  0
LINE
  5
15AEE
  8
0
 10
3776.0449739219211551
 20
139.6763994187778906
 30
0.0
 11
3776.07303578157007
 21
139.6734499984916056
 31
0.0
  0
LINE
  5
15AEF
  8
0
 10
3776.0445803376201184
 20
139.9279971380778989
 30
0.0
 11
3776.0373745478200362
 21
140.0103596918777953
 31
0.0
  0
LINE
  5
15AF0
  8
0
 10
3776.0373745478200362
 20
140.0103596918777953
 30
0.0
 11
3776.0756160338200971
 21
140.0213252614854014
 31
0.0
  0
LINE
  5
15AF1
  8
0
 10
3776.0445803376201184
 20
139.9279971380778989
 30
0.0
 11
3776.0754314235750826
 21
139.9247545582952057
 31
0.0
  0
LINE
  5
15AF2
  8
0
 10
3776.0451426134700341
 20
140.1795936257279038
 30
0.0
 11
3776.037936823669952
 21
140.2619561795279139
 31
0.0
  0
LINE
  5
15AF3
  8
0
 10
3776.037936823669952
 20
140.2619561795279139
 30
0.0
 11
3776.0757225647630548
 21
140.2727910663869864
 31
0.0
  0
LINE
  5
15AF4
  8
0
 10
3776.0451426134700341
 20
140.1795936257279038
 30
0.0
 11
3776.0753358889987794
 21
140.1764201846065987
 31
0.0
  0
LINE
  5
15AF5
  8
0
 10
3776.0438558741211637
 20
140.4326500622779008
 30
0.0
 11
3776.036650084320172
 21
140.5150126160779109
 31
0.0
  0
LINE
  5
15AF6
  8
0
 10
3776.036650084320172
 20
140.5150126160779109
 30
0.0
 11
3776.0756625591070588
 21
140.5261992631616863
 31
0.0
  0
LINE
  5
15AF7
  8
0
 10
3776.0438558741211637
 20
140.4326500622779008
 30
0.0
 11
3776.0753555894220881
 21
140.4293393088038897
 31
0.0
  0
LINE
  5
15AF8
  8
0
 10
3776.0435249557699535
 20
140.6857023678279006
 30
0.0
 11
3776.0363191659698714
 21
140.7680649216279107
 31
0.0
  0
LINE
  5
15AF9
  8
0
 10
3776.0363191659698714
 20
140.7680649216279107
 30
0.0
 11
3776.0756255357769078
 21
140.7793358417521006
 31
0.0
  0
LINE
  5
15AFA
  8
0
 10
3776.0435249557699535
 20
140.6857023678279006
 30
0.0
 11
3776.0753837890988507
 21
140.6823538695286118
 31
0.0
  0
LINE
  5
15AFB
  8
0
 10
3776.0495564232710421
 20
140.9392184084433097
 30
0.0
 11
3776.04235063347096
 21
141.0215809622432062
 31
0.0
  0
LINE
  5
15AFC
  8
0
 10
3776.04235063347096
 20
141.0215809622432062
 30
0.0
 11
3776.0756552959887813
 21
141.0311309205033865
 31
0.0
  0
LINE
  5
15AFD
  8
0
 10
3776.0495564232710421
 20
140.9392184084433097
 30
0.0
 11
3776.0755634719339469
 21
140.9364849574934055
 31
0.0
  0
LINE
  5
15AFE
  8
0
 10
3776.0498784200199225
 20
141.1922912948932947
 30
0.0
 11
3776.0426726302212046
 21
141.2746538486933048
 31
0.0
  0
LINE
  5
15AFF
  8
0
 10
3776.0426726302212046
 20
141.2746538486933048
 30
0.0
 11
3776.0750374419590116
 21
141.2839343090801947
 31
0.0
  0
LINE
  5
15B00
  8
0
 10
3776.0498784200199225
 20
141.1922912948932947
 30
0.0
 11
3776.0761299875580335
 21
141.1895321439741906
 31
0.0
  0
LINE
  5
15B01
  8
0
 10
3776.07303578157007
 20
138.6261911314329041
 30
0.0
 11
3776.0730460495701664
 21
138.6405366104328891
 31
0.0
  0
ARC
  5
15B02
  8
0
 10
3775.5337831740121146
 20
138.711329333882901
 30
0.0
 40
0.543889129147955
 50
352.5133489959144981
 51
7.486651004084778
  0
LINE
  5
15B03
  8
0
 10
3776.07303578157007
 20
138.7896508203589008
 30
0.0
 11
3776.07303578157007
 21
138.7821954756329035
 31
0.0
  0
LINE
  5
15B04
  8
0
 10
3776.07303578157007
 20
138.8788402062328942
 30
0.0
 11
3776.0730460495701664
 21
138.8931856852329076
 31
0.0
  0
ARC
  5
15B05
  8
0
 10
3775.5337831740121146
 20
138.9639784086828911
 30
0.0
 40
0.543889129147955
 50
352.5133489959144981
 51
7.486651004084778
  0
LINE
  5
15B06
  8
0
 10
3776.07303578157007
 20
139.0422998951588909
 30
0.0
 11
3776.07303578157007
 21
139.0348445504328936
 31
0.0
  0
LINE
  5
15B07
  8
0
 10
3776.07303578157007
 20
139.1315066807329117
 30
0.0
 11
3776.0730460495701664
 21
139.1458521597328968
 31
0.0
  0
ARC
  5
15B08
  8
0
 10
3775.5337831740121146
 20
139.2166448831829086
 30
0.0
 40
0.543889129147955
 50
352.5133489959144981
 51
7.486651004084778
  0
LINE
  5
15B09
  8
0
 10
3776.07303578157007
 20
139.2949663696589084
 30
0.0
 11
3776.07303578157007
 21
139.2875110249329111
 31
0.0
  0
LINE
  5
15B0A
  8
0
 10
3776.0730774915600705
 20
139.3838738211491943
 30
0.0
 11
3776.0730877595588026
 21
139.3982193001492078
 31
0.0
  0
ARC
  5
15B0B
  8
0
 10
3775.5338248840012056
 20
139.4690120235991913
 30
0.0
 40
0.543889129147955
 50
352.5133489959144981
 51
7.486651004084778
  0
LINE
  5
15B0C
  8
0
 10
3776.0730774915600705
 20
139.5477238579674122
 30
0.0
 11
3776.0730774915600705
 21
139.5398781653491938
 31
0.0
  0
LINE
  5
15B0D
  8
0
 10
3776.073035452241129
 20
139.6364296505603022
 30
0.0
 11
3776.0730460495701664
 21
139.6512352375328874
 31
0.0
  0
ARC
  5
15B0E
  8
0
 10
3775.5337831740121146
 20
139.7220279609828992
 30
0.0
 40
0.543889129147955
 50
352.5133489959144981
 51
7.486651004084778
  0
LINE
  5
15B0F
  8
0
 10
3776.07303578157007
 20
139.8004285155724062
 30
0.0
 11
3776.07303578157007
 21
139.7928941027329017
 31
0.0
  0
LINE
  5
15B10
  8
0
 10
3776.0730358284599788
 20
139.8890028415578115
 30
0.0
 11
3776.0730460495701664
 21
139.9032828095963907
 31
0.0
  0
ARC
  5
15B11
  8
0
 10
3775.5337831740121146
 20
139.9740755330464026
 30
0.0
 40
0.543889129147955
 50
352.5133489959144981
 51
7.486651004084778
  0
LINE
  5
15B12
  8
0
 10
3776.07303578157007
 20
140.0523970195224024
 30
0.0
 11
3776.07303578157007
 21
140.0449416747964051
 31
0.0
  0
LINE
  5
15B13
  8
0
 10
3776.0730353020680923
 20
140.1409711941471983
 30
0.0
 11
3776.0730460495701664
 21
140.1559865883859004
 31
0.0
  0
ARC
  5
15B14
  8
0
 10
3775.5337831740121146
 20
140.2267793118359123
 30
0.0
 40
0.543889129147955
 50
352.5133489959144981
 51
7.486651004084778
  0
LINE
  5
15B15
  8
0
 10
3776.07303578157007
 20
140.3051007983119121
 30
0.0
 11
3776.07303578157007
 21
140.2976454535858863
 31
0.0
  0
LINE
  5
15B16
  8
0
 10
3776.073035209893078
 20
140.3935492333548041
 30
0.0
 11
3776.0730460495701664
 21
140.4086934065041135
 31
0.0
  0
ARC
  5
15B17
  8
0
 10
3775.5337831740121146
 20
140.4794861299540969
 30
0.0
 40
0.543889129147955
 50
352.5133489959144981
 51
7.486651004084778
  0
LINE
  5
15B18
  8
0
 10
3776.07303578157007
 20
140.5578076164300967
 30
0.0
 11
3776.07303578157007
 21
140.5503522717040994
 31
0.0
  0
LINE
  5
15B19
  8
0
 10
3776.0730351196580159
 20
140.6461322404761916
 30
0.0
 11
3776.0730460495701664
 21
140.661402479758209
 31
0.0
  0
ARC
  5
15B1A
  8
0
 10
3775.5337831740121146
 20
140.7321952032081924
 30
0.0
 40
0.543889129147955
 50
352.5133489959144981
 51
7.486651004084778
  0
LINE
  5
15B1B
  8
0
 10
3776.07303578157007
 20
140.8105166896841922
 30
0.0
 11
3776.07303578157007
 21
140.8030613449581949
 31
0.0
  0
LINE
  5
15B1C
  8
0
 10
3776.0730354417510171
 20
140.8987206448213954
 30
0.0
 11
3776.0730460495701664
 21
140.9135408869881019
 31
0.0
  0
ARC
  5
15B1D
  8
0
 10
3775.5337831740121146
 20
140.9843336104381137
 30
0.0
 40
0.543889129147955
 50
352.5133489959144981
 51
7.486651004084778
  0
LINE
  5
15B1E
  8
0
 10
3776.07303578157007
 20
141.0626550969141135
 30
0.0
 11
3776.07303578157007
 21
141.0551997521880878
 31
0.0
  0
LINE
  5
15B1F
  8
0
 10
3776.0730412530620015
 20
141.1529688487626117
 30
0.0
 11
3776.0730460495701664
 21
141.1596700770114978
 31
0.0
  0
ARC
  5
15B20
  8
0
 10
3775.5337831740121146
 20
141.2304628004615097
 30
0.0
 40
0.543889129147955
 50
352.5133489959144981
 51
7.486651004084778
  0
LINE
  5
15B21
  8
0
 10
3776.07303578157007
 20
141.3087842869375095
 30
0.0
 11
3776.07303578157007
 21
141.3013289422115122
 31
0.0
  0
LINE
  5
15B22
  8
0
 10
3776.1011434904530688
 20
141.7152663417328995
 30
0.0
 11
3776.1210084202148209
 21
141.7152663417328995
 31
0.0
  0
ARC
  5
15B23
  8
0
 10
3776.1264123684318292
 20
141.5527813377948974
 30
0.0
 40
0.0273846620988136
 50
198.4079159558849881
 51
250.9505426588781063
  0
ARC
  5
15B24
  8
0
 10
3776.1219157872010328
 20
141.5435533802958048
 30
0.0
 40
0.0172389849875926
 50
255.0703123434543045
 51
269.9618336791691036
  0
ARC
  5
15B25
  8
0
 10
3776.1220249416592196
 20
141.5509291007724073
 30
0.0
 40
0.0246149972636481
 50
269.7191929016768199
 51
281.0289499787128875
  0
ARC
  5
15B26
  8
0
 10
3776.1027465774768643
 20
141.588989907864601
 30
0.0
 40
0.0666848382664621
 50
291.0825088297185061
 51
337.3707521075513114
  0
ARC
  5
15B27
  8
0
 10
3775.8482209472531395
 20
141.6950911755297113
 30
0.0
 40
0.3424397574260518
 50
337.3707521075519935
 51
342.9362263120891043
  0
ARC
  5
15B28
  8
0
 10
3776.0462965179149251
 20
141.6199749110994048
 30
0.0
 40
0.1317547650559876
 50
348.8990320480036758
 51
17.9586257015218003
  0
ARC
  5
15B29
  8
0
 10
3776.0643829704958989
 20
141.6258371197750989
 30
0.0
 40
0.1127419994111976
 50
17.9586257015210187
 51
42.3024385889356083
  0
ARC
  5
15B2A
  8
0
 10
3776.112694611238112
 20
141.6698010893084074
 30
0.0
 40
0.0474209059699491
 50
42.3024385889331924
 51
65.3985226542941263
  0
ARC
  5
15B2B
  8
0
 10
3776.121629422029855
 20
141.6893150792818119
 30
0.0
 40
0.0259586915321237
 50
65.3985226542947942
 51
91.370800127903081
  0
LINE
  5
15B2C
  8
0
 10
3776.0867169567559358
 20
141.6995349821328887
 30
0.0
 11
3776.1498216666350345
 21
141.6995349821328887
 31
0.0
  0
LINE
  5
15B2D
  8
0
 10
3776.1078831418672053
 20
141.5420379952329029
 30
0.0
 11
3776.1501004110577924
 21
141.5420379952329029
 31
0.0
  0
ARC
  5
15B2E
  8
0
 10
3776.2079296593688014
 20
141.6677436800655983
 30
0.0
 40
0.1277934545239233
 50
167.7364294048294084
 51
176.3388111003827134
  0
ARC
  5
15B2F
  8
0
 10
3776.2376968729140572
 20
141.6123901293634049
 30
0.0
 40
0.1575238423728777
 50
176.947600174176813
 51
200.8098970134244894
  0
ARC
  5
15B30
  8
0
 10
3776.1141119967787745
 20
141.5654202093338938
 30
0.0
 40
0.025314179349514
 50
200.8098970134176113
 51
237.3027505983772869
  0
ARC
  5
15B31
  8
0
 10
3776.1075411102178805
 20
141.555183920729803
 30
0.0
 40
0.0131503742464879
 50
237.3027505983471031
 51
271.4903895468619908
  0
ARC
  5
15B32
  8
0
 10
3776.1203205581041402
 20
141.6959675833481924
 30
0.0
 40
0.0294769764596032
 50
145.0542143165502864
 51
173.0488404731788137
  0
ARC
  5
15B33
  8
0
 10
3776.1008097907852061
 20
141.7096016749910916
 30
0.0
 40
0.0056744871714695
 50
86.6286610188626724
 51
145.054214316545
  0
ARC
  5
15B34
  8
0
 10
3776.0897259079238211
 20
141.6933936190800125
 30
0.0
 40
0.0068388688592299
 50
116.1024711552224034
 51
167.37678751515719
  0
LINE
  5
15B35
  8
0
 10
3776.0803970182109879
 20
141.6759041002941899
 30
0.0
 11
3776.0803965169711773
 21
141.6207781527328962
 31
0.0
  0
ARC
  5
15B36
  8
0
 10
3776.0665948157397906
 20
141.622690499395901
 30
0.0
 40
0.0601463077187404
 50
3.663889931340059
 51
25.84869151037962
  0
ARC
  5
15B37
  8
0
 10
3776.0691374519010424
 20
141.6197322313122982
 30
0.0
 40
0.0578817759798152
 50
323.6161182355473898
 51
6.7485511785972614
  0
ARC
  5
15B38
  8
0
 10
3776.1072334070090619
 20
141.5924333665865049
 30
0.0
 40
0.0110362243842315
 50
272.708719161732688
 51
320.390481186369982
  0
ARC
  5
15B39
  8
0
 10
3776.1096074582919755
 20
141.593253664632897
 30
0.0
 40
0.0119881865718502
 50
201.0539873613311102
 51
261.1106457245160186
  0
ARC
  5
15B3A
  8
0
 10
3776.1714139644991519
 20
141.6191734246835097
 30
0.0
 40
0.0790051981120202
 50
176.6692650825060866
 51
202.4941170117513991
  0
ARC
  5
15B3B
  8
0
 10
3776.1737606205388147
 20
141.6230863160247964
 30
0.0
 40
0.0812212219419763
 50
161.6793168291179086
 51
179.5222249103707952
  0
ARC
  5
15B3C
  8
0
 10
3776.1180225193738806
 20
141.6417606083699923
 30
0.0
 40
0.0224393404777222
 50
132.6270100731971979
 51
162.2085999328546109
  0
ARC
  5
15B3D
  8
0
 10
3776.1080984342997908
 20
141.6517468043699068
 30
0.0
 40
0.0083882380892365
 50
46.5049552923988472
 51
128.9425500084807936
  0
ARC
  5
15B3E
  8
0
 10
3776.0969456934758455
 20
141.6377369652520883
 30
0.0
 40
0.026273686260231
 50
25.1766137578639402
 51
49.8920327067991209
  0
LINE
  5
15B3F
  8
0
 10
3776.1011434904530688
 20
141.9751088614328864
 30
0.0
 11
3776.1210084202148209
 21
141.9751088614328864
 31
0.0
  0
ARC
  5
15B40
  8
0
 10
3776.1264123684318292
 20
142.1375938653708033
 30
0.0
 40
0.0273846620988136
 50
109.0494573411215953
 51
161.5920840441148982
  0
ARC
  5
15B41
  8
0
 10
3776.1219157872010328
 20
142.1468218228700096
 30
0.0
 40
0.0172389849875926
 50
90.0381663208309249
 51
104.9296876565454966
  0
ARC
  5
15B42
  8
0
 10
3776.1220249416592196
 20
142.1394461023932934
 30
0.0
 40
0.0246149972636481
 50
78.9710500212870699
 51
90.2808070983231232
  0
ARC
  5
15B43
  8
0
 10
3776.1027465774768643
 20
142.1013852953012133
 30
0.0
 40
0.0666848382664621
 50
22.629247892447939
 51
68.9174911702814939
  0
ARC
  5
15B44
  8
0
 10
3775.8482209472531395
 20
141.995284027636103
 30
0.0
 40
0.3424397574260518
 50
17.0637736879116488
 51
22.629247892447939
  0
ARC
  5
15B45
  8
0
 10
3776.0462965179149251
 20
142.0704002920664095
 30
0.0
 40
0.1317547650559876
 50
342.0413742984782175
 51
11.1009679519962603
  0
ARC
  5
15B46
  8
0
 10
3776.0643829704958989
 20
142.064538083390687
 30
0.0
 40
0.1127419994111976
 50
317.6975614110638162
 51
342.0413742984790133
  0
ARC
  5
15B47
  8
0
 10
3776.112694611238112
 20
142.0205741138574069
 30
0.0
 40
0.0474209059699491
 50
294.6014773457055185
 51
317.6975614110673973
  0
ARC
  5
15B48
  8
0
 10
3776.121629422029855
 20
142.0010601238840025
 30
0.0
 40
0.0259586915321237
 50
268.6291998720968763
 51
294.6014773457055185
  0
LINE
  5
15B49
  8
0
 10
3776.0867169567559358
 20
141.9908402210328973
 30
0.0
 11
3776.1498216666350345
 21
141.9908402210328973
 31
0.0
  0
LINE
  5
15B4A
  8
0
 10
3776.1078831418672053
 20
142.1483372079329115
 30
0.0
 11
3776.1501004110577924
 21
142.1483372079329115
 31
0.0
  0
ARC
  5
15B4B
  8
0
 10
3776.2079296593688014
 20
142.0226315231001877
 30
0.0
 40
0.1277934545239233
 50
183.6611888996172866
 51
192.2635705951705063
  0
ARC
  5
15B4C
  8
0
 10
3776.2376968729140572
 20
142.0779850738024095
 30
0.0
 40
0.1575238423728777
 50
159.1901029865763064
 51
183.052399825823187
  0
ARC
  5
15B4D
  8
0
 10
3776.1141119967787745
 20
142.1249549938318921
 30
0.0
 40
0.025314179349514
 50
122.6972494016230968
 51
159.1901029865823034
  0
ARC
  5
15B4E
  8
0
 10
3776.1075411102178805
 20
142.1351912824360113
 30
0.0
 40
0.0131503742464879
 50
88.5096104531380519
 51
122.6972494016528969
  0
ARC
  5
15B4F
  8
0
 10
3776.1203205581041402
 20
141.9944076198175935
 30
0.0
 40
0.0294769764596032
 50
186.9511595268211863
 51
214.945785683449003
  0
ARC
  5
15B50
  8
0
 10
3776.1008097907852061
 20
141.9807735281746943
 30
0.0
 40
0.0056744871714695
 50
214.9457856834542895
 51
273.3713389811373986
  0
ARC
  5
15B51
  8
0
 10
3776.0897259079238211
 20
141.9969815840858018
 30
0.0
 40
0.0068388688592299
 50
192.62321248484281
 51
243.897528844777213
  0
LINE
  5
15B52
  8
0
 10
3776.0803970182109879
 20
142.0144711028715108
 30
0.0
 11
3776.0803965169711773
 21
142.0695970504328898
 31
0.0
  0
ARC
  5
15B53
  8
0
 10
3776.0665948157397906
 20
142.0676847037699133
 30
0.0
 40
0.0601463077187404
 50
334.1513084896204191
 51
356.3361100686598775
  0
ARC
  5
15B54
  8
0
 10
3776.0691374519010424
 20
142.0706429718534878
 30
0.0
 40
0.0578817759798152
 50
353.2514488214027892
 51
36.383881764453271
  0
ARC
  5
15B55
  8
0
 10
3776.1072334070090619
 20
142.0979418365793094
 30
0.0
 40
0.0110362243842315
 50
39.6095188136293714
 51
87.291280838267312
  0
ARC
  5
15B56
  8
0
 10
3776.1096074582919755
 20
142.0971215385328037
 30
0.0
 40
0.0119881865718502
 50
98.889354275484024
 51
158.9460126386696004
  0
ARC
  5
15B57
  8
0
 10
3776.1714139644991519
 20
142.0712017784823047
 30
0.0
 40
0.0790051981120202
 50
157.5058829882484872
 51
183.3307349174937997
  0
ARC
  5
15B58
  8
0
 10
3776.1737606205388147
 20
142.0672888871409896
 30
0.0
 40
0.0812212219419763
 50
180.4777750896292048
 51
198.3206831708812956
  0
ARC
  5
15B59
  8
0
 10
3776.1180225193738806
 20
142.0486145947957937
 30
0.0
 40
0.0224393404777222
 50
197.7914000671453891
 51
227.3729899268026884
  0
ARC
  5
15B5A
  8
0
 10
3776.1080984342997908
 20
142.0386283987959075
 30
0.0
 40
0.0083882380892365
 50
231.0574499915196043
 51
313.4950447076005844
  0
ARC
  5
15B5B
  8
0
 10
3776.0969456934758455
 20
142.0526382379136976
 30
0.0
 40
0.026273686260231
 50
310.1079672932007725
 51
334.8233862421361096
  0
LINE
  5
15B5C
  8
0
 10
3776.07303578157007
 20
136.5375396205328968
 30
0.0
 11
3776.07303578157007
 21
136.5372021933721953
 31
0.0
  0
LINE
  5
15B5D
  8
0
 10
3776.07303578157007
 20
136.5112692597440116
 30
0.0
 11
3776.07303578157007
 21
132.9416442945328924
 31
0.0
  0
LINE
  5
15B5E
  8
0
 10
3775.9822219775169287
 20
136.5375396205328968
 30
0.0
 11
3776.0899423878790913
 21
136.5375396205328968
 31
0.0
  0
LINE
  5
15B5F
  8
0
 10
3775.9826462154501314
 20
137.0893919349765042
 30
0.0
 11
3776.089866744318897
 21
137.0903276457499089
 31
0.0
  0
LINE
  5
15B60
  8
0
 10
3775.9706735768700128
 20
137.0773242357020081
 30
0.0
 11
3775.9706735768700128
 21
136.550581022194109
 31
0.0
  0
ARC
  5
15B61
  8
0
 10
3775.9826185841588995
 20
137.0774463356173101
 30
0.0
 40
0.0119456313183879
 50
89.8674697273921765
 51
180.5856477117297914
  0
ARC
  5
15B62
  8
0
 10
3775.9833744682291581
 20
136.5501940334688129
 30
0.0
 40
0.0127067856556565
 50
178.2547710838985893
 51
264.7961877156280934
  0
ARC
  5
15B63
  8
0
 10
3775.5130862917071681
 20
136.8140798505606881
 30
0.0
 40
0.528031965030254
 50
330.0647754112607117
 51
29.9351906057585992
  0
ARC
  5
15B64
  8
0
 10
3775.6317011525261478
 20
136.8138709325334048
 30
0.0
 40
0.5351112287815548
 50
325.5634644585878164
 51
34.4365355414122476
  0
ARC
  5
15B65
  8
0
 10
3776.085203667155838
 20
137.8647487735973982
 30
0.0
 40
0.0121700114902541
 50
78.2016856360509252
 51
178.9143122180311138
  0
ARC
  5
15B66
  8
0
 10
3775.24774197035822
 20
137.4480063537212118
 30
0.0
 40
0.9430066259031578
 50
18.6057214823374686
 51
28.9345591640050017
  0
ARC
  5
15B67
  8
0
 10
3775.6916197251680387
 20
137.5999490080444048
 30
0.0
 40
0.4738555281064096
 50
0.1419034537576947
 51
18.3178655213174117
  0
ARC
  5
15B68
  8
0
 10
3775.725757576361957
 20
137.6000335568355126
 30
0.0
 40
0.4397175722112023
 50
348.3678655328365039
 51
0.1419034537576947
  0
ARC
  5
15B69
  8
0
 10
3775.5515258203790836
 20
137.6359000475019059
 30
0.0
 40
0.6176026754257631
 50
334.1330887479771832
 51
348.3678655328365039
  0
ARC
  5
15B6A
  8
0
 10
3772.5311136443888245
 20
139.109491241555304
 30
0.0
 40
3.978309488289423
 50
332.9131951594565066
 51
334.0149946346153911
  0
ARC
  5
15B6B
  8
0
 10
3776.0852551730231426
 20
137.3374974101024009
 30
0.0
 40
0.0122227933709306
 50
181.3635689820712003
 51
277.9464444612409011
  0
ARC
  5
15B6C
  8
0
 10
3775.5240295944690843
 20
137.6251101942827972
 30
0.0
 40
0.6199164192877055
 50
332.3270930360839088
 51
357.7796654478977985
  0
ARC
  5
15B6D
  8
0
 10
3775.7650710931839058
 20
137.6157646397149108
 30
0.0
 40
0.3786938177496312
 50
357.7796654478977985
 51
18.6814648047347092
  0
ARC
  5
15B6E
  8
0
 10
3774.8654880322151257
 20
137.3116003352928089
 30
0.0
 40
1.3283072168038299
 50
18.6813241830015109
 51
24.6204129189638188
  0
LINE
  5
15B6F
  8
0
 10
3776.07303578157007
 20
138.5369668493158031
 30
0.0
 11
3776.07303578157007
 21
137.9042427197329062
 31
0.0
  0
LINE
  5
15B70
  8
0
 10
3776.0730453499140822
 20
137.1164586497339997
 30
0.0
 11
3776.0730374764711996
 21
137.2981041822735051
 31
0.0
  0
LINE
  5
15B71
  8
0
 10
3776.07303578157007
 20
141.3980085690571116
 30
0.0
 11
3776.07303578157007
 21
142.3904631921328985
 31
0.0
  0
LINE
  5
15B72
  8
0
 10
3775.745390112269888
 20
131.5951876015328992
 30
0.0
 11
3775.9352405059698867
 21
131.5951876015328992
 31
0.0
  0
LINE
  5
15B73
  8
0
 10
3777.3131932618698556
 20
131.5951876015328992
 30
0.0
 11
3777.5030436555698543
 21
131.5951876015328992
 31
0.0
  0
LINE
  5
15B74
  8
0
 10
3776.073035840870034
 20
137.3372065501328905
 30
0.0
 11
3776.0730358404698563
 21
137.8649793672329054
 31
0.0
  0
ENDSEC
  0
EOF
