  0
SECTION
  2
HEADER
  9
$ACADVER
  1
AC1009
  9
$INSBASE
 10
3784.15824172609382
 20
136.1638655101594964
 30
0.0
  9
$EXTMIN
 10
3781.1858775246751065
 20
128.5761111167086881
 30
-0.0000000000000058
  9
$EXTMAX
 10
3801.1958300688311283
 20
137.5707501540300939
 30
0.0000000000000104
  9
$LIMMIN
 10
0.0
 20
0.0
  9
$LIMMAX
 10
11.6929133858000007
 20
8.2677165353999982
  9
$ORTHOMODE
 70
     0
  9
$REGENMODE
 70
     1
  9
$FILLMODE
 70
     1
  9
$QTEXTMODE
 70
     0
  9
$MIRRTEXT
 70
     0
  9
$DRAGMODE
 70
     2
  9
$LTSCALE
 40
0.6431102362
  9
$OSMODE
 70
  4095
  9
$ATTMODE
 70
     1
  9
$TEXTSIZE
 40
0.2
  9
$TRACEWID
 40
0.05
  9
$TEXTSTYLE
  7
STANDARD
  9
$CLAYER
  8
0
  9
$CELTYPE
  6
BYLAYER
  9
$CECOLOR
 62
   256
  9
$DIMSCALE
 40
1.0
  9
$DIMASZ
 40
0.1875
  9
$DIMEXO
 40
0.0625
  9
$DIMDLI
 40
0.4443307087
  9
$DIMRND
 40
0.0
  9
$DIMDLE
 40
0.0
  9
$DIMEXE
 40
0.125
  9
$DIMTP
 40
0.01
  9
$DIMTM
 40
0.01
  9
$DIMTXT
 40
2.0
  9
$DIMCEN
 40
0.1052362205
  9
$DIMTSZ
 40
0.0
  9
$DIMTOL
 70
     1
  9
$DIMLIM
 70
     0
  9
$DIMTIH
 70
     1
  9
$DIMTOH
 70
     1
  9
$DIMSE1
 70
     0
  9
$DIMSE2
 70
     0
  9
$DIMTAD
 70
     0
  9
$DIMZIN
 70
     0
  9
$DIMBLK
  1

  9
$DIMASO
 70
     1
  9
$DIMSHO
 70
     1
  9
$DIMPOST
  1
\X
  9
$DIMAPOST
  1

  9
$DIMALT
 70
     1
  9
$DIMALTD
 70
     2
  9
$DIMALTF
 40
25.3999999999999986
  9
$DIMLFAC
 40
1.0
  9
$DIMTOFL
 70
     0
  9
$DIMTVP
 40
0.0
  9
$DIMTIX
 70
     0
  9
$DIMSOXD
 70
     0
  9
$DIMSAH
 70
     0
  9
$DIMBLK1
  1

  9
$DIMBLK2
  1

  9
$DIMSTYLE
  2
STANDARD
  9
$DIMCLRD
 70
     0
  9
$DIMCLRE
 70
     0
  9
$DIMCLRT
 70
     0
  9
$DIMTFAC
 40
1.0
  9
$DIMGAP
 40
0.09
  9
$LUNITS
 70
     2
  9
$LUPREC
 70
     4
  9
$SKETCHINC
 40
0.1
  9
$FILLETRAD
 40
0.0
  9
$AUNITS
 70
     0
  9
$AUPREC
 70
     0
  9
$MENU
  1
.
  9
$ELEVATION
 40
0.0
  9
$PELEVATION
 40
0.0
  9
$THICKNESS
 40
0.0
  9
$LIMCHECK
 70
     0
  9
$BLIPMODE
 70
     0
  9
$CHAMFERA
 40
0.0
  9
$CHAMFERB
 40
0.0
  9
$SKPOLY
 70
     0
  9
$TDCREATE
 40
2458060.468368056230247
  9
$TDUPDATE
 40
2459394.6779629630036652
  9
$TDINDWG
 40
0.3494978009
  9
$TDUSRTIMER
 40
0.3494978009
  9
$USRTIMER
 70
     1
  9
$ANGBASE
 50
0.0
  9
$ANGDIR
 70
     0
  9
$PDMODE
 70
     0
  9
$PDSIZE
 40
0.3125
  9
$PLINEWID
 40
0.0
  9
$COORDS
 70
     1
  9
$SPLFRAME
 70
     0
  9
$SPLINETYPE
 70
     6
  9
$SPLINESEGS
 70
     8
  9
$ATTDIA
 70
     1
  9
$ATTREQ
 70
     1
  9
$HANDLING
 70
     1
  9
$HANDSEED
  5
15401
  9
$SURFTAB1
 70
     6
  9
$SURFTAB2
 70
     6
  9
$SURFTYPE
 70
     6
  9
$SURFU
 70
     6
  9
$SURFV
 70
     6
  9
$UCSNAME
  2

  9
$UCSORG
 10
0.0
 20
0.0
 30
0.0
  9
$UCSXDIR
 10
1.0
 20
0.0
 30
0.0
  9
$UCSYDIR
 10
0.0
 20
1.0
 30
0.0
  9
$PUCSNAME
  2

  9
$PUCSORG
 10
0.0
 20
0.0
 30
0.0
  9
$PUCSXDIR
 10
1.0
 20
0.0
 30
0.0
  9
$PUCSYDIR
 10
0.0
 20
1.0
 30
0.0
  9
$USERI1
 70
     0
  9
$USERI2
 70
     0
  9
$USERI3
 70
     0
  9
$USERI4
 70
     0
  9
$USERI5
 70
     0
  9
$USERR1
 40
0.0
  9
$USERR2
 40
0.0
  9
$USERR3
 40
0.0
  9
$USERR4
 40
0.0
  9
$USERR5
 40
0.0
  9
$WORLDVIEW
 70
     1
  9
$SHADEDGE
 70
     3
  9
$SHADEDIF
 70
    70
  9
$TILEMODE
 70
     1
  9
$MAXACTVP
 70
    64
  9
$PLIMCHECK
 70
     0
  9
$PEXTMIN
 10
1.0000000000000000E+20
 20
1.0000000000000000E+20
 30
1.0000000000000000E+20
  9
$PEXTMAX
 10
-1.0000000000000000E+20
 20
-1.0000000000000000E+20
 30
-1.0000000000000000E+20
  9
$PLIMMIN
 10
0.0
 20
0.0
  9
$PLIMMAX
 10
12.0
 20
9.0
  9
$UNITMODE
 70
     0
  9
$VISRETAIN
 70
     1
  9
$PLINEGEN
 70
     0
  9
$PSLTSCALE
 70
     1
  0
ENDSEC
  0
SECTION
  2
TABLES
  0
TABLE
  2
VPORT
 70
     1
  0
VPORT
  2
*ACTIVE
 70
     0
 10
0.0
 20
0.0
 11
1.0
 21
1.0
 12
-11.6050507493272796
 22
7.0823276259683521
 13
0.0
 23
0.0
 14
1.0
 24
1.0
 15
0.0
 25
0.0
 16
0.0
 26
0.0
 36
17.1152628219792007
 17
3803.5440673828129547
 27
125.9952621967499056
 37
0.0
 40
19.2376948070726712
 41
1.67063492063492
 42
50.0
 43
0.0
 44
0.0
 50
0.0
 51
0.0
 71
     0
 72
   100
 73
     1
 74
     1
 75
     0
 76
     0
 77
     0
 78
     1
  0
ENDTAB
  0
TABLE
  2
LTYPE
 70
     2
  0
LTYPE
  2
CONTINUOUS
 70
     0
  3
Solid line
 72
    65
 73
     0
 40
0.0
  0
LTYPE
  2
PHANTOM2
 70
     0
  3
___ _ _ ___ _ _ ___ _ _ ___ _ _
 72
    65
 73
     6
 40
1.25
 49
0.625
 49
-0.125
 49
0.125
 49
-0.125
 49
0.125
 49
-0.125
  0
ENDTAB
  0
TABLE
  2
LAYER
 70
     2
  0
LAYER
  2
0
 70
     0
 62
   255
  6
CONTINUOUS
  0
LAYER
  2
DEFPOINTS
 70
     0
 62
     7
  6
CONTINUOUS
  0
ENDTAB
  0
TABLE
  2
STYLE
 70
     1
  0
STYLE
  2
STANDARD
 70
     0
 40
0.0
 41
0.8
 50
0.0
 71
     0
 42
0.2
  3
txt
  4

  0
ENDTAB
  0
TABLE
  2
VIEW
 70
     2
  0
ENDTAB
  0
TABLE
  2
UCS
 70
     0
  0
ENDTAB
  0
TABLE
  2
APPID
 70
     9
  0
APPID
  2
ACAD
 70
     0
  0
APPID
  2
ACAD_MLEADERVER
 70
     0
  0
APPID
  2
ACAD_EXEMPT_FROM_CAD_STANDARDS
 70
     0
  0
APPID
  2
ACAD_NAV_VCDISPLAY
 70
     0
  0
APPID
  2
ACAECLAYERSTANDARD
 70
     0
  0
APPID
  2
ACCMTRANSPARENCY
 70
     0
  0
APPID
  2
ACAD_DSTYLE_DIMJAG
 70
     0
  0
APPID
  2
ACAD_DSTYLE_DIMTALN
 70
     0
  0
APPID
  2
ACDBATTR
 70
     0
  0
ENDTAB
  0
TABLE
  2
DIMSTYLE
 70
     1
  0
DIMSTYLE
  2
STANDARD
 70
     0
  3

  4

  5

  6

  7

 40
1.0
 41
0.1875
 42
0.0625
 43
0.38
 44
0.125
 45
0.0
 46
0.0
 47
0.01
 48
0.01
140
0.15625
141
0.09
142
0.0
143
25.3999999999999986
144
1.0
145
0.0
146
1.0
147
0.09
 71
     1
 72
     0
 73
     1
 74
     1
 75
     0
 76
     0
 77
     0
 78
     4
170
     0
171
     2
172
     0
173
     0
174
     0
175
     0
176
     0
177
     0
178
     0
  0
ENDTAB
  0
ENDSEC
  0
SECTION
  2
BLOCKS
  0
BLOCK
  8
0
  2
$MODEL_SPACE
 70
     0
 10
0.0
 20
0.0
 30
0.0
  3
$MODEL_SPACE
  1

  0
ENDBLK
  5
21
  8
0
  0
BLOCK
 67
     1
  8
0
  2
$PAPER_SPACE
 70
     0
 10
0.0
 20
0.0
 30
0.0
  3
$PAPER_SPACE
  1

  0
ENDBLK
  5
1D
 67
     1
  8
0
  0
ENDSEC
  0
SECTION
  2
ENTITIES
  0
ATTDEF
  5
132A3
  8
DEFPOINTS
 10
3784.1535537845879844
 20
136.1599383478871061
 30
0.0
 40
0.001
  1
K-99874T-B9
  3

  2
MODELNUMBER
 70
     0
1001
ACDBATTR
1070
     0
1070
     1
  0
ATTDEF
  5
132A4
  8
DEFPOINTS
 10
3784.1535537845879844
 20
136.1582716812204126
 30
0.0
 40
0.001
  1
BEITOU
  3

  2
TRADENAME
 70
     0
1001
ACDBATTR
1070
     0
1070
     1
  0
ATTDEF
  5
132A5
  8
DEFPOINTS
 10
3784.1535537845879844
 20
136.1566050145536906
 30
0.0
 40
0.001
  1
BATH AND SHOWER FAUCET
  3

  2
PRODUCT
 70
     0
1001
ACDBATTR
1070
     0
1070
     1
  0
LINE
  5
152E4
  8
0
 10
3781.4023362142938822
 20
128.6241253526094965
 30
0.0
 11
3781.4023362142938822
 21
137.4043930692095046
 31
0.0
  0
LINE
  5
152E5
  8
0
 10
3786.9141472378942126
 20
128.6241253526094965
 30
0.0
 11
3786.9141472378942126
 21
137.4043930692095046
 31
0.0
  0
CIRCLE
  5
152E6
  8
0
 10
3799.1188716472929627
 20
136.1638655101095026
 30
0.0
 40
0.5511811024000011
  0
LINE
  5
152E7
  8
0
 10
3800.9889503874937873
 20
134.9233379511094881
 30
0.0
 11
3800.9889503874937873
 21
137.4043930692095046
 31
0.0
  0
LINE
  5
152E8
  8
0
 10
3788.5873755842940227
 20
137.4043930692095046
 30
0.0
 11
3788.5873755842940227
 21
134.9233379511094881
 31
0.0
  0
CIRCLE
  5
152E9
  8
0
 10
3794.788162985893905
 20
136.1638655101095026
 30
0.0
 40
0.8858267716999996
  0
CIRCLE
  5
152EA
  8
0
 10
3790.4574543244930283
 20
136.1638655101095026
 30
0.0
 40
0.8858267716999996
  0
LINE
  5
152EB
  8
0
 10
3788.6263755842928731
 20
134.8843379511095009
 30
0.0
 11
3800.9499503874940274
 21
134.8843379511095009
 31
0.0
  0
LINE
  5
152EC
  8
0
 10
3788.6263755842928731
 20
137.4433930692094918
 30
0.0
 11
3800.9499503874940274
 21
137.4433930692094918
 31
0.0
  0
ARC
  5
152ED
  8
0
 10
3784.15824172609382
 20
136.1048103920095116
 30
0.0
 40
1.390999999999998
 50
74.2208064119210889
 51
105.7791935880788969
  0
ARC
  5
152EE
  8
0
 10
3784.15824172609382
 20
136.1048103920095116
 30
0.0
 40
1.4609999999999981
 50
66.3781387113932482
 51
113.621861288606695
  0
ARC
  5
152EF
  8
0
 10
3788.6263755842928731
 20
137.4043930692095046
 30
0.0
 40
0.039
 50
90.0
 51
180.0000000000048885
  0
ARC
  5
152F0
  8
0
 10
3788.6263755842928731
 20
134.9233379511094881
 30
0.0
 40
0.039
 50
180.0
 51
270.0
  0
ARC
  5
152F1
  8
0
 10
3800.9499503874940274
 20
134.9233379511094881
 30
0.0
 40
0.039
 50
270.0
 51
0.0000000000048853
  0
ARC
  5
152F2
  8
0
 10
3800.9499503874940274
 20
137.4043930692095046
 30
0.0
 40
0.039
 50
0.0
 51
90.0
  0
LINE
  5
152F3
  8
0
 10
3786.875147237893998
 20
128.5851253526095093
 30
0.0
 11
3781.4413362142940969
 21
128.5851253526095093
 31
0.0
  0
ARC
  5
152F4
  8
0
 10
3786.875147237893998
 20
128.6241253526094965
 30
0.0
 40
0.039
 50
270.0
 51
359.9999999999951115
  0
ARC
  5
152F5
  8
0
 10
3781.4413362142940969
 20
128.6241253526094965
 30
0.0
 40
0.039
 50
180.0000000000098055
 51
270.0
  0
LINE
  5
152F6
  8
0
 10
3781.4413362142940969
 20
137.4433930692094918
 30
0.0
 11
3786.875147237893998
 21
137.4433930692094918
 31
0.0
  0
ARC
  5
152F7
  8
0
 10
3781.4413362142940969
 20
137.4043930692095046
 30
0.0
 40
0.039
 50
90.0
 51
180.0
  0
ARC
  5
152F8
  8
0
 10
3786.875147237893998
 20
137.4043930692095046
 30
0.0
 40
0.039
 50
359.9999999999902229
 51
90.0
  0
LINE
  5
152F9
  8
0
 10
3786.0086354268942159
 20
135.9894853856754935
 30
0.0
 11
3786.0086354268942159
 21
137.4243930692094864
 31
0.0
  0
LINE
  5
152FA
  8
0
 10
3786.0125694841408404
 20
135.9546445392556961
 30
0.0
 11
3786.0125724346939933
 21
137.4243930692094864
 31
0.0
  0
ARC
  5
152FB
  8
0
 10
3785.9896354268939831
 20
137.4243930692094864
 30
0.0
 40
0.019
 50
0.0
 51
90.0
  0
ARC
  5
152FC
  8
0
 10
3786.0315724346928619
 20
137.4243930692094864
 30
0.0
 40
0.019
 50
90.0
 51
179.9999999999886029
  0
LINE
  5
152FD
  8
0
 10
3783.252727634438088
 20
135.376463935308692
 30
0.0
 11
3785.0637538155228867
 21
135.376463935308692
 31
0.0
  0
LINE
  5
152FE
  8
0
 10
3782.3039110173940571
 20
137.4243930692094864
 30
0.0
 11
3782.3039110173940571
 21
135.9557159039449061
 31
0.0
  0
LINE
  5
152FF
  8
0
 10
3782.3078480251938345
 20
137.4243930692094864
 30
0.0
 11
3782.3078480251938345
 21
135.9964639353094924
 31
0.0
  0
ARC
  5
15300
  8
0
 10
3782.3268480251940673
 20
137.4243930692094864
 30
0.0
 40
0.019
 50
90.0
 51
180.0
  0
ARC
  5
15301
  8
0
 10
3782.2849110173938243
 20
137.4243930692094864
 30
0.0
 40
0.019
 50
0.0000000000113991
 51
90.0
  0
ARC
  5
15302
  8
0
 10
3782.9581703779131203
 20
136.0556268566218137
 30
0.0
 40
0.6530079736910905
 50
185.1981607247739987
 51
262.4916505684756771
  0
ARC
  5
15303
  8
0
 10
3783.2300384054437927
 20
137.3932700494140988
 30
0.0
 40
2.016933763541445
 50
259.7991680162633088
 51
270.6446196711996208
  0
LINE
  5
15304
  8
0
 10
3782.3039110173940571
 20
137.4237080298094895
 30
0.0
 11
3782.3078480251938345
 21
137.4237080298092906
 31
0.0
  0
ARC
  5
15305
  8
0
 10
3782.3737003136270687
 20
135.9505576206977935
 30
0.0
 40
0.0699796667249173
 50
175.7728270923481091
 51
197.4299317627572066
  0
ARC
  5
15306
  8
0
 10
3782.311666708879784
 20
135.9310818720869918
 30
0.0
 40
0.0049606471846459
 50
197.4299317627510106
 51
235.1627935794882944
  0
ARC
  5
15307
  8
0
 10
3782.3097966184159304
 20
135.9290528577290047
 30
0.0
 40
0.0022584884768827
 50
244.7426455680177924
 51
321.0184574721059221
  0
ARC
  5
15308
  8
0
 10
3782.2943744465819691
 20
135.9424656379175076
 30
0.0
 40
0.0226960462977209
 50
319.1884494350758814
 51
343.9057696207186154
  0
LINE
  5
15309
  8
0
 10
3786.0086354268942159
 20
137.4237080298094895
 30
0.0
 11
3786.0125724346939933
 21
137.4237080298094895
 31
0.0
  0
ARC
  5
1530A
  8
0
 10
3785.3588837624288317
 20
136.0546174686294023
 30
0.0
 40
0.6530079736910905
 50
277.4601690291488012
 51
354.2757071296434788
  0
ARC
  5
1530B
  8
0
 10
3785.0350695746287784
 20
138.0998815846548951
 30
0.0
 40
2.72356870272194
 50
270.6034422149186867
 51
278.6282762241870046
  0
ARC
  5
1530C
  8
0
 10
3785.9157430814370855
 20
135.9544468753092872
 30
0.0
 40
0.0968266044627645
 50
344.5095908252046115
 51
0.1169649376761514
  0
ARC
  5
1530D
  8
0
 10
3786.0048842112960301
 20
135.9308056969568952
 30
0.0
 40
0.0047221115658742
 50
310.3826824219577247
 51
331.9712718020966236
  0
ARC
  5
1530E
  8
0
 10
3786.0067345576107982
 20
135.9286145463684932
 30
0.0
 40
0.0018542447759432
 50
241.1758355339408126
 51
310.6963751132523157
  0
ARC
  5
1530F
  8
0
 10
3786.0119801799760353
 20
135.9365651574055107
 30
0.0
 40
0.0113744272663251
 50
189.8226622278999116
 51
237.3318839876345123
  0
LINE
  5
15310
  8
0
 10
3799.0709616884942079
 20
135.6148309913095034
 30
0.0
 11
3799.0775390427929779
 21
135.5811270737094958
 31
0.0
  0
ARC
  5
15311
  8
0
 10
3799.1189598283867781
 20
135.9181663211305136
 30
0.0
 40
0.34058131787886
 50
263.6783521186027883
 51
276.2461271284117856
  0
ARC
  5
15312
  8
0
 10
3799.0824257819931518
 20
135.5881907586096986
 30
0.0
 40
0.0085894658659233
 50
235.3277016499868068
 51
263.5338642419741859
  0
LINE
  5
15313
  8
0
 10
3799.1667816124941055
 20
135.6148310239094883
 30
0.0
 11
3799.1602042518939015
 21
135.5811270737094958
 31
0.0
  0
ARC
  5
15314
  8
0
 10
3799.1555762112020602
 20
135.5873494323749924
 30
0.0
 40
0.0077550561151717
 50
273.2433437801500986
 51
306.6356234098747109
  0
ARC
  5
15315
  8
0
 10
3799.1188472553658357
 20
135.4375461270790879
 30
0.0
 40
0.1452635861449844
 50
81.4179051579000657
 51
98.5626344898452658
  0
ARC
  5
15316
  8
0
 10
3799.118891727764094
 20
135.6994201826732933
 30
0.0
 40
0.1201996487802065
 50
259.6123571830265178
 51
280.3681824647183021
  0
CIRCLE
  5
15317
  8
0
 10
3799.1188716472929627
 20
136.1638655101095026
 30
0.0
 40
0.6889763779999996
  0
ARC
  5
15318
  8
0
 10
3799.0070215700839071
 20
135.8545164157829106
 30
0.0
 40
0.2617915036322598
 50
257.7901857042729716
 51
265.8335564887162832
  0
ARC
  5
15319
  8
0
 10
3799.0240503778918537
 20
135.9880373987494977
 30
0.0
 40
0.3962637624298147
 50
264.7804541058198993
 51
268.5284322440597862
  0
ARC
  5
1531A
  8
0
 10
3799.0177944941060559
 20
135.6934622967455084
 30
0.0
 40
0.1016336145683135
 50
267.7892661126973053
 51
275.0461934731445126
  0
ARC
  5
1531B
  8
0
 10
3799.0260358562568399
 20
135.6004545891352109
 30
0.0
 40
0.0082615433361827
 50
274.8480794902741877
 51
299.6309211736423208
  0
ARC
  5
1531C
  8
0
 10
3798.9541719392791492
 20
135.6090226478702903
 30
0.0
 40
0.010676907987486
 50
233.1564364690918012
 51
256.3633153248284202
  0
LINE
  5
1531D
  8
0
 10
3798.9477699189151281
 20
135.6004778733957039
 30
0.0
 11
3798.9448081572140836
 21
135.628457221782412
 31
0.0
  0
LINE
  5
1531E
  8
0
 10
3799.0301204544939537
 20
135.59327342240951
 30
0.0
 11
3799.037441120740823
 21
135.6187327950866006
 31
0.0
  0
ARC
  5
1531F
  8
0
 10
3798.9773707665599431
 20
135.469569651993794
 30
0.0
 40
0.1297706635172312
 50
75.2004179988081916
 51
94.3822022002870256
  0
ARC
  5
15320
  8
0
 10
3798.9998812195631217
 20
135.7160457885806011
 30
0.0
 40
0.1214920464447581
 50
254.5201610251918964
 51
275.0217260733479065
  0
LINE
  5
15321
  8
0
 10
3798.8195614474930153
 20
135.6870320342094942
 30
0.0
 11
3798.8202825272719565
 21
135.647362159204107
 31
0.0
  0
ARC
  5
15322
  8
0
 10
3798.8301062735681626
 20
135.6596408042512962
 30
0.0
 40
0.01572485661246
 50
231.3378294888883033
 51
258.0473805199210915
  0
ARC
  5
15323
  8
0
 10
3798.9150612676780838
 20
135.9589956083725895
 30
0.0
 40
0.3268665879016855
 50
254.3434379928935982
 51
260.6939219037349744
  0
ARC
  5
15324
  8
0
 10
3798.9184780914138173
 20
135.9489447482237097
 30
0.0
 40
0.3175398638540208
 50
259.792214105623998
 51
265.510788862218476
  0
ARC
  5
15325
  8
0
 10
3798.8978253644709184
 20
135.7750377113804916
 30
0.0
 40
0.1427205015533174
 50
268.3130235911843897
 51
270.6266848113517085
  0
ARC
  5
15326
  8
0
 10
3798.8993362188898573
 20
135.6369106529438113
 30
0.0
 40
0.0045851803880021
 50
270.6266848113517085
 51
300.6258286159625754
  0
LINE
  5
15327
  8
0
 10
3798.9016720444988096
 20
135.632965048058594
 30
0.0
 11
3798.905490259094222
 21
135.6428807035094906
 31
0.0
  0
ARC
  5
15328
  8
0
 10
3798.8396590820329948
 20
135.51923480822839
 30
0.0
 40
0.1247376047225997
 50
70.0040422464328174
 51
89.9946608987467584
  0
ARC
  5
15329
  8
0
 10
3798.8830657152311687
 20
135.7653897677352006
 30
0.0
 40
0.1289391369099606
 50
250.3329235212684978
 51
269.6657796239226741
  0
LINE
  5
1532A
  8
0
 10
3798.8157234026120932
 20
135.6894592752385904
 30
0.0
 11
3798.8157234026120932
 21
135.7035376384905021
 31
0.0
  0
ARC
  5
1532B
  8
0
 10
3799.1188716472929627
 20
136.1638655101095878
 30
0.0
 40
0.5629921260001099
 50
237.4211940559085861
 51
255.0046140048746111
  0
LINE
  5
1532C
  8
0
 10
3798.9732023559508889
 20
135.6200451431703868
 30
0.0
 11
3798.9732023559508889
 21
135.6322819652149008
 31
0.0
  0
LINE
  5
1532D
  8
0
 10
3798.8427079134639825
 20
135.6402374580131891
 30
0.0
 11
3798.8432219403621275
 21
135.5909468561536073
 31
0.0
  0
ARC
  5
1532E
  8
0
 10
3798.8550329784197856
 20
135.5910698809109931
 30
0.0
 40
0.0118116787587096
 50
180.5967760360686896
 51
236.9062214049407089
  0
ARC
  5
1532F
  8
0
 10
3799.1188196484868058
 20
136.0610997221961043
 30
0.0
 40
0.5507775216411886
 50
240.6170467356380982
 51
270.0054092842195246
  0
ARC
  5
15330
  8
0
 10
3799.1188716472929627
 20
136.1638655101095026
 30
0.0
 40
0.6122047244000051
 50
89.9999999953100769
 51
243.2156497068372971
  0
ARC
  5
15331
  8
0
 10
3799.1188716472929627
 20
136.1638655101095026
 30
0.0
 40
0.5925196849999989
 50
300.2701353316539894
 51
239.7298646799306141
  0
ARC
  5
15332
  8
0
 10
3799.2307217245029278
 20
135.8545164157829106
 30
0.0
 40
0.2617915036322598
 50
274.1664435112836031
 51
282.2098142957270284
  0
ARC
  5
15333
  8
0
 10
3799.2136929166949812
 20
135.9880373987494977
 30
0.0
 40
0.3962637624298147
 50
271.4715677559403275
 51
275.219545894179987
  0
ARC
  5
15334
  8
0
 10
3799.219948800480779
 20
135.6934622967455084
 30
0.0
 40
0.1016336145683135
 50
264.9538065268556011
 51
272.2107338873028084
  0
ARC
  5
15335
  8
0
 10
3799.2117074383299951
 20
135.6004545891352109
 30
0.0
 40
0.0082615433361827
 50
240.3690788263577076
 51
265.1519205097258123
  0
ARC
  5
15336
  8
0
 10
3799.28357135530905
 20
135.6090226478702903
 30
0.0
 40
0.010676907987486
 50
283.6366846751715798
 51
306.8435635309076019
  0
LINE
  5
15337
  8
0
 10
3799.2899733756721616
 20
135.6004778733957039
 30
0.0
 11
3799.2929351373741156
 21
135.628457221782412
 31
0.0
  0
LINE
  5
15338
  8
0
 10
3799.2076228400928812
 20
135.59327342240951
 30
0.0
 11
3799.200302173846012
 21
135.6187327950866006
 31
0.0
  0
ARC
  5
15339
  8
0
 10
3799.2603725280268918
 20
135.469569651993794
 30
0.0
 40
0.1297706635172312
 50
85.6177977997129602
 51
104.7995820011917942
  0
ARC
  5
1533A
  8
0
 10
3799.237862075024168
 20
135.7160457885806011
 30
0.0
 40
0.1214920464447581
 50
264.9782739266520935
 51
285.4798389748081036
  0
LINE
  5
1533B
  8
0
 10
3799.4181818470938197
 20
135.6870320342094942
 30
0.0
 11
3799.4174607673148785
 21
135.647362159204107
 31
0.0
  0
ARC
  5
1533C
  8
0
 10
3799.4076370210191271
 20
135.6596408042512962
 30
0.0
 40
0.01572485661246
 50
281.9526194800787948
 51
308.6621705111116967
  0
ARC
  5
1533D
  8
0
 10
3799.3226820269101154
 20
135.9589956083725895
 30
0.0
 40
0.3268665879016855
 50
279.3060780962650256
 51
285.6565620071064018
  0
ARC
  5
1533E
  8
0
 10
3799.3192652031721082
 20
135.9489447482237097
 30
0.0
 40
0.3175398638540208
 50
274.489211137781524
 51
280.207785894376002
  0
ARC
  5
1533F
  8
0
 10
3799.339917930116826
 20
135.7750377113804916
 30
0.0
 40
0.1427205015533174
 50
269.3733151886482915
 51
271.6869764088156103
  0
ARC
  5
15340
  8
0
 10
3799.3384070756978872
 20
135.6369106529438113
 30
0.0
 40
0.0045851803880021
 50
239.3741713840373109
 51
269.3733151886482915
  0
LINE
  5
15341
  8
0
 10
3799.3360712500871159
 20
135.632965048058594
 30
0.0
 11
3799.3322530354939772
 21
135.6428807035094906
 31
0.0
  0
ARC
  5
15342
  8
0
 10
3799.3980842125552044
 20
135.51923480822839
 30
0.0
 40
0.1247376047225997
 50
90.0053391012532558
 51
109.9959577535671968
  0
ARC
  5
15343
  8
0
 10
3799.3546775793552115
 20
135.7653897677352006
 30
0.0
 40
0.1289391369099606
 50
270.3342203760773259
 51
289.6670764787314738
  0
LINE
  5
15344
  8
0
 10
3799.422019891976106
 20
135.6894592752385904
 30
0.0
 11
3799.422019891976106
 21
135.7035376384905021
 31
0.0
  0
ARC
  5
15345
  8
0
 10
3799.1188716472929627
 20
136.1638655101095878
 30
0.0
 40
0.5629921260001099
 50
284.9953859951253889
 51
302.5788059440913003
  0
LINE
  5
15346
  8
0
 10
3799.2645409386359461
 20
135.6200451431703868
 30
0.0
 11
3799.2645409386359461
 21
135.6322819652149008
 31
0.0
  0
LINE
  5
15347
  8
0
 10
3799.3950353811228524
 20
135.6402374580131891
 30
0.0
 11
3799.3945213542251622
 21
135.5909468561536073
 31
0.0
  0
ARC
  5
15348
  8
0
 10
3799.3827103161670493
 20
135.5910698809109931
 30
0.0
 40
0.0118116787587096
 50
303.0937785950591774
 51
359.403223963931282
  0
ARC
  5
15349
  8
0
 10
3799.1189236461000291
 20
136.0610997221961043
 30
0.0
 40
0.5507775216411886
 50
269.9945907157804754
 51
299.3829532643617881
  0
ARC
  5
1534A
  8
0
 10
3799.1188716473939166
 20
136.1638655101095026
 30
0.0
 40
0.6122047244000051
 50
296.7890829010705147
 51
90.0000000046899231
  0
CIRCLE
  5
1534B
  8
0
 10
3799.1188716472929627
 20
136.1638655101095026
 30
0.0
 40
0.5039370078999994
  0
ARC
  5
1534C
  8
0
 10
3794.788162985893905
 20
136.2032355889095925
 30
0.0
 40
0.8858267716999036
 50
64.9565666714919985
 51
115.043433328483701
  0
ARC
  5
1534D
  8
0
 10
3794.418821860108892
 20
136.9908853049072945
 30
0.0
 40
0.0159276638191117
 50
110.7149936721564956
 51
179.4756926069514975
  0
LINE
  5
1534E
  8
0
 10
3794.4028948631671483
 20
136.9910310551773875
 30
0.0
 11
3794.4028948631671483
 21
136.9615230450648085
 31
0.0
  0
ARC
  5
1534F
  8
0
 10
3795.1575041116780085
 20
136.9908853049072945
 30
0.0
 40
0.0159276638191117
 50
0.524307393048423
 51
69.2850063278434476
  0
LINE
  5
15350
  8
0
 10
3795.1734311086211164
 20
136.9910310551773875
 30
0.0
 11
3795.1734311086211164
 21
136.9615230450648085
 31
0.0
  0
ARC
  5
15351
  8
0
 10
3794.788162985893905
 20
136.1638655101095026
 30
0.0
 40
0.9055118109999986
 50
115.1804173783679062
 51
64.8195826216320938
  0
ENDSEC
  0
EOF
