  0
SECTION
  2
HEADER
  9
$ACADVER
  1
AC1009
  9
$INSBASE
 10
3755.1509379133181028
 20
140.7141077379882859
 30
0.0
  9
$EXTMIN
 10
3752.1586291463167981
 20
140.7038763084391917
 30
-0.0000000349181948
  9
$EXTMAX
 10
3772.1829529936371728
 20
151.8846213014116984
 30
0.0000000814935746
  9
$LIMMIN
 10
0.0
 20
0.0
  9
$LIMMAX
 10
11.6929133858000007
 20
8.2677165353999982
  9
$ORTHOMODE
 70
     0
  9
$REGENMODE
 70
     1
  9
$FILLMODE
 70
     1
  9
$QTEXTMODE
 70
     0
  9
$MIRRTEXT
 70
     0
  9
$DRAGMODE
 70
     2
  9
$LTSCALE
 40
0.6431102362
  9
$OSMODE
 70
  4095
  9
$ATTMODE
 70
     1
  9
$TEXTSIZE
 40
0.2
  9
$TRACEWID
 40
0.05
  9
$TEXTSTYLE
  7
STANDARD
  9
$CLAYER
  8
0
  9
$CELTYPE
  6
BYLAYER
  9
$CECOLOR
 62
   256
  9
$DIMSCALE
 40
1.0
  9
$DIMASZ
 40
0.1875
  9
$DIMEXO
 40
0.0625
  9
$DIMDLI
 40
0.4443307087
  9
$DIMRND
 40
0.0
  9
$DIMDLE
 40
0.0
  9
$DIMEXE
 40
0.125
  9
$DIMTP
 40
0.01
  9
$DIMTM
 40
0.01
  9
$DIMTXT
 40
2.0
  9
$DIMCEN
 40
0.1052362205
  9
$DIMTSZ
 40
0.0
  9
$DIMTOL
 70
     1
  9
$DIMLIM
 70
     0
  9
$DIMTIH
 70
     1
  9
$DIMTOH
 70
     1
  9
$DIMSE1
 70
     0
  9
$DIMSE2
 70
     0
  9
$DIMTAD
 70
     0
  9
$DIMZIN
 70
     0
  9
$DIMBLK
  1

  9
$DIMASO
 70
     1
  9
$DIMSHO
 70
     1
  9
$DIMPOST
  1
\X
  9
$DIMAPOST
  1

  9
$DIMALT
 70
     1
  9
$DIMALTD
 70
     2
  9
$DIMALTF
 40
25.3999999999999986
  9
$DIMLFAC
 40
1.0
  9
$DIMTOFL
 70
     0
  9
$DIMTVP
 40
0.0
  9
$DIMTIX
 70
     0
  9
$DIMSOXD
 70
     0
  9
$DIMSAH
 70
     0
  9
$DIMBLK1
  1

  9
$DIMBLK2
  1

  9
$DIMSTYLE
  2
STANDARD
  9
$DIMCLRD
 70
     0
  9
$DIMCLRE
 70
     0
  9
$DIMCLRT
 70
     0
  9
$DIMTFAC
 40
1.0
  9
$DIMGAP
 40
0.09
  9
$LUNITS
 70
     2
  9
$LUPREC
 70
     4
  9
$SKETCHINC
 40
0.1
  9
$FILLETRAD
 40
0.0
  9
$AUNITS
 70
     0
  9
$AUPREC
 70
     0
  9
$MENU
  1
.
  9
$ELEVATION
 40
0.0
  9
$PELEVATION
 40
0.0
  9
$THICKNESS
 40
0.0
  9
$LIMCHECK
 70
     0
  9
$BLIPMODE
 70
     0
  9
$CHAMFERA
 40
0.0
  9
$CHAMFERB
 40
0.0
  9
$SKPOLY
 70
     0
  9
$TDCREATE
 40
2458060.468368056230247
  9
$TDUPDATE
 40
2459389.9640972227789462
  9
$TDINDWG
 40
0.3506320602
  9
$TDUSRTIMER
 40
0.3506320602
  9
$USRTIMER
 70
     1
  9
$ANGBASE
 50
0.0
  9
$ANGDIR
 70
     0
  9
$PDMODE
 70
     0
  9
$PDSIZE
 40
0.3125
  9
$PLINEWID
 40
0.0
  9
$COORDS
 70
     1
  9
$SPLFRAME
 70
     0
  9
$SPLINETYPE
 70
     6
  9
$SPLINESEGS
 70
     8
  9
$ATTDIA
 70
     1
  9
$ATTREQ
 70
     1
  9
$HANDLING
 70
     1
  9
$HANDSEED
  5
15698
  9
$SURFTAB1
 70
     6
  9
$SURFTAB2
 70
     6
  9
$SURFTYPE
 70
     6
  9
$SURFU
 70
     6
  9
$SURFV
 70
     6
  9
$UCSNAME
  2

  9
$UCSORG
 10
0.0
 20
0.0
 30
0.0
  9
$UCSXDIR
 10
1.0
 20
0.0
 30
0.0
  9
$UCSYDIR
 10
0.0
 20
1.0
 30
0.0
  9
$PUCSNAME
  2

  9
$PUCSORG
 10
0.0
 20
0.0
 30
0.0
  9
$PUCSXDIR
 10
1.0
 20
0.0
 30
0.0
  9
$PUCSYDIR
 10
0.0
 20
1.0
 30
0.0
  9
$USERI1
 70
     0
  9
$USERI2
 70
     0
  9
$USERI3
 70
     0
  9
$USERI4
 70
     0
  9
$USERI5
 70
     0
  9
$USERR1
 40
0.0
  9
$USERR2
 40
0.0
  9
$USERR3
 40
0.0
  9
$USERR4
 40
0.0
  9
$USERR5
 40
0.0
  9
$WORLDVIEW
 70
     1
  9
$SHADEDGE
 70
     3
  9
$SHADEDIF
 70
    70
  9
$TILEMODE
 70
     1
  9
$MAXACTVP
 70
    64
  9
$PLIMCHECK
 70
     0
  9
$PEXTMIN
 10
1.0000000000000000E+20
 20
1.0000000000000000E+20
 30
1.0000000000000000E+20
  9
$PEXTMAX
 10
-1.0000000000000000E+20
 20
-1.0000000000000000E+20
 30
-1.0000000000000000E+20
  9
$PLIMMIN
 10
0.0
 20
0.0
  9
$PLIMMAX
 10
12.0
 20
9.0
  9
$UNITMODE
 70
     0
  9
$VISRETAIN
 70
     1
  9
$PLINEGEN
 70
     0
  9
$PSLTSCALE
 70
     1
  0
ENDSEC
  0
SECTION
  2
TABLES
  0
TABLE
  2
VPORT
 70
     1
  0
VPORT
  2
*ACTIVE
 70
     0
 10
0.0
 20
0.0
 11
1.0
 21
1.0
 12
-41.3732763128355074
 22
20.2989866081755217
 13
0.0
 23
0.0
 14
1.0
 24
1.0
 15
0.0
 25
0.0
 16
0.0
 26
0.0
 36
17.1152628219792007
 17
3803.5440673828129547
 27
125.9952621967499056
 37
0.0
 40
11.2256393098918092
 41
0.7982954545454546
 42
50.0
 43
0.0
 44
0.0
 50
0.0
 51
0.0
 71
     0
 72
   100
 73
     1
 74
     1
 75
     0
 76
     0
 77
     0
 78
     1
  0
ENDTAB
  0
TABLE
  2
LTYPE
 70
     2
  0
LTYPE
  2
CONTINUOUS
 70
     0
  3
Solid line
 72
    65
 73
     0
 40
0.0
  0
LTYPE
  2
PHANTOM2
 70
     0
  3
___ _ _ ___ _ _ ___ _ _ ___ _ _
 72
    65
 73
     6
 40
1.25
 49
0.625
 49
-0.125
 49
0.125
 49
-0.125
 49
0.125
 49
-0.125
  0
ENDTAB
  0
TABLE
  2
LAYER
 70
     2
  0
LAYER
  2
0
 70
     0
 62
   255
  6
CONTINUOUS
  0
LAYER
  2
DEFPOINTS
 70
     0
 62
     7
  6
CONTINUOUS
  0
ENDTAB
  0
TABLE
  2
STYLE
 70
     1
  0
STYLE
  2
STANDARD
 70
     0
 40
0.0
 41
0.8
 50
0.0
 71
     0
 42
0.2
  3
txt
  4

  0
ENDTAB
  0
TABLE
  2
VIEW
 70
     2
  0
ENDTAB
  0
TABLE
  2
UCS
 70
     0
  0
ENDTAB
  0
TABLE
  2
APPID
 70
     9
  0
APPID
  2
ACAD
 70
     0
  0
APPID
  2
ACAD_MLEADERVER
 70
     0
  0
APPID
  2
ACAD_EXEMPT_FROM_CAD_STANDARDS
 70
     0
  0
APPID
  2
ACAD_NAV_VCDISPLAY
 70
     0
  0
APPID
  2
ACAECLAYERSTANDARD
 70
     0
  0
APPID
  2
ACCMTRANSPARENCY
 70
     0
  0
APPID
  2
ACAD_DSTYLE_DIMJAG
 70
     0
  0
APPID
  2
ACAD_DSTYLE_DIMTALN
 70
     0
  0
APPID
  2
ACDBATTR
 70
     0
  0
ENDTAB
  0
TABLE
  2
DIMSTYLE
 70
     1
  0
DIMSTYLE
  2
STANDARD
 70
     0
  3

  4

  5

  6

  7

 40
1.0
 41
0.1875
 42
0.0625
 43
0.38
 44
0.125
 45
0.0
 46
0.0
 47
0.01
 48
0.01
140
0.15625
141
0.09
142
0.0
143
25.3999999999999986
144
1.0
145
0.0
146
1.0
147
0.09
 71
     1
 72
     0
 73
     1
 74
     1
 75
     0
 76
     0
 77
     0
 78
     4
170
     0
171
     2
172
     0
173
     0
174
     0
175
     0
176
     0
177
     0
178
     0
  0
ENDTAB
  0
ENDSEC
  0
SECTION
  2
BLOCKS
  0
BLOCK
  8
0
  2
$MODEL_SPACE
 70
     0
 10
0.0
 20
0.0
 30
0.0
  3
$MODEL_SPACE
  1

  0
ENDBLK
  5
21
  8
0
  0
BLOCK
 67
     1
  8
0
  2
$PAPER_SPACE
 70
     0
 10
0.0
 20
0.0
 30
0.0
  3
$PAPER_SPACE
  1

  0
ENDBLK
  5
1D
 67
     1
  8
0
  0
ENDSEC
  0
SECTION
  2
ENTITIES
  0
ATTDEF
  5
132A3
  8
DEFPOINTS
 10
3755.1479618709468014
 20
140.7200310532116987
 30
0.0
 40
0.001
  1
K-99874T-B9
  3

  2
MODELNUMBER
 70
     0
1001
ACDBATTR
1070
     0
1070
     1
  0
ATTDEF
  5
132A4
  8
DEFPOINTS
 10
3755.1479618709468014
 20
140.7183643865450051
 30
0.0
 40
0.001
  1
BEITOU
  3

  2
TRADENAME
 70
     0
1001
ACDBATTR
1070
     0
1070
     1
  0
ATTDEF
  5
132A5
  8
DEFPOINTS
 10
3755.1479618709468014
 20
140.7166977198783968
 30
0.0
 40
0.001
  1
BATH AND SHOWER FAUCET
  3

  2
PRODUCT
 70
     0
1001
ACDBATTR
1070
     0
1070
     1
  0
LINE
  5
153DD
  8
0
 10
3771.98164657471807
 20
140.7141077379882859
 30
0.0
 11
3759.580071771519215
 21
140.7141077379882859
 31
0.0
  0
LINE
  5
153DE
  8
0
 10
3757.9068434251180406
 20
140.7141077379882859
 30
0.0
 11
3752.395032401518165
 21
140.7141077379882859
 31
0.0
  0
LINE
  5
153DF
  8
0
 10
3769.5603867322179212
 20
151.8833990765882902
 30
0.0
 11
3770.6627489369179784
 21
151.8833990765882902
 31
0.0
  0
LINE
  5
153E0
  8
0
 10
3760.6033237400179132
 20
142.6826116749882942
 30
0.0
 11
3762.2969772833180286
 21
142.6826116749882942
 31
0.0
  0
LINE
  5
153E1
  8
0
 10
3760.5713237400182152
 20
140.9503282104882942
 30
0.0
 11
3762.3289772833181814
 21
140.9503282104882942
 31
0.0
  0
LINE
  5
153E2
  8
0
 10
3760.5643237400181533
 20
141.0811234859882859
 30
0.0
 11
3760.5643237400181533
 21
140.9573282104882139
 31
0.0
  0
LINE
  5
153E3
  8
0
 10
3760.5643237400181533
 20
141.114808525388213
 30
0.0
 11
3760.5643237400181533
 21
142.643611674988307
 31
0.0
  0
LINE
  5
153E4
  8
0
 10
3770.8005442125181617
 20
142.3483360844882952
 30
0.0
 11
3770.8005442125181617
 21
140.9503282104882942
 31
0.0
  0
LINE
  5
153E5
  8
0
 10
3771.98164657471807
 20
140.9113282104883069
 30
0.0
 11
3771.98164657471807
 21
140.7141077379882859
 31
0.0
  0
LINE
  5
153E6
  8
0
 10
3759.580071771519215
 20
140.9113282104883069
 30
0.0
 11
3759.580071771519215
 21
140.7141077379882859
 31
0.0
  0
ARC
  5
153E7
  8
0
 10
3759.6190717715180654
 20
140.9113282104883069
 30
0.0
 40
0.039
 50
90.0
 51
180.0000000000015916
  0
ARC
  5
153E8
  8
0
 10
3771.9426465747178554
 20
140.9113282104883069
 30
0.0
 40
0.039
 50
0.0
 51
90.0
  0
LINE
  5
153E9
  8
0
 10
3762.3289772833181814
 20
141.0881234859882909
 30
0.0
 11
3760.5713237400182152
 21
141.0881234859882909
 31
0.0
  0
LINE
  5
153EA
  8
0
 10
3762.3289772833181814
 20
141.1078085253882932
 30
0.0
 11
3760.5713237400182152
 21
141.1078085253882932
 31
0.0
  0
LINE
  5
153EB
  8
0
 10
3762.3359772833177885
 20
141.114808525388213
 30
0.0
 11
3762.3359772833177885
 21
142.643611674988307
 31
0.0
  0
LINE
  5
153EC
  8
0
 10
3762.3359772833177885
 20
141.0811234859882859
 30
0.0
 11
3762.3359772833177885
 21
140.9573282104882139
 31
0.0
  0
ARC
  5
153ED
  8
0
 10
3762.3289772833181814
 20
141.0811234859882859
 30
0.0
 40
0.007
 50
0.000000000014656
 51
89.9999999999739515
  0
ARC
  5
153EE
  8
0
 10
3762.3289772833181814
 20
141.1148085253882982
 30
0.0
 40
0.007
 50
270.0000000000259774
 51
359.9999999999885745
  0
ARC
  5
153EF
  8
0
 10
3762.3289772833181814
 20
140.9573282104882139
 30
0.0
 40
0.007
 50
270.0
 51
0.0
  0
ARC
  5
153F0
  8
0
 10
3760.5713237400182152
 20
141.114808525388213
 30
0.0
 40
0.007
 50
179.9999999999934914
 51
270.0
  0
ARC
  5
153F1
  8
0
 10
3760.5713237400182152
 20
141.0811234859882859
 30
0.0
 40
0.007
 50
90.0000000000260485
 51
180.0000000000032117
  0
ARC
  5
153F2
  8
0
 10
3760.5713237400182152
 20
140.9573282104882139
 30
0.0
 40
0.007
 50
179.9999999999901945
 51
270.0
  0
LINE
  5
153F3
  8
0
 10
3760.5840087794190367
 20
141.0881234859882909
 30
0.0
 11
3760.5840087794190367
 21
141.1078085253882932
 31
0.0
  0
LINE
  5
153F4
  8
0
 10
3762.3162922440192233
 20
141.1078085253882932
 30
0.0
 11
3762.3162922440192233
 21
141.0881234859882909
 31
0.0
  0
ARC
  5
153F5
  8
0
 10
3760.6033237400179132
 20
142.643611674988307
 30
0.0
 40
0.039
 50
90.0
 51
180.0
  0
ARC
  5
153F6
  8
0
 10
3762.2969772833180286
 20
142.643611674988307
 30
0.0
 40
0.039
 50
0.0000000000032569
 51
90.0
  0
LINE
  5
153F7
  8
0
 10
3771.9426465747178554
 20
140.9503282104882942
 30
0.0
 11
3759.6190717715180654
 21
140.9503282104882942
 31
0.0
  0
LINE
  5
153F8
  8
0
 10
3764.93403240141879
 20
142.6826116749882942
 30
0.0
 11
3766.6276859447179959
 21
142.6826116749882942
 31
0.0
  0
LINE
  5
153F9
  8
0
 10
3764.9020324014181824
 20
140.9503282104882942
 30
0.0
 11
3766.6596859447190582
 21
140.9503282104882942
 31
0.0
  0
LINE
  5
153FA
  8
0
 10
3764.8950324014181206
 20
141.0811234859882859
 30
0.0
 11
3764.8950324014181206
 21
140.9573282104882139
 31
0.0
  0
LINE
  5
153FB
  8
0
 10
3764.8950324014181206
 20
141.114808525388213
 30
0.0
 11
3764.8950324014181206
 21
142.643611674988307
 31
0.0
  0
LINE
  5
153FC
  8
0
 10
3766.6596859447190582
 20
141.0881234859882909
 30
0.0
 11
3764.9020324014181824
 21
141.0881234859882909
 31
0.0
  0
LINE
  5
153FD
  8
0
 10
3766.6596859447190582
 20
141.1078085253882932
 30
0.0
 11
3764.9020324014181824
 21
141.1078085253882932
 31
0.0
  0
LINE
  5
153FE
  8
0
 10
3766.66668594471912
 20
141.114808525388213
 30
0.0
 11
3766.66668594471912
 21
142.643611674988307
 31
0.0
  0
LINE
  5
153FF
  8
0
 10
3766.66668594471912
 20
141.0811234859882859
 30
0.0
 11
3766.66668594471912
 21
140.9573282104882139
 31
0.0
  0
ARC
  5
15400
  8
0
 10
3766.6596859447190582
 20
141.0811234859882859
 30
0.0
 40
0.007
 50
0.000000000014656
 51
89.9999999999739515
  0
ARC
  5
15401
  8
0
 10
3766.6596859447190582
 20
141.1148085253882982
 30
0.0
 40
0.007
 50
270.0000000000259774
 51
359.9999999999885745
  0
ARC
  5
15402
  8
0
 10
3766.6596859447190582
 20
140.9573282104882139
 30
0.0
 40
0.007
 50
270.0
 51
0.0
  0
ARC
  5
15403
  8
0
 10
3764.9020324014181824
 20
141.114808525388213
 30
0.0
 40
0.007
 50
179.9999999999934914
 51
270.0
  0
ARC
  5
15404
  8
0
 10
3764.9020324014181824
 20
141.0811234859882859
 30
0.0
 40
0.007
 50
90.0000000000260485
 51
180.0000000000032117
  0
ARC
  5
15405
  8
0
 10
3764.9020324014181824
 20
140.9573282104882139
 30
0.0
 40
0.007
 50
179.9999999999901945
 51
270.0
  0
LINE
  5
15406
  8
0
 10
3764.914717440819004
 20
141.0881234859882909
 30
0.0
 11
3764.914717440819004
 21
141.1078085253882932
 31
0.0
  0
LINE
  5
15407
  8
0
 10
3766.6470009054191905
 20
141.1078085253882932
 30
0.0
 11
3766.6470009054191905
 21
141.0881234859882909
 31
0.0
  0
ARC
  5
15408
  8
0
 10
3764.93403240141879
 20
142.643611674988307
 30
0.0
 40
0.039
 50
90.0
 51
180.0
  0
ARC
  5
15409
  8
0
 10
3766.6276859447179959
 20
142.643611674988307
 30
0.0
 40
0.039
 50
0.0000000000032569
 51
90.0
  0
ARC
  5
1540A
  8
0
 10
3752.434088342934956
 20
144.7498403198563039
 30
0.0
 40
0.0390716389516421
 50
89.5757253599456931
 51
181.6241909591309138
  0
LINE
  5
1540B
  8
0
 10
3769.4225914566181928
 20
142.3483360844882952
 30
0.0
 11
3769.4225914566181928
 21
140.9503282104882942
 31
0.0
  0
LINE
  5
1540C
  8
0
 10
3769.4615914566179526
 20
142.3873360844883109
 30
0.0
 11
3770.761544212517947
 21
142.3873360844883109
 31
0.0
  0
LINE
  5
1540D
  8
0
 10
3770.6627489369179784
 20
142.4345801789883126
 30
0.0
 11
3769.5603867322179212
 21
142.4345801789883126
 31
0.0
  0
ARC
  5
1540E
  8
0
 10
3769.4615914566179526
 20
142.3483360844882952
 30
0.0
 40
0.039
 50
90.0
 51
180.0
  0
ARC
  5
1540F
  8
0
 10
3770.761544212517947
 20
142.34833608448821
 30
0.0
 40
0.039
 50
0.0000000000048853
 51
90.0
  0
LINE
  5
15410
  8
0
 10
3769.5603867322179212
 20
142.4345801789883126
 30
0.0
 11
3769.5603867322179212
 21
151.8833990765882902
 31
0.0
  0
LINE
  5
15411
  8
0
 10
3770.6627489369179784
 20
142.4345801789883126
 30
0.0
 11
3770.6627489369179784
 21
151.8833990765882902
 31
0.0
  0
LINE
  5
15412
  8
0
 10
3769.7493631101178835
 20
142.3873360844883109
 30
0.0
 11
3769.7493631101178835
 21
142.4345801789883126
 31
0.0
  0
LINE
  5
15413
  8
0
 10
3770.4737725589188813
 20
142.3873360844883109
 30
0.0
 11
3770.4737725589188813
 21
142.4345801789883126
 31
0.0
  0
LINE
  5
15414
  8
0
 10
3770.6627489369179784
 20
151.8833990765882902
 30
0.0
 11
3770.6627489369179784
 21
142.4345801789883126
 31
0.0
  0
LINE
  5
15415
  8
0
 10
3769.5603867322179212
 20
151.8833990765882902
 30
0.0
 11
3769.5603867322179212
 21
142.4345801789883126
 31
0.0
  0
LINE
  5
15416
  8
0
 10
3757.8878434251178078
 20
143.5290683678882999
 30
0.0
 11
3752.4140324015188526
 21
143.5290683678882999
 31
0.0
  0
ARC
  5
15417
  8
0
 10
3752.4140324015188526
 20
143.5480683678881917
 30
0.0
 40
0.019
 50
180.0
 51
270.0
  0
LINE
  5
15418
  8
0
 10
3752.395032401518165
 20
144.7487328856896056
 30
0.0
 11
3752.395032401518165
 21
143.5480683678881917
 31
0.0
  0
LINE
  5
15419
  8
0
 10
3752.395032401518165
 20
143.5100683678882945
 30
0.0
 11
3752.395032401518165
 21
140.7141077379882859
 31
0.0
  0
LINE
  5
1541A
  8
0
 10
3757.9068434251180406
 20
140.7141077379882859
 30
0.0
 11
3757.9068434251180406
 21
143.5100683678882092
 31
0.0
  0
LINE
  5
1541B
  8
0
 10
3757.9068434251180406
 20
143.5480683678881917
 30
0.0
 11
3757.9068434251180406
 21
144.7487328856882129
 31
0.0
  0
LINE
  5
1541C
  8
0
 10
3753.2966072046187946
 20
144.76931708689159
 30
0.0
 11
3753.2966072046187946
 21
144.6227455332883096
 31
0.0
  0
LINE
  5
1541D
  8
0
 10
3757.005267146641927
 20
144.6227455332883096
 30
0.0
 11
3757.005267146641927
 21
144.7699108875883098
 31
0.0
  0
ARC
  5
1541E
  8
0
 10
3757.8878434251178078
 20
143.5100683678882092
 30
0.0
 40
0.019
 50
359.9999999999968168
 51
90.0
  0
ARC
  5
1541F
  8
0
 10
3757.8878434251178078
 20
143.5480683678881917
 30
0.0
 40
0.019
 50
270.0
 51
0.0
  0
ARC
  5
15420
  8
0
 10
3752.4140324015188526
 20
143.5480683678881917
 30
0.0
 40
0.019
 50
270.0
 51
270.0
  0
ARC
  5
15421
  8
0
 10
3752.4140324015188526
 20
143.5100683678882945
 30
0.0
 40
0.019
 50
90.0
 51
180.0
  0
LINE
  5
15422
  8
0
 10
3756.9823316140182214
 20
144.7889108875882869
 30
0.0
 11
3753.3195442125179397
 21
144.7889108875882869
 31
0.0
  0
LINE
  5
15423
  8
0
 10
3753.3076072046178524
 20
144.6117455332883139
 30
0.0
 11
3756.9942671466419597
 21
144.6117455332883139
 31
0.0
  0
LINE
  5
15424
  8
0
 10
3756.2328083757870445
 20
144.6671118376881964
 30
0.0
 11
3754.0690674508491611
 21
144.6671118376881964
 31
0.0
  0
ARC
  5
15425
  8
0
 10
3753.2770525487521809
 20
144.7693566277756076
 30
0.0
 40
0.0195546958441935
 50
359.8841440683349902
 51
90.3826236785460537
  0
ARC
  5
15426
  8
0
 10
3753.3195442125888803
 20
144.7699108874174954
 30
0.0
 40
0.0190000001707116
 50
90.0000002132349692
 51
179.9999994852130101
  0
ARC
  5
15427
  8
0
 10
3753.3195442125888803
 20
144.6307455334589918
 30
0.0
 40
0.0190000001707094
 50
180.000000514783693
 51
269.9999997867649881
  0
ARC
  5
15428
  8
0
 10
3756.9823316139481904
 20
144.7699108874174954
 30
0.0
 40
0.0190000001707107
 50
0.0000005147804594
 51
89.999999786765045
  0
ARC
  5
15429
  8
0
 10
3756.9823316140182214
 20
144.630745533288291
 30
0.0
 40
0.019
 50
270.0
 51
0.0
  0
ARC
  5
1542A
  8
0
 10
3753.3076072046178524
 20
144.6227455332883096
 30
0.0
 40
0.011
 50
180.0
 51
270.0
  0
LINE
  5
1542B
  8
0
 10
3757.8673984531110364
 20
144.7889108875882869
 30
0.0
 11
3757.0242671466421598
 21
144.7889108875882869
 31
0.0
  0
LINE
  5
1542C
  8
0
 10
3756.9823316140182214
 20
144.7889108875882869
 30
0.0
 11
3753.3195442125179397
 21
144.7889108875882869
 31
0.0
  0
LINE
  5
1542D
  8
0
 10
3753.2769219626229642
 20
144.7889108875882869
 30
0.0
 11
3752.4343776653631721
 21
144.7889108875882869
 31
0.0
  0
ARC
  5
1542E
  8
0
 10
3753.4331517503092073
 20
144.9647321791777017
 30
0.0
 40
0.2373140750431504
 50
236.0279953751577864
 51
258.0398126638798999
  0
ARC
  5
1542F
  8
0
 10
3754.0618982508808585
 20
148.2099712207221955
 30
0.0
 40
3.542866636691234
 50
258.9684532966072084
 51
270.1159414742685954
  0
ARC
  5
15430
  8
0
 10
3752.3556035917899862
 20
143.5782239408243015
 30
0.0
 40
1.173158324704703
 50
52.0926492760041171
 51
86.1486481527995949
  0
ARC
  5
15431
  8
0
 10
3755.5774720212480133
 20
147.5253074793110954
 30
0.0
 40
3.9223301164436442
 50
230.3827730966661989
 51
256.8350655364233717
  0
ARC
  5
15432
  8
0
 10
3755.1578175482868573
 20
145.9551653472890109
 30
0.0
 40
2.2984415958951092
 50
258.1069420179077269
 51
269.8285035227361277
  0
ARC
  5
15433
  8
0
 10
3755.1456152604350791
 20
150.186729399927799
 30
0.0
 40
6.1960191600363537
 50
268.0431543612980931
 51
270.0492195998056104
  0
ARC
  5
15434
  8
0
 10
3754.9760728676287727
 20
147.4220979572970975
 30
0.0
 40
3.428032068164339
 50
253.8887675905689889
 51
269.2974707338207168
  0
ARC
  5
15435
  8
0
 10
3753.9042066864708431
 20
144.8317307167465913
 30
0.0
 40
0.5699862821217568
 50
203.3272812423572873
 51
234.2007130734313876
  0
ARC
  5
15436
  8
0
 10
3754.4819368136741105
 20
145.5392978779094051
 30
0.0
 40
1.4828243065137401
 50
232.0870127088963955
 51
252.0432545358061134
  0
ARC
  5
15437
  8
0
 10
3753.3717151513601493
 20
144.6018732833447018
 30
0.0
 40
0.0100001065606593
 50
24.5359442338708611
 51
80.828069962564058
  0
LINE
  5
15438
  8
0
 10
3753.5761347637189829
 20
144.4775504847094112
 30
0.0
 11
3753.5761347637189829
 21
144.6117455332883139
 31
0.0
  0
ARC
  5
15439
  8
0
 10
3753.7743892950320515
 20
144.4731396599401023
 30
0.0
 40
0.1983035919027273
 50
178.72547701065551
 51
198.5921977563668861
  0
LINE
  5
1543A
  8
0
 10
3753.8792843700180129
 20
144.4542652182882989
 30
0.0
 11
3753.6254885627181466
 21
144.4542652182882989
 31
0.0
  0
LINE
  5
1543B
  8
0
 10
3753.9029064172191283
 20
144.4542652182882989
 30
0.0
 11
3754.1942449999191922
 21
144.4542652182882989
 31
0.0
  0
LINE
  5
1543C
  8
0
 10
3754.217867047118034
 20
144.4542652182882989
 30
0.0
 11
3754.5092056298180978
 21
144.4542652182882989
 31
0.0
  0
LINE
  5
1543D
  8
0
 10
3754.5328276770192133
 20
144.4542652182882989
 30
0.0
 11
3754.8241662597188224
 21
144.4542652182882989
 31
0.0
  0
LINE
  5
1543E
  8
0
 10
3754.8477883070190728
 20
144.4542652182882989
 30
0.0
 11
3755.1391268896190923
 21
144.4542652182882989
 31
0.0
  0
ARC
  5
1543F
  8
0
 10
3753.6254885627181466
 20
144.4148951395883103
 30
0.0
 40
0.0393700786999998
 50
90.0
 51
187.2678966814785895
  0
ARC
  5
15440
  8
0
 10
3753.9645581261597727
 20
144.6296296588245127
 30
0.0
 40
0.4372896740825011
 50
210.1489555464237924
 51
236.0712745898727007
  0
LINE
  5
15441
  8
0
 10
3753.9029064172191283
 20
144.3164699426882862
 30
0.0
 11
3754.1942449999191922
 21
144.3164699426882862
 31
0.0
  0
LINE
  5
15442
  8
0
 10
3754.217867047118034
 20
144.3164699426882862
 30
0.0
 11
3754.5092056298180978
 21
144.3164699426882862
 31
0.0
  0
LINE
  5
15443
  8
0
 10
3754.5328276770192133
 20
144.3164699426882862
 30
0.0
 11
3754.8241662597188224
 21
144.3164699426882862
 31
0.0
  0
LINE
  5
15444
  8
0
 10
3754.8477883070190728
 20
144.3164699426882862
 30
0.0
 11
3755.1391268896190923
 21
144.3164699426882862
 31
0.0
  0
LINE
  5
15445
  8
0
 10
3753.9029064172191283
 20
144.2928478954883076
 30
0.0
 11
3754.1942449999191922
 21
144.2928478954883076
 31
0.0
  0
LINE
  5
15446
  8
0
 10
3754.217867047118034
 20
144.2928478954883076
 30
0.0
 11
3754.5092056298180978
 21
144.2928478954883076
 31
0.0
  0
LINE
  5
15447
  8
0
 10
3754.5328276770192133
 20
144.2928478954883076
 30
0.0
 11
3754.8241662597188224
 21
144.2928478954883076
 31
0.0
  0
LINE
  5
15448
  8
0
 10
3754.8477883070190728
 20
144.2928478954883076
 30
0.0
 11
3755.1391268896190923
 21
144.2928478954883076
 31
0.0
  0
LINE
  5
15449
  8
0
 10
3755.1391268896190923
 20
143.9907136371506908
 30
0.0
 11
3755.1391268896190923
 21
144.2928478954883076
 31
0.0
  0
LINE
  5
1544A
  8
0
 10
3755.1391268896190923
 20
144.3164699426882862
 30
0.0
 11
3755.1391268896190923
 21
144.4542652182882989
 31
0.0
  0
LINE
  5
1544B
  8
0
 10
3754.8477883070190728
 20
144.3164699426882862
 30
0.0
 11
3754.8477883070190728
 21
144.4542652182882989
 31
0.0
  0
LINE
  5
1544C
  8
0
 10
3754.8477883070190728
 20
144.2928478954883076
 30
0.0
 11
3754.8477883070190728
 21
143.9964670764414052
 31
0.0
  0
LINE
  5
1544D
  8
0
 10
3754.8241662597188224
 20
144.3164699426882862
 30
0.0
 11
3754.8241662597188224
 21
144.4542652182882989
 31
0.0
  0
LINE
  5
1544E
  8
0
 10
3754.8241662597188224
 20
144.2928478954883076
 30
0.0
 11
3754.8241662597188224
 21
143.9974332667271142
 31
0.0
  0
LINE
  5
1544F
  8
0
 10
3754.5328276770192133
 20
144.3164699426882862
 30
0.0
 11
3754.5328276770192133
 21
144.4542652182882989
 31
0.0
  0
LINE
  5
15450
  8
0
 10
3754.5328276770192133
 20
144.2928478954883076
 30
0.0
 11
3754.5328276770192133
 21
144.0228425150916109
 31
0.0
  0
LINE
  5
15451
  8
0
 10
3754.5092056298180978
 20
144.2928478954883076
 30
0.0
 11
3754.5092056298180978
 21
144.0260062561467862
 31
0.0
  0
LINE
  5
15452
  8
0
 10
3754.1942449999191922
 20
144.3164699426882862
 30
0.0
 11
3754.1942449999191922
 21
144.4542652182882989
 31
0.0
  0
LINE
  5
15453
  8
0
 10
3754.1942449999191922
 20
144.2928478954883076
 30
0.0
 11
3754.1942449999191922
 21
144.0844117758782943
 31
0.0
  0
LINE
  5
15454
  8
0
 10
3753.8792843700180129
 20
144.184462848784392
 30
0.0
 11
3753.8792843700180129
 21
144.4542652182882989
 31
0.0
  0
LINE
  5
15455
  8
0
 10
3753.9029064172191283
 20
144.3164699426882862
 30
0.0
 11
3753.9029064172191283
 21
144.4542652182882989
 31
0.0
  0
LINE
  5
15456
  8
0
 10
3753.9029064172191283
 20
144.2928478954883076
 30
0.0
 11
3753.9029064172191283
 21
144.174200180318195
 31
0.0
  0
LINE
  5
15457
  8
0
 10
3754.8477883070190728
 20
144.4470543328880012
 30
0.0
 11
3754.8241662597188224
 21
144.4470543328880012
 31
0.0
  0
LINE
  5
15458
  8
0
 10
3754.5092056298180978
 20
144.4470543328883139
 30
0.0
 11
3754.5328276770192133
 21
144.4470543328883139
 31
0.0
  0
LINE
  5
15459
  8
0
 10
3754.5092056298180978
 20
144.4542652182882989
 30
0.0
 11
3754.5092056298180978
 21
144.3164699426882862
 31
0.0
  0
LINE
  5
1545A
  8
0
 10
3754.217867047118034
 20
144.4542652182882989
 30
0.0
 11
3754.217867047118034
 21
144.3164699426882862
 31
0.0
  0
LINE
  5
1545B
  8
0
 10
3754.217867047118034
 20
144.2928478954883076
 30
0.0
 11
3754.217867047118034
 21
144.0768056092207132
 31
0.0
  0
LINE
  5
1545C
  8
0
 10
3754.1942449999191922
 20
144.4470543328883139
 30
0.0
 11
3754.217867047118034
 21
144.4470543328883139
 31
0.0
  0
LINE
  5
1545D
  8
0
 10
3753.8792843700180129
 20
144.4470543328883139
 30
0.0
 11
3753.9029064172191283
 21
144.4470543328883139
 31
0.0
  0
LINE
  5
1545E
  8
0
 10
3755.1391268896190923
 20
144.4470543328883139
 30
0.0
 11
3755.1509379132680806
 21
144.4470543328883139
 31
0.0
  0
LINE
  5
1545F
  8
0
 10
3753.6181780308179441
 20
144.4535805272712139
 30
0.0
 11
3753.6181780308179441
 21
144.3627156490574066
 31
0.0
  0
LINE
  5
15460
  8
0
 10
3753.6181780308179441
 20
144.5330053757882922
 30
0.0
 11
3753.6181780308179441
 21
144.6117455332883139
 31
0.0
  0
LINE
  5
15461
  8
0
 10
3753.6181780308179441
 20
144.5330053757882922
 30
0.0
 11
3753.5761347637189829
 21
144.5330053757882922
 31
0.0
  0
LINE
  5
15462
  8
0
 10
3753.5231776974192144
 20
144.5723754544883093
 30
0.0
 11
3753.5231776974192144
 21
144.6117455332883139
 31
0.0
  0
LINE
  5
15463
  8
0
 10
3753.3966446609529157
 20
144.5723754544883093
 30
0.0
 11
3753.5761347637189829
 21
144.5723754544883093
 31
0.0
  0
LINE
  5
15464
  8
0
 10
3753.7615265775430089
 20
143.3562730922882906
 30
0.0
 11
3756.5403492490950157
 21
143.3562730922882906
 31
0.0
  0
LINE
  5
15465
  8
0
 10
3753.7615265775430089
 20
143.4262730922883122
 30
0.0
 11
3756.5403492490950157
 21
143.4262730922883122
 31
0.0
  0
ARC
  5
15466
  8
0
 10
3753.759972402880976
 20
143.3912730922882872
 30
0.0
 40
0.0350344895621512
 50
87.457451720307688
 51
272.542548279692312
  0
ARC
  5
15467
  8
0
 10
3756.5419034237570486
 20
143.3912730922882872
 30
0.0
 40
0.0350344895621512
 50
267.457451720307688
 51
92.5425482796923262
  0
LINE
  5
15468
  8
0
 10
3752.395032401518165
 20
144.7487328856882129
 30
0.0
 11
3752.4344024802180684
 21
144.7487328856882129
 31
0.0
  0
ARC
  5
15469
  8
0
 10
3757.8659562748730423
 20
144.748047065062309
 30
0.0
 40
0.0408929016469457
 50
0.9609606580669261
 51
87.8391230228546647
  0
ARC
  5
1546A
  8
0
 10
3757.0248243405580979
 20
144.7693541017445966
 30
0.0
 40
0.0195572289433515
 50
90.3856874443124099
 51
180.1084405320600865
  0
LINE
  5
1546B
  8
0
 10
3757.0013316141180439
 20
144.7699108875883098
 30
0.0
 11
3757.0013316141180439
 21
144.630745533288291
 31
0.0
  0
ARC
  5
1546C
  8
0
 10
3756.9823316141178111
 20
144.7699108875883098
 30
0.0
 40
0.019
 50
0.0
 51
90.0
  0
ARC
  5
1546D
  8
0
 10
3756.9823316141178111
 20
144.630745533288291
 30
0.0
 40
0.019
 50
270.0
 51
0.0
  0
ARC
  5
1546E
  8
0
 10
3756.9942696645211981
 20
144.6227430154089859
 30
0.0
 40
0.0109974824090303
 50
269.9868821019413758
 51
0.0131178980472092
  0
LINE
  5
1546F
  8
0
 10
3757.0246926917561723
 20
144.7889108875882869
 30
0.0
 11
3757.867498161273943
 21
144.7889108875882869
 31
0.0
  0
ARC
  5
15470
  8
0
 10
3756.8687240763279078
 20
144.9647321791777017
 30
0.0
 40
0.2373140750431504
 50
281.9601873361201001
 51
303.9718117556886909
  0
ARC
  5
15471
  8
0
 10
3756.2399775757548923
 20
148.2099712207221955
 30
0.0
 40
3.542866636691234
 50
269.8840585257315183
 51
281.0315467033927916
  0
ARC
  5
15472
  8
0
 10
3757.9462722348462194
 20
143.5782239408243015
 30
0.0
 40
1.173158324704703
 50
93.8513518472004051
 51
127.9073507239959042
  0
ARC
  5
15473
  8
0
 10
3754.7244038053891018
 20
147.5253074793110954
 30
0.0
 40
3.9223301164436442
 50
283.1649344635765146
 51
309.6172269033336875
  0
ARC
  5
15474
  8
0
 10
3755.1440582783488935
 20
145.9551653472890109
 30
0.0
 40
2.2984415958951092
 50
270.171496477263986
 51
281.8930579820922731
  0
ARC
  5
15475
  8
0
 10
3755.1562605662011265
 20
150.186729399927799
 30
0.0
 40
6.1960191600363537
 50
269.9507804001943896
 51
271.9568456387019069
  0
ARC
  5
15476
  8
0
 10
3755.3258029590069782
 20
147.4220979572970975
 30
0.0
 40
3.428032068164339
 50
270.7025292661792832
 51
286.1112324094308974
  0
ARC
  5
15477
  8
0
 10
3756.3976691401658172
 20
144.8317307167465913
 30
0.0
 40
0.5699862821217468
 50
305.7992869265676177
 51
336.6727187576427127
  0
ARC
  5
15478
  8
0
 10
3755.8199390129620951
 20
145.5392978779094051
 30
0.0
 40
1.4828243065137401
 50
287.9567454641938866
 51
307.9129872911034909
  0
ARC
  5
15479
  8
0
 10
3756.9301606752760563
 20
144.6018732833447018
 30
0.0
 40
0.0100001065606593
 50
99.1719300374359278
 51
155.4640557661290927
  0
LINE
  5
1547A
  8
0
 10
3756.7257410629181322
 20
144.4775504847094112
 30
0.0
 11
3756.7257410629181322
 21
144.6117455332883139
 31
0.0
  0
ARC
  5
1547B
  8
0
 10
3756.5274865316050636
 20
144.4731396599401023
 30
0.0
 40
0.1983035919027273
 50
341.4078022436330002
 51
1.274522989344504
  0
LINE
  5
1547C
  8
0
 10
3756.4225914566181928
 20
144.4542652182882989
 30
0.0
 11
3756.676387263918059
 21
144.4542652182882989
 31
0.0
  0
LINE
  5
1547D
  8
0
 10
3756.3989694094179868
 20
144.4542652182882989
 30
0.0
 11
3756.1076308267179229
 21
144.4542652182882989
 31
0.0
  0
LINE
  5
1547E
  8
0
 10
3756.0840087795190811
 20
144.4542652182882989
 30
0.0
 11
3755.7926701968181078
 21
144.4542652182882989
 31
0.0
  0
LINE
  5
1547F
  8
0
 10
3755.7690481496188113
 20
144.4542652182882989
 30
0.0
 11
3755.4777095669178379
 21
144.4542652182882989
 31
0.0
  0
LINE
  5
15480
  8
0
 10
3755.4540875196180423
 20
144.4542652182882989
 30
0.0
 11
3755.1627489370180228
 21
144.4542652182882989
 31
0.0
  0
ARC
  5
15481
  8
0
 10
3756.676387263918059
 20
144.4148951395883103
 30
0.0
 40
0.0393700786999998
 50
352.7321033185212968
 51
90.0
  0
ARC
  5
15482
  8
0
 10
3756.3373177004759782
 20
144.6296296588245127
 30
0.0
 40
0.4372896740825011
 50
303.9287254101271856
 51
329.8510444535760939
  0
LINE
  5
15483
  8
0
 10
3756.3989694094179868
 20
144.3164699426882862
 30
0.0
 11
3756.1076308267179229
 21
144.3164699426882862
 31
0.0
  0
LINE
  5
15484
  8
0
 10
3756.0840087795190811
 20
144.3164699426882862
 30
0.0
 11
3755.7926701968181078
 21
144.3164699426882862
 31
0.0
  0
LINE
  5
15485
  8
0
 10
3755.7690481496188113
 20
144.3164699426882862
 30
0.0
 11
3755.4777095669178379
 21
144.3164699426882862
 31
0.0
  0
LINE
  5
15486
  8
0
 10
3755.4540875196180423
 20
144.3164699426882862
 30
0.0
 11
3755.1627489370180228
 21
144.3164699426882862
 31
0.0
  0
LINE
  5
15487
  8
0
 10
3756.3989694094179868
 20
144.2928478954883076
 30
0.0
 11
3756.1076308267179229
 21
144.2928478954883076
 31
0.0
  0
LINE
  5
15488
  8
0
 10
3756.0840087795190811
 20
144.2928478954883076
 30
0.0
 11
3755.7926701968181078
 21
144.2928478954883076
 31
0.0
  0
LINE
  5
15489
  8
0
 10
3755.7690481496188113
 20
144.2928478954883076
 30
0.0
 11
3755.4777095669178379
 21
144.2928478954883076
 31
0.0
  0
LINE
  5
1548A
  8
0
 10
3755.4540875196180423
 20
144.2928478954883076
 30
0.0
 11
3755.1627489370180228
 21
144.2928478954883076
 31
0.0
  0
LINE
  5
1548B
  8
0
 10
3755.1627489370180228
 20
143.9907136371506908
 30
0.0
 11
3755.1627489370180228
 21
144.2928478954883076
 31
0.0
  0
LINE
  5
1548C
  8
0
 10
3755.1627489370180228
 20
144.3164699426882862
 30
0.0
 11
3755.1627489370180228
 21
144.4542652182882989
 31
0.0
  0
LINE
  5
1548D
  8
0
 10
3755.4540875196180423
 20
144.3164699426882862
 30
0.0
 11
3755.4540875196180423
 21
144.4542652182882989
 31
0.0
  0
LINE
  5
1548E
  8
0
 10
3755.4540875196180423
 20
144.2928478954883076
 30
0.0
 11
3755.4540875196180423
 21
143.9964670764414052
 31
0.0
  0
LINE
  5
1548F
  8
0
 10
3755.4777095669178379
 20
144.3164699426882862
 30
0.0
 11
3755.4777095669178379
 21
144.4542652182882989
 31
0.0
  0
LINE
  5
15490
  8
0
 10
3755.4777095669178379
 20
144.2928478954883076
 30
0.0
 11
3755.4777095669178379
 21
143.9974332667271142
 31
0.0
  0
LINE
  5
15491
  8
0
 10
3755.7690481496188113
 20
144.3164699426882862
 30
0.0
 11
3755.7690481496188113
 21
144.4542652182882989
 31
0.0
  0
LINE
  5
15492
  8
0
 10
3755.7690481496188113
 20
144.2928478954883076
 30
0.0
 11
3755.7690481496188113
 21
144.0228425150916109
 31
0.0
  0
LINE
  5
15493
  8
0
 10
3755.7926701968181078
 20
144.2928478954883076
 30
0.0
 11
3755.7926701968181078
 21
144.0260062561467862
 31
0.0
  0
LINE
  5
15494
  8
0
 10
3756.1076308267179229
 20
144.3164699426882862
 30
0.0
 11
3756.1076308267179229
 21
144.4542652182882989
 31
0.0
  0
LINE
  5
15495
  8
0
 10
3756.1076308267179229
 20
144.2928478954883076
 30
0.0
 11
3756.1076308267179229
 21
144.0844117758782943
 31
0.0
  0
LINE
  5
15496
  8
0
 10
3756.4225914566181928
 20
144.184462848784392
 30
0.0
 11
3756.4225914566181928
 21
144.4542652182882989
 31
0.0
  0
LINE
  5
15497
  8
0
 10
3756.3989694094179868
 20
144.3164699426882862
 30
0.0
 11
3756.3989694094179868
 21
144.4542652182882989
 31
0.0
  0
LINE
  5
15498
  8
0
 10
3756.3989694094179868
 20
144.2928478954883076
 30
0.0
 11
3756.3989694094179868
 21
144.174200180318195
 31
0.0
  0
LINE
  5
15499
  8
0
 10
3755.4540875196180423
 20
144.4470543328880012
 30
0.0
 11
3755.4777095669178379
 21
144.4470543328880012
 31
0.0
  0
LINE
  5
1549A
  8
0
 10
3755.7926701968181078
 20
144.4470543328883139
 30
0.0
 11
3755.7690481496188113
 21
144.4470543328883139
 31
0.0
  0
LINE
  5
1549B
  8
0
 10
3755.7926701968181078
 20
144.4542652182882989
 30
0.0
 11
3755.7926701968181078
 21
144.3164699426882862
 31
0.0
  0
LINE
  5
1549C
  8
0
 10
3756.0840087795190811
 20
144.4542652182882989
 30
0.0
 11
3756.0840087795190811
 21
144.3164699426882862
 31
0.0
  0
LINE
  5
1549D
  8
0
 10
3756.0840087795190811
 20
144.2928478954883076
 30
0.0
 11
3756.0840087795190811
 21
144.0768056092207132
 31
0.0
  0
LINE
  5
1549E
  8
0
 10
3756.1076308267179229
 20
144.4470543328883139
 30
0.0
 11
3756.0840087795190811
 21
144.4470543328883139
 31
0.0
  0
LINE
  5
1549F
  8
0
 10
3756.4225914566181928
 20
144.4470543328883139
 30
0.0
 11
3756.3989694094179868
 21
144.4470543328883139
 31
0.0
  0
LINE
  5
154A0
  8
0
 10
3755.1627489370180228
 20
144.4470543328883139
 30
0.0
 11
3755.1509379133690345
 21
144.4470543328883139
 31
0.0
  0
LINE
  5
154A1
  8
0
 10
3756.6836977958178068
 20
144.4535805272712139
 30
0.0
 11
3756.6836977958178068
 21
144.3627156490574066
 31
0.0
  0
LINE
  5
154A2
  8
0
 10
3756.6836977958178068
 20
144.5330053757882922
 30
0.0
 11
3756.6836977958178068
 21
144.6117455332883139
 31
0.0
  0
LINE
  5
154A3
  8
0
 10
3756.6836977958178068
 20
144.5330053757882922
 30
0.0
 11
3756.7257410629181322
 21
144.5330053757882922
 31
0.0
  0
LINE
  5
154A4
  8
0
 10
3756.7786981292188102
 20
144.5723754544883093
 30
0.0
 11
3756.7786981292188102
 21
144.6117455332883139
 31
0.0
  0
LINE
  5
154A5
  8
0
 10
3756.9052311656841994
 20
144.5723754544883093
 30
0.0
 11
3756.7257410629181322
 21
144.5723754544883093
 31
0.0
  0
LINE
  5
154A6
  8
0
 10
3757.9068434251180406
 20
144.7487328856882129
 30
0.0
 11
3757.8674733464190467
 21
144.7487328856882129
 31
0.0
  0
ARC
  5
154A7
  8
0
 10
3770.1130259888150249
 20
146.3125244863952901
 30
0.0
 40
0.3090507533198131
 50
181.0280152627813948
 51
269.7042862593482937
  0
ARC
  5
154A8
  8
0
 10
3770.1101490371002001
 20
146.3096105271490046
 30
0.0
 40
0.3061353617442319
 50
270.2399175867939221
 51
180.4923839353348001
  0
ARC
  5
154A9
  8
0
 10
3770.1147716455989212
 20
146.3103070353473925
 30
0.0
 40
0.2736901242407476
 50
359.3034240607204879
 51
90.6993809830407969
  0
ARC
  5
154AA
  8
0
 10
3770.1132805586062204
 20
146.3066273155492922
 30
0.0
 40
0.2773556220301177
 50
90.3820968471257373
 51
269.6179031528743053
  0
ARC
  5
154AB
  8
0
 10
3770.1066520779691018
 20
146.3110562916085939
 30
0.0
 40
0.2818189514344719
 50
270.9716208376069062
 51
359.1711748781481219
  0
ARC
  5
154AC
  8
0
 10
3770.1130259888150249
 20
147.0999260611953048
 30
0.0
 40
0.3090507533198131
 50
181.0280152627813948
 51
269.7042862593482937
  0
ARC
  5
154AD
  8
0
 10
3770.1101490371002001
 20
147.0970121019489909
 30
0.0
 40
0.3061353617442319
 50
270.2399175867939221
 51
180.4923839353348001
  0
ARC
  5
154AE
  8
0
 10
3770.1147716455989212
 20
147.0977086101474072
 30
0.0
 40
0.2736901242407476
 50
359.3034240607204879
 51
90.6993809830407969
  0
ARC
  5
154AF
  8
0
 10
3770.1132805586062204
 20
147.0940288903493069
 30
0.0
 40
0.2773556220301177
 50
90.3820968471257373
 51
269.6179031528743053
  0
ARC
  5
154B0
  8
0
 10
3770.1066520779691018
 20
147.0984578664086087
 30
0.0
 40
0.2818189514344719
 50
270.9716208376069062
 51
359.1711748781481219
  0
ARC
  5
154B1
  8
0
 10
3769.9813188254302077
 20
150.8557139212416871
 30
0.0
 40
0.0215442699834854
 50
107.1078064168105044
 51
297.9809714916314078
  0
ARC
  5
154B2
  8
0
 10
3769.9818258253908425
 20
150.8559243878310099
 30
0.0
 40
0.021499206874961
 50
296.5244360196359139
 51
108.5643418887841989
  0
ARC
  5
154B3
  8
0
 10
3769.9860201612168566
 20
150.8486483141811902
 30
0.0
 40
0.0549745272467264
 50
112.6406082847784944
 51
294.3910834124504277
  0
ARC
  5
154B4
  8
0
 10
3769.9863769796588713
 20
150.8488035806092
 30
0.0
 40
0.0549699601762193
 50
293.9855264002586068
 51
113.0461652969705
  0
ARC
  5
154B5
  8
0
 10
3769.8540346077661525
 20
150.7300904846036076
 30
0.0
 40
0.021194983503527
 50
315.680107173674628
 51
131.6527801378873903
  0
ARC
  5
154B6
  8
0
 10
3769.8534724423097941
 20
150.7295538971843882
 30
0.0
 40
0.0212364976877109
 50
129.5568780062156975
 51
317.7760093053541937
  0
ARC
  5
154B7
  8
0
 10
3769.8649481977040523
 20
150.7208570156142002
 30
0.0
 40
0.0551013289305114
 50
137.3842874563987948
 51
265.6587014919542753
  0
ARC
  5
154B8
  8
0
 10
3769.8652488791130963
 20
150.7278773024715122
 30
0.0
 40
0.0508536353623511
 50
93.2667713533035538
 51
143.445740644102699
  0
ARC
  5
154B9
  8
0
 10
3769.8610395869350214
 20
150.7222883641018996
 30
0.0
 40
0.0563751931227946
 50
269.7332931974543726
 51
88.6670688891426835
  0
ARC
  5
154BA
  8
0
 10
3770.111567834518155
 20
150.7239502576881875
 30
0.0
 40
0.0629921259999993
 50
89.9999999090416338
 51
270.0
  0
ARC
  5
154BB
  8
0
 10
3770.111567834518155
 20
150.7239502576881875
 30
0.0
 40
0.0629921259999993
 50
89.9999999090416338
 51
270.0
  0
ARC
  5
154BC
  8
0
 10
3770.11148560378615
 20
150.729855769499693
 30
0.0
 40
0.0215707784979933
 50
90.1452238249641908
 51
269.8547761750357949
  0
ARC
  5
154BD
  8
0
 10
3770.111193739905957
 20
150.722713769238311
 30
0.0
 40
0.0553941924543948
 50
89.6130604243755187
 51
270.386939575624524
  0
ARC
  5
154BE
  8
0
 10
3770.1117047392181121
 20
150.4705354629682006
 30
0.0
 40
0.0629921259999993
 50
90.249049737003574
 51
269.8754754255971875
  0
ARC
  5
154BF
  8
0
 10
3770.1116534343018429
 20
150.4764111058480012
 30
0.0
 40
0.021601724103375
 50
90.5901748028094147
 51
269.4098251971906279
  0
ARC
  5
154C0
  8
0
 10
3770.1112213366309334
 20
150.4707038910682115
 30
0.0
 40
0.0552923102655767
 50
89.7828118638620367
 51
270.2171881361380201
  0
ARC
  5
154C1
  8
0
 10
3770.111567834518155
 20
150.2200132497883089
 30
0.0
 40
0.0629921259999962
 50
89.8754754225748229
 51
270.0
  0
ARC
  5
154C2
  8
0
 10
3770.11148560378615
 20
150.2230187275029039
 30
0.0
 40
0.0215707784979933
 50
90.1452238249641908
 51
269.8547761750357949
  0
ARC
  5
154C3
  8
0
 10
3770.1109776890039029
 20
150.218689601769114
 30
0.0
 40
0.0552155517661821
 50
89.5296782057743172
 51
270.4703217942255833
  0
ARC
  5
154C4
  8
0
 10
3770.1117182939187842
 20
149.9636830589680869
 30
0.0
 40
0.0673542771642143
 50
90.1279902392339665
 51
269.7555493020237805
  0
ARC
  5
154C5
  8
0
 10
3770.1116360631858697
 20
149.9695885707795071
 30
0.0
 40
0.0215707784979933
 50
90.1452238249641908
 51
269.8547761750357949
  0
ARC
  5
154C6
  8
0
 10
3770.1109777743818086
 20
149.9666712835779947
 30
0.0
 40
0.055160526659381
 50
89.5292977129715553
 51
270.6129129351924121
  0
ARC
  5
154C7
  8
0
 10
3770.111426320775081
 20
149.716076226212806
 30
0.0
 40
0.0629919617211927
 50
90.0085010705007846
 51
270.0041922607578044
  0
ARC
  5
154C8
  8
0
 10
3770.11148560378615
 20
149.7161546666580989
 30
0.0
 40
0.0215707784979933
 50
90.1452238249641908
 51
269.8547761750357949
  0
ARC
  5
154C9
  8
0
 10
3770.1107835498878558
 20
149.7146532079503061
 30
0.0
 40
0.0551292999449639
 50
89.1848669368015408
 51
270.6728362288769176
  0
ARC
  5
154CA
  8
0
 10
3770.111567834518155
 20
149.4582846274732901
 30
0.0
 40
0.0629921259999993
 50
90.1245245744027841
 51
270.0
  0
ARC
  5
154CB
  8
0
 10
3770.11148560378615
 20
149.4641901392847103
 30
0.0
 40
0.0215707784979933
 50
90.1452238249641908
 51
269.8547761750357949
  0
ARC
  5
154CC
  8
0
 10
3770.111193739905957
 20
149.4570481390232999
 30
0.0
 40
0.0553941924543948
 50
89.6130604243755187
 51
270.386939575624524
  0
ARC
  5
154CD
  8
0
 10
3770.1114233251901169
 20
149.2121390610452067
 30
0.0
 40
0.0629921187155362
 50
90.0057763532156656
 51
270.0069169466382277
  0
ARC
  5
154CE
  8
0
 10
3770.11148560378615
 20
149.2122176587581066
 30
0.0
 40
0.0215707784979933
 50
90.1452238249641908
 51
269.8547761750357949
  0
ARC
  5
154CF
  8
0
 10
3770.1105946777261124
 20
149.2135632412615109
 30
0.0
 40
0.0551308682641422
 50
89.1308761391751148
 51
270.8691238608249137
  0
ARC
  5
154D0
  8
0
 10
3770.111357890536965
 20
148.9601707300882936
 30
0.0
 40
0.0629924758560548
 50
89.8090418543181386
 51
270.1909581456818046
  0
ARC
  5
154D1
  8
0
 10
3770.11148560378615
 20
148.9587614629930954
 30
0.0
 40
0.0215707784979933
 50
90.1452238249641908
 51
269.8547761750357949
  0
ARC
  5
154D2
  8
0
 10
3770.110536947006949
 20
148.9615447395042054
 30
0.0
 40
0.0551664563472239
 50
88.9292598136766657
 51
270.9285295381225183
  0
ARC
  5
154D3
  8
0
 10
3770.1113081100211275
 20
148.7082021801903124
 30
0.0
 40
0.0629920509651961
 50
89.9085810312644043
 51
270.1117134678851244
  0
ARC
  5
154D4
  8
0
 10
3770.11148560378615
 20
148.7053021921028915
 30
0.0
 40
0.0215707784979933
 50
90.1452238249641908
 51
269.8547761750357949
  0
ARC
  5
154D5
  8
0
 10
3770.1104111515310251
 20
148.7095258743117085
 30
0.0
 40
0.0552231082283147
 50
88.9418865555371525
 51
271.0581134444627764
  0
ARC
  5
154D6
  8
0
 10
3770.1111691235209946
 20
148.4562337222386077
 30
0.0
 40
0.0629933877656988
 50
89.6373489909848331
 51
270.3626509180550102
  0
ARC
  5
154D7
  8
0
 10
3770.11148560378615
 20
148.4518342391828014
 30
0.0
 40
0.0215707784979933
 50
90.1452238249641908
 51
269.8547761750357949
  0
ARC
  5
154D8
  8
0
 10
3770.110398600103963
 20
148.4575115835883139
 30
0.0
 40
0.0553044428303655
 50
88.788574924019386
 51
271.2114250759806282
  0
ARC
  5
154D9
  8
0
 10
3770.111567834518155
 20
148.2042652182882136
 30
0.0
 40
0.0629921260000017
 50
90.1245245744027841
 51
269.8754754255971875
  0
ARC
  5
154DA
  8
0
 10
3770.11148560378615
 20
148.19835970659949
 30
0.0
 40
0.0215707784979933
 50
90.1452238249641908
 51
269.8547761750357949
  0
ARC
  5
154DB
  8
0
 10
3770.1105216055511846
 20
148.2055004149715103
 30
0.0
 40
0.0554015171103685
 50
89.0595423180907773
 51
270.9404576819092085
  0
ARC
  5
154DC
  8
0
 10
3769.9855835826188013
 20
150.8499345096882109
 30
0.0
 40
0.0629921259999971
 50
269.9997691704343765
 51
89.9999991813746902
  0
ARC
  5
154DD
  8
0
 10
3769.9855835826188013
 20
150.8499345096882962
 30
0.0
 40
0.0629921260000011
 50
89.9999991813746902
 51
270.0
  0
ARC
  5
154DE
  8
0
 10
3769.9813188254302077
 20
150.6037454172416972
 30
0.0
 40
0.0215442699834854
 50
107.1078064168105044
 51
297.9809714916314078
  0
ARC
  5
154DF
  8
0
 10
3769.9818258253908425
 20
150.6039558838309915
 30
0.0
 40
0.021499206874961
 50
296.5244360196359139
 51
108.5643418887841989
  0
ARC
  5
154E0
  8
0
 10
3769.9860201612168566
 20
150.5966798101812003
 30
0.0
 40
0.0549745272467264
 50
112.6406082847784944
 51
294.3910834124504277
  0
ARC
  5
154E1
  8
0
 10
3769.9863769796588713
 20
150.5968350766092101
 30
0.0
 40
0.0549699601762193
 50
293.9855264002586068
 51
113.0461652969705
  0
ARC
  5
154E2
  8
0
 10
3769.9855835826188013
 20
150.5979660056883063
 30
0.0
 40
0.0629921259999971
 50
269.9997691704343765
 51
89.9999991813746902
  0
ARC
  5
154E3
  8
0
 10
3769.9855835826188013
 20
150.5979660056883063
 30
0.0
 40
0.0629921260000011
 50
89.9999991813746902
 51
270.0
  0
ARC
  5
154E4
  8
0
 10
3769.9813188254302077
 20
150.3517769133416948
 30
0.0
 40
0.0215442699834854
 50
107.1078064168105044
 51
297.9809714916314078
  0
ARC
  5
154E5
  8
0
 10
3769.9818258253908425
 20
150.3519873799309892
 30
0.0
 40
0.021499206874961
 50
296.5244360196359139
 51
108.5643418887841989
  0
ARC
  5
154E6
  8
0
 10
3769.9860201612168566
 20
150.3447113062811979
 30
0.0
 40
0.0549745272467264
 50
112.6406082847784944
 51
294.3910834124504277
  0
ARC
  5
154E7
  8
0
 10
3769.9863769796588713
 20
150.3448665727092077
 30
0.0
 40
0.0549699601762193
 50
293.9855264002586068
 51
113.0461652969705
  0
ARC
  5
154E8
  8
0
 10
3769.9855835826188013
 20
150.3459975017881902
 30
0.0
 40
0.0629921259999971
 50
269.9997691704343765
 51
89.9999991813746902
  0
ARC
  5
154E9
  8
0
 10
3769.9855835826188013
 20
150.3459975017881902
 30
0.0
 40
0.0629921260000011
 50
89.9999991813746902
 51
270.0
  0
ARC
  5
154EA
  8
0
 10
3769.9814773299622175
 20
150.0998082289524973
 30
0.0
 40
0.0215442699834854
 50
107.1078064168105044
 51
297.9809714916314078
  0
ARC
  5
154EB
  8
0
 10
3769.9819843299219428
 20
150.1000186955417064
 30
0.0
 40
0.021499206874961
 50
296.5244360196359139
 51
108.5643418887841989
  0
ARC
  5
154EC
  8
0
 10
3769.9861786657488665
 20
150.0927426218920004
 30
0.0
 40
0.0549745272467264
 50
112.6406082847784944
 51
294.3910834124504277
  0
ARC
  5
154ED
  8
0
 10
3769.9865354841908811
 20
150.0928978883198965
 30
0.0
 40
0.0549699601762193
 50
293.9855264002586068
 51
113.0461652969705
  0
ARC
  5
154EE
  8
0
 10
3769.9857420871499016
 20
150.0940288173989927
 30
0.0
 40
0.0629921259999971
 50
269.9997691704343765
 51
89.9999991813746902
  0
ARC
  5
154EF
  8
0
 10
3769.9857420871499016
 20
150.0940288173989927
 30
0.0
 40
0.0629921260000011
 50
89.9999991813746902
 51
270.0
  0
ARC
  5
154F0
  8
0
 10
3769.9813188254302077
 20
149.8478399054417025
 30
0.0
 40
0.0215442699834854
 50
107.1078064168105044
 51
297.9809714916314078
  0
ARC
  5
154F1
  8
0
 10
3769.9818258253908425
 20
149.8480503720309969
 30
0.0
 40
0.021499206874961
 50
296.5244360196359139
 51
108.5643418887841989
  0
ARC
  5
154F2
  8
0
 10
3769.9860201612168566
 20
149.8407742983812057
 30
0.0
 40
0.0549745272467264
 50
112.6406082847784944
 51
294.3910834124504277
  0
ARC
  5
154F3
  8
0
 10
3769.9863769796588713
 20
149.840929564809187
 30
0.0
 40
0.0549699601762193
 50
293.9855264002586068
 51
113.0461652969705
  0
ARC
  5
154F4
  8
0
 10
3769.9855835826188013
 20
149.8420604938883116
 30
0.0
 40
0.0629921259999971
 50
269.9997691704343765
 51
89.9999991813746902
  0
ARC
  5
154F5
  8
0
 10
3769.9855835826188013
 20
149.8420604938883116
 30
0.0
 40
0.0629921260000011
 50
89.9999991813746902
 51
270.0
  0
ARC
  5
154F6
  8
0
 10
3769.9840989435119809
 20
149.5912000036283018
 30
0.0
 40
0.0215442699834854
 50
107.1078064168105044
 51
297.9809714916314078
  0
ARC
  5
154F7
  8
0
 10
3769.984605943472161
 20
149.5914104702175962
 30
0.0
 40
0.021499206874961
 50
296.5244360196359139
 51
108.5643418887841989
  0
ARC
  5
154F8
  8
0
 10
3769.986019910837058
 20
149.5888057944806917
 30
0.0
 40
0.0549745272467264
 50
112.6406082847784944
 51
294.3910834124504277
  0
ARC
  5
154F9
  8
0
 10
3769.9863767292781631
 20
149.5889610609087015
 30
0.0
 40
0.0549699601762193
 50
293.9855264002586068
 51
113.0461652969705
  0
ARC
  5
154FA
  8
0
 10
3769.9855833322380931
 20
149.5900919899877977
 30
0.0
 40
0.0629921259999971
 50
269.9997691704343765
 51
89.9999991813746902
  0
ARC
  5
154FB
  8
0
 10
3769.9855833322380931
 20
149.5900919899877977
 30
0.0
 40
0.0629921260000011
 50
89.9999991813746902
 51
270.0
  0
ARC
  5
154FC
  8
0
 10
3769.9813185750490447
 20
149.3439028975411986
 30
0.0
 40
0.0215442699834854
 50
107.1078064168105044
 51
297.9809714916314078
  0
ARC
  5
154FD
  8
0
 10
3769.9818255750101343
 20
149.344113364130493
 30
0.0
 40
0.021499206874961
 50
296.5244360196359139
 51
108.5643418887841989
  0
ARC
  5
154FE
  8
0
 10
3769.9860199108361485
 20
149.3368372904807018
 30
0.0
 40
0.0549745272467264
 50
112.6406082847784944
 51
294.3910834124504277
  0
ARC
  5
154FF
  8
0
 10
3769.9863767292781631
 20
149.3369925569087115
 30
0.0
 40
0.0549699601762193
 50
293.9855264002586068
 51
113.0461652969705
  0
ARC
  5
15500
  8
0
 10
3769.9855833322380931
 20
149.3381234859878077
 30
0.0
 40
0.0629921259999971
 50
269.9997691704343765
 51
89.9999991813746902
  0
ARC
  5
15501
  8
0
 10
3769.9855833322380931
 20
149.3381234859878077
 30
0.0
 40
0.0629921260000011
 50
89.9999991813746902
 51
270.0
  0
ARC
  5
15502
  8
0
 10
3769.9847189558040554
 20
149.0864311100476982
 30
0.0
 40
0.0215442699834854
 50
107.1078064168105044
 51
297.9809714916314078
  0
ARC
  5
15503
  8
0
 10
3769.9852259557637808
 20
149.0866415766369926
 30
0.0
 40
0.021499206874961
 50
296.5244360196359139
 51
108.5643418887841989
  0
ARC
  5
15504
  8
0
 10
3769.9860201612168566
 20
149.084868786581211
 30
0.0
 40
0.0549745272467264
 50
112.6406082847784944
 51
294.3910834124504277
  0
ARC
  5
15505
  8
0
 10
3769.9863769796588713
 20
149.0850240530091924
 30
0.0
 40
0.0549699601762193
 50
293.9855264002586068
 51
113.0461652969705
  0
ARC
  5
15506
  8
0
 10
3769.9855835826188013
 20
149.0861549820882033
 30
0.0
 40
0.0629921259999971
 50
269.9997691704343765
 51
89.9999991813746902
  0
ARC
  5
15507
  8
0
 10
3769.9855835826188013
 20
149.0861549820882033
 30
0.0
 40
0.0629921260000011
 50
89.9999991813746902
 51
270.0
  0
ARC
  5
15508
  8
0
 10
3769.9806466151080713
 20
148.8317941234201101
 30
0.0
 40
0.0215442699834854
 50
107.1078064168105044
 51
297.9809714916314078
  0
ARC
  5
15509
  8
0
 10
3769.9811536150691609
 20
148.8320045900094044
 30
0.0
 40
0.021499206874961
 50
296.5244360196359139
 51
108.5643418887841989
  0
ARC
  5
1550A
  8
0
 10
3769.986019910837058
 20
148.832900282680697
 30
0.0
 40
0.0549745272467264
 50
112.6406082847784944
 51
294.3910834124504277
  0
ARC
  5
1550B
  8
0
 10
3769.9863767292790726
 20
148.8330555491087068
 30
0.0
 40
0.0549699601762193
 50
293.9855264002586068
 51
113.0461652969705
  0
ARC
  5
1550C
  8
0
 10
3769.9855833322390026
 20
148.834186478187803
 30
0.0
 40
0.0629921259999971
 50
269.9997691704343765
 51
89.9999991813746902
  0
ARC
  5
1550D
  8
0
 10
3769.9855833322390026
 20
148.834186478187803
 30
0.0
 40
0.0629921260000011
 50
89.9999991813746902
 51
270.0
  0
ARC
  5
1550E
  8
0
 10
3769.9811970949440365
 20
148.5785872028351946
 30
0.0
 40
0.0215442699834854
 50
107.1078064168105044
 51
297.9809714916314078
  0
ARC
  5
1550F
  8
0
 10
3769.9817040949051261
 20
148.578797669424489
 30
0.0
 40
0.021499206874961
 50
296.5244360196359139
 51
108.5643418887841989
  0
ARC
  5
15510
  8
0
 10
3769.9860201612168566
 20
148.5809317786811903
 30
0.0
 40
0.0549745272467264
 50
112.6406082847784944
 51
294.3910834124504277
  0
ARC
  5
15511
  8
0
 10
3769.9863769796588713
 20
148.5810870451092001
 30
0.0
 40
0.0549699601762193
 50
293.9855264002586068
 51
113.0461652969705
  0
ARC
  5
15512
  8
0
 10
3769.9855835826188013
 20
148.582217974188211
 30
0.0
 40
0.0629921259999971
 50
269.9997691704343765
 51
89.9999991813746902
  0
ARC
  5
15513
  8
0
 10
3769.9855835826188013
 20
148.582217974188211
 30
0.0
 40
0.0629921260000011
 50
89.9999991813746902
 51
270.0
  0
ARC
  5
15514
  8
0
 10
3769.9812161358991034
 20
148.3254150524533941
 30
0.0
 40
0.0215442699834854
 50
107.1078064168105044
 51
297.9809714916314078
  0
ARC
  5
15515
  8
0
 10
3769.981723135860193
 20
148.3256255190426884
 30
0.0
 40
0.021499206874961
 50
296.5244360196359139
 51
108.5643418887841989
  0
ARC
  5
15516
  8
0
 10
3769.9860199108361485
 20
148.3289632747807048
 30
0.0
 40
0.0549745272467264
 50
112.6406082847784944
 51
294.3910834124504277
  0
ARC
  5
15517
  8
0
 10
3769.9863767292781631
 20
148.3291185412086861
 30
0.0
 40
0.0549699601762193
 50
293.9855264002586068
 51
113.0461652969705
  0
ARC
  5
15518
  8
0
 10
3769.9855833322380931
 20
148.3302494702878107
 30
0.0
 40
0.0629921259999971
 50
269.9997691704343765
 51
89.9999991813746902
  0
ARC
  5
15519
  8
0
 10
3769.9855833322380931
 20
148.3302494702878107
 30
0.0
 40
0.0629921260000011
 50
89.9999991813746902
 51
270.0
  0
ARC
  5
1551A
  8
0
 10
3769.9811975467227967
 20
148.0722360268848092
 30
0.0
 40
0.0215442699834854
 50
107.1078064168105044
 51
297.9809714916314078
  0
ARC
  5
1551B
  8
0
 10
3769.9817045466820673
 20
148.0724464934741036
 30
0.0
 40
0.021499206874961
 50
296.5244360196359139
 51
108.5643418887841989
  0
ARC
  5
1551C
  8
0
 10
3769.9860201612168566
 20
148.076994770781198
 30
0.0
 40
0.0549745272467264
 50
112.6406082847784944
 51
294.3910834124504277
  0
ARC
  5
1551D
  8
0
 10
3769.9863769796588713
 20
148.0771500372092078
 30
0.0
 40
0.0549699601762193
 50
293.9855264002586068
 51
113.0461652969705
  0
ARC
  5
1551E
  8
0
 10
3769.9855835826188013
 20
148.0782809662883039
 30
0.0
 40
0.0629921259999971
 50
269.9997691704343765
 51
89.9999991813746902
  0
ARC
  5
1551F
  8
0
 10
3769.9855835826188013
 20
148.0782809662883039
 30
0.0
 40
0.0629921260000011
 50
89.9999991813746902
 51
270.0
  0
ARC
  5
15520
  8
0
 10
3769.8595993306180389
 20
150.7239502576881875
 30
0.0
 40
0.0629921259999994
 50
270.0000006367085916
 51
90.6196722125681049
  0
ARC
  5
15521
  8
0
 10
3769.8595993324188385
 20
150.7239502576881875
 30
0.0
 40
0.0629921259999994
 50
89.3803277874318951
 51
269.9999993632914084
  0
ARC
  5
15522
  8
0
 10
3769.8539575067429723
 20
150.4768180434807903
 30
0.0
 40
0.021194983503527
 50
315.680107173674628
 51
131.6527801378873903
  0
ARC
  5
15523
  8
0
 10
3769.8533953412879782
 20
150.476281456061713
 30
0.0
 40
0.0212364976877109
 50
129.5568780062156975
 51
317.7760093053541937
  0
ARC
  5
15524
  8
0
 10
3769.864431083294221
 20
150.4668096846241099
 30
0.0
 40
0.0542966848555258
 50
163.358874221089394
 51
266.0597930744823998
  0
ARC
  5
15525
  8
0
 10
3769.8667124977610001
 20
150.4698200517605073
 30
0.0
 40
0.0557328383812897
 50
94.5679272135205053
 51
166.998155544931393
  0
ARC
  5
15526
  8
0
 10
3769.8609624859132055
 20
150.4690159229791107
 30
0.0
 40
0.0563751931227946
 50
269.7332931974543726
 51
88.6670688891426835
  0
ARC
  5
15527
  8
0
 10
3769.859522229596223
 20
150.4706778165655123
 30
0.0
 40
0.0629921259999994
 50
270.0000006367085916
 51
90.6196722125681049
  0
ARC
  5
15528
  8
0
 10
3769.8595222313961131
 20
150.4706778165655123
 30
0.0
 40
0.0629921259999994
 50
89.3803277874318951
 51
269.9999993632914084
  0
ARC
  5
15529
  8
0
 10
3769.8538931784610213
 20
150.2233954350857061
 30
0.0
 40
0.021194983503527
 50
315.680107173674628
 51
131.6527801378873903
  0
ARC
  5
1552A
  8
0
 10
3769.8533310130060272
 20
150.2228588476664868
 30
0.0
 40
0.0212364976877109
 50
129.5568780062156975
 51
317.7760093053541937
  0
ARC
  5
1552B
  8
0
 10
3769.8641597188598098
 20
150.2130224731945987
 30
0.0
 40
0.0539190225175796
 50
161.8408139687215908
 51
266.2526526383530268
  0
ARC
  5
1552C
  8
0
 10
3769.8662655543139408
 20
150.2173168454642962
 30
0.0
 40
0.0547867515889815
 50
94.2456343399613701
 51
166.800722388059512
  0
ARC
  5
1552D
  8
0
 10
3769.8608981576307997
 20
150.2155933145839981
 30
0.0
 40
0.0563751931227946
 50
269.7332931974543726
 51
88.6670688891426835
  0
ARC
  5
1552E
  8
0
 10
3769.8594579013138173
 20
150.2172552081703998
 30
0.0
 40
0.0629921259999994
 50
270.0000006367085916
 51
90.6196722125681049
  0
ARC
  5
1552F
  8
0
 10
3769.859457903114162
 20
150.2172552081703998
 30
0.0
 40
0.0629921259999994
 50
89.3803277874318951
 51
269.9999993632914084
  0
ARC
  5
15530
  8
0
 10
3769.8538271720549346
 20
149.9699665368312935
 30
0.0
 40
0.021194983503527
 50
315.680107173674628
 51
131.6527801378873903
  0
ARC
  5
15531
  8
0
 10
3769.853265006599031
 20
149.9694299494121026
 30
0.0
 40
0.0212364976877109
 50
129.5568780062156975
 51
317.7760093053541937
  0
ARC
  5
15532
  8
0
 10
3769.8638996664931256
 20
149.9592518484087122
 30
0.0
 40
0.0535656182608268
 50
162.3338076497933002
 51
266.4358784745758157
  0
ARC
  5
15533
  8
0
 10
3769.8660009169730074
 20
149.9643652458485974
 30
0.0
 40
0.0542963015120836
 50
94.0738930656385719
 51
168.1581383278501107
  0
ARC
  5
15534
  8
0
 10
3769.8608321512251678
 20
149.9621644163296139
 30
0.0
 40
0.0563751931227946
 50
269.7332931974543726
 51
88.6670688891426835
  0
ARC
  5
15535
  8
0
 10
3769.8593918949081853
 20
149.9638263099159872
 30
0.0
 40
0.0629921259999994
 50
270.0000006367085916
 51
90.6196722125681049
  0
ARC
  5
15536
  8
0
 10
3769.8593918967080754
 20
149.9638263099159872
 30
0.0
 40
0.0629921259999994
 50
89.3803277874318951
 51
269.9999993632914084
  0
ARC
  5
15537
  8
0
 10
3769.8533699555518979
 20
148.210409127106999
 30
0.0
 40
0.021194983503527
 50
315.680107173674628
 51
131.6527801378873903
  0
ARC
  5
15538
  8
0
 10
3769.8528077900959943
 20
148.2098725396878081
 30
0.0
 40
0.0212364976877109
 50
129.5568780062156975
 51
317.7760093053541937
  0
ARC
  5
15539
  8
0
 10
3769.8644998881991341
 20
148.2014694486925066
 30
0.0
 40
0.0554109909670264
 50
138.2551534426768001
 51
265.4586370446530736
  0
ARC
  5
1553A
  8
0
 10
3769.8651749870741696
 20
148.2061160530298025
 30
0.0
 40
0.0529659087343929
 50
93.7765817016658616
 51
142.4955849262709933
  0
ARC
  5
1553B
  8
0
 10
3769.8603749347212215
 20
148.202607006605291
 30
0.0
 40
0.0563751931227946
 50
269.7332931974543726
 51
88.6670688891426835
  0
ARC
  5
1553C
  8
0
 10
3769.8589346784037843
 20
148.2042689001916926
 30
0.0
 40
0.0629921259999994
 50
270.0000006367085916
 51
90.6196722125681049
  0
ARC
  5
1553D
  8
0
 10
3769.8589346802041291
 20
148.2042689001916926
 30
0.0
 40
0.0629921259999994
 50
89.3803277874318951
 51
269.9999993632914084
  0
ARC
  5
1553E
  8
0
 10
3769.8533717519139827
 20
148.4623776306075058
 30
0.0
 40
0.021194983503527
 50
315.680107173674628
 51
131.6527801378873903
  0
ARC
  5
1553F
  8
0
 10
3769.8528095864589886
 20
148.4618410431882864
 30
0.0
 40
0.0212364976877109
 50
129.5568780062156975
 51
317.7760093053541937
  0
ARC
  5
15540
  8
0
 10
3769.864006839501144
 20
148.452653702337102
 30
0.0
 40
0.0545917250297825
 50
162.7738235532582109
 51
265.9111953846719985
  0
ARC
  5
15541
  8
0
 10
3769.8663113379070637
 20
148.4549360678452956
 30
0.0
 40
0.0561898985001317
 50
94.7195358415252855
 51
165.6938739713772009
  0
ARC
  5
15542
  8
0
 10
3769.8603767310842159
 20
148.4545755101057978
 30
0.0
 40
0.0563751931227946
 50
269.7332931974543726
 51
88.6670688891426835
  0
ARC
  5
15543
  8
0
 10
3769.8589364747667787
 20
148.4562374036921995
 30
0.0
 40
0.0629921259999994
 50
270.0000006367085916
 51
90.6196722125681049
  0
ARC
  5
15544
  8
0
 10
3769.8589364765671235
 20
148.4562374036921995
 30
0.0
 40
0.0629921259999994
 50
89.3803277874318951
 51
269.9999993632914084
  0
ARC
  5
15545
  8
0
 10
3769.8533739837589565
 20
148.7143461338156101
 30
0.0
 40
0.021194983503527
 50
315.680107173674628
 51
131.6527801378873903
  0
ARC
  5
15546
  8
0
 10
3769.8528118183039624
 20
148.7138095463963907
 30
0.0
 40
0.0212364976877109
 50
129.5568780062156975
 51
317.7760093053541937
  0
ARC
  5
15547
  8
0
 10
3769.8634464781971474
 20
148.7036314453930004
 30
0.0
 40
0.0535656182608268
 50
162.3338076497933002
 51
266.4358784745758157
  0
ARC
  5
15548
  8
0
 10
3769.8655477286779387
 20
148.7087448428328003
 30
0.0
 40
0.0542963015120815
 50
94.0738930656384156
 51
168.1581383278501107
  0
ARC
  5
15549
  8
0
 10
3769.8603789629291896
 20
148.706544013313902
 30
0.0
 40
0.0563751931227946
 50
269.7332931974543726
 51
88.6670688891426835
  0
ARC
  5
1554A
  8
0
 10
3769.8589387066122072
 20
148.7082059069003037
 30
0.0
 40
0.0629921259999994
 50
270.0000006367085916
 51
90.6196722125681049
  0
ARC
  5
1554B
  8
0
 10
3769.8589387084120972
 20
148.7082059069003037
 30
0.0
 40
0.0629921259999994
 50
89.3803277874318951
 51
269.9999993632914084
  0
ARC
  5
1554C
  8
0
 10
3769.8533768312868233
 20
148.9663146367180104
 30
0.0
 40
0.021194983503527
 50
315.680107173674628
 51
131.6527801378873903
  0
ARC
  5
1554D
  8
0
 10
3769.8528146658309197
 20
148.9657780492987911
 30
0.0
 40
0.0212364976877109
 50
129.5568780062156975
 51
317.7760093053541937
  0
ARC
  5
1554E
  8
0
 10
3769.8634493257250142
 20
148.9555999482954007
 30
0.0
 40
0.0535656182608268
 50
162.3338076497933002
 51
266.4358784745758157
  0
ARC
  5
1554F
  8
0
 10
3769.8655505762048961
 20
148.9607133457352006
 30
0.0
 40
0.0542963015120745
 50
94.0738930656384156
 51
168.1581383278580972
  0
ARC
  5
15550
  8
0
 10
3769.8603818104570564
 20
148.9585125162163024
 30
0.0
 40
0.0563751931227946
 50
269.7332931974543726
 51
88.6670688891426835
  0
ARC
  5
15551
  8
0
 10
3769.858941554140074
 20
148.9601744098027041
 30
0.0
 40
0.0629921259999994
 50
270.0000006367085916
 51
90.6196722125681049
  0
ARC
  5
15552
  8
0
 10
3769.858941555939964
 20
148.9601744098027041
 30
0.0
 40
0.0629921259999994
 50
89.3803277874318951
 51
269.9999993632914084
  0
ARC
  5
15553
  8
0
 10
3769.8533526240798892
 20
149.2182831452599885
 30
0.0
 40
0.021194983503527
 50
315.680107173674628
 51
131.6527801378873903
  0
ARC
  5
15554
  8
0
 10
3769.8527904586258046
 20
149.2177465578409112
 30
0.0
 40
0.0212364976877109
 50
129.5568780062156975
 51
317.7760093053541937
  0
ARC
  5
15555
  8
0
 10
3769.8634251185189896
 20
149.2075684568374072
 30
0.0
 40
0.0535656182608268
 50
162.3338076497933002
 51
266.4358784745758157
  0
ARC
  5
15556
  8
0
 10
3769.8655263689988715
 20
149.2126818542772924
 30
0.0
 40
0.054296301512082
 50
94.0738930656385719
 51
168.1581383278517023
  0
ARC
  5
15557
  8
0
 10
3769.8603576032501223
 20
149.2104810247583941
 30
0.0
 40
0.0563751931227946
 50
269.7332931974543726
 51
88.6670688891426835
  0
ARC
  5
15558
  8
0
 10
3769.8589173469331399
 20
149.2121429183447106
 30
0.0
 40
0.0629921259999994
 50
270.0000006367085916
 51
90.6196722125681049
  0
ARC
  5
15559
  8
0
 10
3769.8589173487330299
 20
149.2121429183447106
 30
0.0
 40
0.0629921259999994
 50
89.3803277874318951
 51
269.9999993632914084
  0
ARC
  5
1555A
  8
0
 10
3769.8533857806669403
 20
149.4702516406447046
 30
0.0
 40
0.021194983503527
 50
315.680107173674628
 51
131.6527801378873903
  0
ARC
  5
1555B
  8
0
 10
3769.8528236152119462
 20
149.4697150532255137
 30
0.0
 40
0.0212364976877109
 50
129.5568780062156975
 51
317.7760093053541937
  0
ARC
  5
1555C
  8
0
 10
3769.8634582751060407
 20
149.4595369522220949
 30
0.0
 40
0.0535656182608268
 50
162.3338076497933002
 51
266.4358784745758157
  0
ARC
  5
1555D
  8
0
 10
3769.8655595255859225
 20
149.4646503496620085
 30
0.0
 40
0.0542963015120762
 50
94.0738930656384156
 51
168.1581383278565056
  0
ARC
  5
1555E
  8
0
 10
3769.8603907598380829
 20
149.4624495201429966
 30
0.0
 40
0.0563751931227946
 50
269.7332931974543726
 51
88.6670688891426835
  0
ARC
  5
1555F
  8
0
 10
3769.858950503520191
 20
149.4641114137293982
 30
0.0
 40
0.0629921259999994
 50
270.0000006367085916
 51
90.6196722125681049
  0
ARC
  5
15560
  8
0
 10
3769.858950505320081
 20
149.4641114137293982
 30
0.0
 40
0.0629921259999994
 50
89.3803277874318951
 51
269.9999993632914084
  0
ARC
  5
15561
  8
0
 10
3769.8533934139732082
 20
149.7222201401509949
 30
0.0
 40
0.021194983503527
 50
315.680107173674628
 51
131.6527801378873903
  0
ARC
  5
15562
  8
0
 10
3769.8528312485168499
 20
149.721683552731804
 30
0.0
 40
0.0212364976877109
 50
129.5568780062156975
 51
317.7760093053541937
  0
ARC
  5
15563
  8
0
 10
3769.8641319539178767
 20
149.7126879637993966
 30
0.0
 40
0.0547904384317508
 50
164.8048559697515998
 51
265.8175854707952794
  0
ARC
  5
15564
  8
0
 10
3769.8665946758451355
 20
149.7141723336629013
 30
0.0
 40
0.0568160084019172
 50
94.9322252204281085
 51
166.9008424304186065
  0
ARC
  5
15565
  8
0
 10
3769.8603983931420771
 20
149.7144180196492869
 30
0.0
 40
0.0563751931227946
 50
269.7332931974543726
 51
88.6670688891426835
  0
ARC
  5
15566
  8
0
 10
3769.8589581368260042
 20
149.7160799132356885
 30
0.0
 40
0.0629921259999994
 50
270.0000006367085916
 51
90.6196722125681049
  0
ARC
  5
15567
  8
0
 10
3769.8589581386249847
 20
149.7160799132356885
 30
0.0
 40
0.0629921259999994
 50
89.3803277874318951
 51
269.9999993632914084
  0
CIRCLE
  5
15568
  8
0
 10
3769.8871582613192004
 20
151.5625325003881869
 30
0.0
 40
0.0393693091999996
  0
ARC
  5
15569
  8
0
 10
3769.8876988688271013
 20
151.5572057492771876
 30
0.0
 40
0.0997924035441181
 50
90.3103911623705642
 51
176.9401931984639873
  0
ARC
  5
1556A
  8
0
 10
3769.8830229090281136
 20
151.560319023872097
 30
0.0
 40
0.0967660682997605
 50
1.310727273788133
 51
87.5506867467693013
  0
ARC
  5
1556B
  8
0
 10
3769.8833155623101447
 20
151.5632366479291875
 30
0.0
 40
0.0952694313504116
 50
180.4234836820508008
 51
267.6883437259104994
  0
ARC
  5
1556C
  8
0
 10
3769.9400550562168064
 20
151.5077268942092132
 30
0.0
 40
0.039709827959127
 50
272.1394101999047166
 51
359.5497221426822989
  0
LINE
  5
1556D
  8
0
 10
3769.9415374668210461
 20
151.4680447458883066
 30
0.0
 11
3769.879472863310184
 21
151.4680447458883066
 31
0.0
  0
LINE
  5
1556E
  8
0
 10
3769.9797636579178288
 20
151.5074148245882952
 30
0.0
 11
3769.9797636579178288
 21
151.5625325003881869
 31
0.0
  0
CIRCLE
  5
1556F
  8
0
 10
3769.8871582613192004
 20
151.1137144716882972
 30
0.0
 40
0.0393693091999996
  0
ARC
  5
15570
  8
0
 10
3769.8876988688271013
 20
151.1190412227992965
 30
0.0
 40
0.0997924035441181
 50
183.059806801535899
 51
269.6896088376295211
  0
ARC
  5
15571
  8
0
 10
3769.8830229090281136
 20
151.1159279482043871
 30
0.0
 40
0.0967660682997605
 50
272.4493132532306845
 51
358.6892727262119251
  0
ARC
  5
15572
  8
0
 10
3769.8833155623101447
 20
151.1130103241474103
 30
0.0
 40
0.0952694313504116
 50
92.311656274089458
 51
179.5765163179491992
  0
ARC
  5
15573
  8
0
 10
3769.9400550562168064
 20
151.1685200778672993
 30
0.0
 40
0.039709827959127
 50
0.4502778573176348
 51
87.8605898000952976
  0
LINE
  5
15574
  8
0
 10
3769.9415374668210461
 20
151.2082022261882912
 30
0.0
 11
3769.879472863310184
 21
151.2082022261882912
 31
0.0
  0
LINE
  5
15575
  8
0
 10
3769.9797636579178288
 20
151.1688321474883026
 30
0.0
 11
3769.9797636579178288
 21
151.1137144716882972
 31
0.0
  0
CIRCLE
  5
15576
  8
0
 10
3770.3359774078180635
 20
151.5625325003881869
 30
0.0
 40
0.0393693091999996
  0
ARC
  5
15577
  8
0
 10
3770.3354368003087984
 20
151.5572057492771876
 30
0.0
 40
0.0997924035441181
 50
3.0598068015359181
 51
89.6896088376294358
  0
ARC
  5
15578
  8
0
 10
3770.3401127601091503
 20
151.560319023872097
 30
0.0
 40
0.0967660682997605
 50
92.4493132532306987
 51
178.6892727262118115
  0
ARC
  5
15579
  8
0
 10
3770.3398201068262097
 20
151.5632366479291875
 30
0.0
 40
0.0952694313504116
 50
272.3116562740893869
 51
359.5765163179491992
  0
ARC
  5
1557A
  8
0
 10
3770.2830806129200027
 20
151.5077268942092132
 30
0.0
 40
0.039709827959127
 50
180.4502778573175874
 51
267.8605898000952834
  0
LINE
  5
1557B
  8
0
 10
3770.2815982023162178
 20
151.4680447458883066
 30
0.0
 11
3770.3436628058270799
 21
151.4680447458883066
 31
0.0
  0
LINE
  5
1557C
  8
0
 10
3770.2433720112180708
 20
151.5074148245882952
 30
0.0
 11
3770.2433720112180708
 21
151.5625325003881869
 31
0.0
  0
CIRCLE
  5
1557D
  8
0
 10
3770.3359774078180635
 20
151.1137144716882972
 30
0.0
 40
0.0393693091999996
  0
ARC
  5
1557E
  8
0
 10
3770.3354368003087984
 20
151.1190412227992965
 30
0.0
 40
0.0997924035441181
 50
270.3103911623704789
 51
356.940193198464101
  0
ARC
  5
1557F
  8
0
 10
3770.3401127601091503
 20
151.1159279482043871
 30
0.0
 40
0.0967660682997605
 50
181.3107272737881033
 51
267.5506867467693155
  0
ARC
  5
15580
  8
0
 10
3770.3398201068262097
 20
151.1130103241474103
 30
0.0
 40
0.0952694313504116
 50
0.4234836820508076
 51
87.688343725910542
  0
ARC
  5
15581
  8
0
 10
3770.2830806129200027
 20
151.1685200778672993
 30
0.0
 40
0.039709827959127
 50
92.1394101999046882
 51
179.5497221426824126
  0
LINE
  5
15582
  8
0
 10
3770.2815982023162178
 20
151.2082022261882912
 30
0.0
 11
3770.3436628058270799
 21
151.2082022261882912
 31
0.0
  0
LINE
  5
15583
  8
0
 10
3770.2433720112180708
 20
151.1688321474883026
 30
0.0
 11
3770.2433720112180708
 21
151.1137144716882972
 31
0.0
  0
ARC
  5
15584
  8
0
 10
3770.2415430342061882
 20
150.8557139212416871
 30
0.0
 40
0.0215442699834854
 50
242.0190285083685069
 51
72.892193583189453
  0
ARC
  5
15585
  8
0
 10
3770.2410360342460081
 20
150.8559243878310099
 30
0.0
 40
0.021499206874961
 50
71.4356581112157158
 51
243.475563980363404
  0
ARC
  5
15586
  8
0
 10
3770.2368416984199939
 20
150.8486483141811902
 30
0.0
 40
0.0549745272467264
 50
245.6089165875494871
 51
67.359391715221463
  0
ARC
  5
15587
  8
0
 10
3770.2364848799779793
 20
150.8488035806092
 30
0.0
 40
0.0549699601762193
 50
66.9538347030295142
 51
246.0144735997413079
  0
ARC
  5
15588
  8
0
 10
3770.3688272518711528
 20
150.7300904846036076
 30
0.0
 40
0.021194983503527
 50
48.3472198621126168
 51
224.3198928263252867
  0
ARC
  5
15589
  8
0
 10
3770.3693894173261469
 20
150.7295538971843882
 30
0.0
 40
0.0212364976877109
 50
222.2239906946458063
 51
50.4431219937842883
  0
ARC
  5
1558A
  8
0
 10
3770.3576302156761813
 20
150.721241333690898
 30
0.0
 40
0.0555065795601288
 50
274.6030131604570101
 51
41.6984894080316266
  0
ARC
  5
1558B
  8
0
 10
3770.3568680991838846
 20
150.7252469652353
 30
0.0
 40
0.0535254391103781
 50
37.9516384024424198
 51
86.0976084882589845
  0
ARC
  5
1558C
  8
0
 10
3770.3618222727018292
 20
150.7222883641018996
 30
0.0
 40
0.0563751931227946
 50
91.3329311108573165
 51
270.2667068025456274
  0
ARC
  5
1558D
  8
0
 10
3770.1112940251191503
 20
150.7239502576881875
 30
0.0
 40
0.0629921259999993
 50
270.0
 51
90.000000090958352
  0
ARC
  5
1558E
  8
0
 10
3770.1112940251191503
 20
150.7239502576881875
 30
0.0
 40
0.0629921259999993
 50
270.0
 51
90.000000090958352
  0
ARC
  5
1558F
  8
0
 10
3770.1113762558511553
 20
150.729855769499693
 30
0.0
 40
0.0215707784979933
 50
270.1452238249642051
 51
89.8547761750358092
  0
ARC
  5
15590
  8
0
 10
3770.111668119729984
 20
150.722713769238311
 30
0.0
 40
0.0553941924543948
 50
269.613060424375476
 51
90.3869395756244955
  0
ARC
  5
15591
  8
0
 10
3770.1111571204191932
 20
150.4705354629682006
 30
0.0
 40
0.0629921259999993
 50
270.1245245744028125
 51
89.7509502629964544
  0
ARC
  5
15592
  8
0
 10
3770.1112084253350076
 20
150.4764111058480012
 30
0.0
 40
0.021601724103375
 50
270.5901748028093721
 51
89.4098251971906137
  0
ARC
  5
15593
  8
0
 10
3770.1116405230050077
 20
150.4707038910682115
 30
0.0
 40
0.0552923102655767
 50
269.7828118638620936
 51
90.2171881361379633
  0
ARC
  5
15594
  8
0
 10
3770.1112940251191503
 20
150.2200132497883089
 30
0.0
 40
0.0629921259999962
 50
270.0
 51
90.1245245774251913
  0
ARC
  5
15595
  8
0
 10
3770.1113762558511553
 20
150.2230187275029039
 30
0.0
 40
0.0215707784979933
 50
270.1452238249642051
 51
89.8547761750358092
  0
ARC
  5
15596
  8
0
 10
3770.1118841706320381
 20
150.218689601769114
 30
0.0
 40
0.0552155517661821
 50
269.5296782057744167
 51
90.470321794225697
  0
ARC
  5
15597
  8
0
 10
3770.1111435657180664
 20
149.9636830589680869
 30
0.0
 40
0.0673542771642143
 50
270.2444506979762195
 51
89.8720097607660051
  0
ARC
  5
15598
  8
0
 10
3770.1112257964500714
 20
149.9695885707795071
 30
0.0
 40
0.0215707784979933
 50
270.1452238249642051
 51
89.8547761750358092
  0
ARC
  5
15599
  8
0
 10
3770.111884085255042
 20
149.9666712835779947
 30
0.0
 40
0.055160526659381
 50
269.3870870648075879
 51
90.470702287028459
  0
ARC
  5
1559A
  8
0
 10
3770.1114355388608601
 20
149.716076226212806
 30
0.0
 40
0.0629919617211927
 50
269.9958077392420819
 51
89.9914989294992154
  0
ARC
  5
1559B
  8
0
 10
3770.1113762558511553
 20
149.7161546666580989
 30
0.0
 40
0.0215707784979933
 50
270.1452238249642051
 51
89.8547761750358092
  0
ARC
  5
1559C
  8
0
 10
3770.1120783097489948
 20
149.7146532079503061
 30
0.0
 40
0.0551292999449639
 50
269.3271637711230824
 51
90.8151330631984592
  0
ARC
  5
1559D
  8
0
 10
3770.1112940251191503
 20
149.4582846274732901
 30
0.0
 40
0.0629921259999993
 50
270.0
 51
89.8754754255972159
  0
ARC
  5
1559E
  8
0
 10
3770.1113762558511553
 20
149.4641901392847103
 30
0.0
 40
0.0215707784979933
 50
270.1452238249642051
 51
89.8547761750358092
  0
ARC
  5
1559F
  8
0
 10
3770.111668119729984
 20
149.4570481390232999
 30
0.0
 40
0.0553941924543948
 50
269.613060424375476
 51
90.3869395756244955
  0
ARC
  5
155A0
  8
0
 10
3770.1114385344471884
 20
149.2121390610452067
 30
0.0
 40
0.0629921187155362
 50
269.9930830533617723
 51
89.9942236467843344
  0
ARC
  5
155A1
  8
0
 10
3770.1113762558511553
 20
149.2122176587581066
 30
0.0
 40
0.0215707784979933
 50
270.1452238249642051
 51
89.8547761750358092
  0
ARC
  5
155A2
  8
0
 10
3770.1122671819111929
 20
149.2135632412615109
 30
0.0
 40
0.0551308682641422
 50
269.1308761391750863
 51
90.8691238608248995
  0
ARC
  5
155A3
  8
0
 10
3770.1115039691007951
 20
148.9601707300882936
 30
0.0
 40
0.0629924758560548
 50
269.8090418543181954
 51
90.1909581456818756
  0
ARC
  5
155A4
  8
0
 10
3770.1113762558511553
 20
148.9587614629930954
 30
0.0
 40
0.0215707784979933
 50
270.1452238249642051
 51
89.8547761750358092
  0
ARC
  5
155A5
  8
0
 10
3770.112324912630811
 20
148.9615447395042054
 30
0.0
 40
0.0551664563472239
 50
269.0714704618774817
 51
91.0707401863233201
  0
ARC
  5
155A6
  8
0
 10
3770.1115537496148136
 20
148.7082021801903124
 30
0.0
 40
0.0629920509651961
 50
269.8882865321148756
 51
90.0914189687355957
  0
ARC
  5
155A7
  8
0
 10
3770.1113762558511553
 20
148.7053021921028915
 30
0.0
 40
0.0215707784979933
 50
270.1452238249642051
 51
89.8547761750358092
  0
ARC
  5
155A8
  8
0
 10
3770.1124507081058255
 20
148.7095258743117085
 30
0.0
 40
0.0552231082283147
 50
268.9418865555372236
 51
91.0581134444628475
  0
ARC
  5
155A9
  8
0
 10
3770.1116927361149465
 20
148.4562337222386077
 30
0.0
 40
0.0629933877656988
 50
269.6373490819449898
 51
90.3626510090151953
  0
ARC
  5
155AA
  8
0
 10
3770.1113762558511553
 20
148.4518342391828014
 30
0.0
 40
0.0215707784979933
 50
270.1452238249642051
 51
89.8547761750358092
  0
ARC
  5
155AB
  8
0
 10
3770.1124632595328876
 20
148.4575115835883139
 30
0.0
 40
0.0553044428303655
 50
268.7885749240193718
 51
91.211425075980614
  0
ARC
  5
155AC
  8
0
 10
3770.1112940251191503
 20
148.2042652182882136
 30
0.0
 40
0.0629921260000017
 50
270.1245245744028125
 51
89.8754754255972159
  0
ARC
  5
155AD
  8
0
 10
3770.1113762558511553
 20
148.19835970659949
 30
0.0
 40
0.0215707784979933
 50
270.1452238249642051
 51
89.8547761750358092
  0
ARC
  5
155AE
  8
0
 10
3770.1123402540870302
 20
148.2055004149715103
 30
0.0
 40
0.0554015171103685
 50
269.0595423180906778
 51
90.940457681909237
  0
ARC
  5
155AF
  8
0
 10
3770.2372782770189588
 20
150.8499345096882109
 30
0.0
 40
0.0629921259999971
 50
90.0000008186252956
 51
270.0002308295656235
  0
ARC
  5
155B0
  8
0
 10
3770.2372782770189588
 20
150.8499345096882962
 30
0.0
 40
0.0629921260000011
 50
270.0
 51
90.0000008186252956
  0
ARC
  5
155B1
  8
0
 10
3770.2415430342061882
 20
150.6037454172416972
 30
0.0
 40
0.0215442699834854
 50
242.0190285083685069
 51
72.892193583189453
  0
ARC
  5
155B2
  8
0
 10
3770.2410360342460081
 20
150.6039558838309915
 30
0.0
 40
0.021499206874961
 50
71.4356581112157158
 51
243.475563980363404
  0
ARC
  5
155B3
  8
0
 10
3770.2368416984199939
 20
150.5966798101812003
 30
0.0
 40
0.0549745272467264
 50
245.6089165875494871
 51
67.359391715221463
  0
ARC
  5
155B4
  8
0
 10
3770.2364848799779793
 20
150.5968350766092101
 30
0.0
 40
0.0549699601762193
 50
66.9538347030295142
 51
246.0144735997413079
  0
ARC
  5
155B5
  8
0
 10
3770.2372782770189588
 20
150.5979660056883063
 30
0.0
 40
0.0629921259999971
 50
90.0000008186252956
 51
270.0002308295656235
  0
ARC
  5
155B6
  8
0
 10
3770.2372782770189588
 20
150.5979660056883063
 30
0.0
 40
0.0629921260000011
 50
270.0
 51
90.0000008186252956
  0
ARC
  5
155B7
  8
0
 10
3770.2415430342061882
 20
150.3517769133416948
 30
0.0
 40
0.0215442699834854
 50
242.0190285083685069
 51
72.892193583189453
  0
ARC
  5
155B8
  8
0
 10
3770.2410360342460081
 20
150.3519873799309892
 30
0.0
 40
0.021499206874961
 50
71.4356581112157158
 51
243.475563980363404
  0
ARC
  5
155B9
  8
0
 10
3770.2368416984199939
 20
150.3447113062811979
 30
0.0
 40
0.0549745272467264
 50
245.6089165875494871
 51
67.359391715221463
  0
ARC
  5
155BA
  8
0
 10
3770.2364848799779793
 20
150.3448665727092077
 30
0.0
 40
0.0549699601762193
 50
66.9538347030295142
 51
246.0144735997413079
  0
ARC
  5
155BB
  8
0
 10
3770.2372782770189588
 20
150.3459975017881902
 30
0.0
 40
0.0629921259999971
 50
90.0000008186252956
 51
270.0002308295656235
  0
ARC
  5
155BC
  8
0
 10
3770.2372782770189588
 20
150.3459975017881902
 30
0.0
 40
0.0629921260000011
 50
270.0
 51
90.0000008186252956
  0
ARC
  5
155BD
  8
0
 10
3770.2413845296741783
 20
150.0998082289524973
 30
0.0
 40
0.0215442699834854
 50
242.0190285083685069
 51
72.892193583189453
  0
ARC
  5
155BE
  8
0
 10
3770.2408775297139982
 20
150.1000186955417064
 30
0.0
 40
0.021499206874961
 50
71.4356581112157158
 51
243.475563980363404
  0
ARC
  5
155BF
  8
0
 10
3770.2366831938879841
 20
150.0927426218920004
 30
0.0
 40
0.0549745272467264
 50
245.6089165875494871
 51
67.359391715221463
  0
ARC
  5
155C0
  8
0
 10
3770.2363263754459695
 20
150.0928978883198965
 30
0.0
 40
0.0549699601762193
 50
66.9538347030295142
 51
246.0144735997413079
  0
ARC
  5
155C1
  8
0
 10
3770.2371197724860394
 20
150.0940288173989927
 30
0.0
 40
0.0629921259999971
 50
90.0000008186252956
 51
270.0002308295656235
  0
ARC
  5
155C2
  8
0
 10
3770.2371197724860394
 20
150.0940288173989927
 30
0.0
 40
0.0629921260000011
 50
270.0
 51
90.0000008186252956
  0
ARC
  5
155C3
  8
0
 10
3770.2415430342061882
 20
149.8478399054417025
 30
0.0
 40
0.0215442699834854
 50
242.0190285083685069
 51
72.892193583189453
  0
ARC
  5
155C4
  8
0
 10
3770.2410360342460081
 20
149.8480503720309969
 30
0.0
 40
0.021499206874961
 50
71.4356581112157158
 51
243.475563980363404
  0
ARC
  5
155C5
  8
0
 10
3770.2368416984199939
 20
149.8407742983812057
 30
0.0
 40
0.0549745272467264
 50
245.6089165875494871
 51
67.359391715221463
  0
ARC
  5
155C6
  8
0
 10
3770.2364848799779793
 20
149.840929564809187
 30
0.0
 40
0.0549699601762193
 50
66.9538347030295142
 51
246.0144735997413079
  0
ARC
  5
155C7
  8
0
 10
3770.2372782770189588
 20
149.8420604938883116
 30
0.0
 40
0.0629921259999971
 50
90.0000008186252956
 51
270.0002308295656235
  0
ARC
  5
155C8
  8
0
 10
3770.2372782770189588
 20
149.8420604938883116
 30
0.0
 40
0.0629921260000011
 50
270.0
 51
90.0000008186252956
  0
ARC
  5
155C9
  8
0
 10
3770.2387629161239602
 20
149.5912000036283018
 30
0.0
 40
0.0215442699834854
 50
242.0190285083685069
 51
72.892193583189453
  0
ARC
  5
155CA
  8
0
 10
3770.2382559161637801
 20
149.5914104702175962
 30
0.0
 40
0.021499206874961
 50
71.4356581112157158
 51
243.475563980363404
  0
ARC
  5
155CB
  8
0
 10
3770.2368419488011568
 20
149.5888057944806917
 30
0.0
 40
0.0549745272467264
 50
245.6089165875494871
 51
67.359391715221463
  0
ARC
  5
155CC
  8
0
 10
3770.2364851303591422
 20
149.5889610609087015
 30
0.0
 40
0.0549699601762193
 50
66.9538347030295142
 51
246.0144735997413079
  0
ARC
  5
155CD
  8
0
 10
3770.2372785273992122
 20
149.5900919899877977
 30
0.0
 40
0.0629921259999971
 50
90.0000008186252956
 51
270.0002308295656235
  0
ARC
  5
155CE
  8
0
 10
3770.2372785273992122
 20
149.5900919899877977
 30
0.0
 40
0.0629921260000011
 50
270.0
 51
90.0000008186252956
  0
ARC
  5
155CF
  8
0
 10
3770.2415432845868963
 20
149.3439028975411986
 30
0.0
 40
0.0215442699834854
 50
242.0190285083685069
 51
72.892193583189453
  0
ARC
  5
155D0
  8
0
 10
3770.241036284627171
 20
149.344113364130493
 30
0.0
 40
0.021499206874961
 50
71.4356581112157158
 51
243.475563980363404
  0
ARC
  5
155D1
  8
0
 10
3770.2368419488011568
 20
149.3368372904807018
 30
0.0
 40
0.0549745272467264
 50
245.6089165875494871
 51
67.359391715221463
  0
ARC
  5
155D2
  8
0
 10
3770.2364851303591422
 20
149.3369925569087115
 30
0.0
 40
0.0549699601762193
 50
66.9538347030295142
 51
246.0144735997413079
  0
ARC
  5
155D3
  8
0
 10
3770.2372785273992122
 20
149.3381234859878077
 30
0.0
 40
0.0629921259999971
 50
90.0000008186252956
 51
270.0002308295656235
  0
ARC
  5
155D4
  8
0
 10
3770.2372785273992122
 20
149.3381234859878077
 30
0.0
 40
0.0629921260000011
 50
270.0
 51
90.0000008186252956
  0
ARC
  5
155D5
  8
0
 10
3770.2381429038341594
 20
149.0864311100476982
 30
0.0
 40
0.0215442699834854
 50
242.0190285083685069
 51
72.892193583189453
  0
ARC
  5
155D6
  8
0
 10
3770.2376359038730698
 20
149.0866415766369926
 30
0.0
 40
0.021499206874961
 50
71.4356581112157158
 51
243.475563980363404
  0
ARC
  5
155D7
  8
0
 10
3770.2368416984199939
 20
149.084868786581211
 30
0.0
 40
0.0549745272467264
 50
245.6089165875494871
 51
67.359391715221463
  0
ARC
  5
155D8
  8
0
 10
3770.2364848799779793
 20
149.0850240530091924
 30
0.0
 40
0.0549699601762193
 50
66.9538347030295142
 51
246.0144735997413079
  0
ARC
  5
155D9
  8
0
 10
3770.2372782770189588
 20
149.0861549820882033
 30
0.0
 40
0.0629921259999971
 50
90.0000008186252956
 51
270.0002308295656235
  0
ARC
  5
155DA
  8
0
 10
3770.2372782770189588
 20
149.0861549820882033
 30
0.0
 40
0.0629921260000011
 50
270.0
 51
90.0000008186252956
  0
ARC
  5
155DB
  8
0
 10
3770.2422152445287793
 20
148.8317941234201101
 30
0.0
 40
0.0215442699834854
 50
242.0190285083685069
 51
72.892193583189453
  0
ARC
  5
155DC
  8
0
 10
3770.2417082445690539
 20
148.8320045900094044
 30
0.0
 40
0.021499206874961
 50
71.4356581112157158
 51
243.475563980363404
  0
ARC
  5
155DD
  8
0
 10
3770.2368419487997926
 20
148.832900282680697
 30
0.0
 40
0.0549745272467264
 50
245.6089165875494871
 51
67.359391715221463
  0
ARC
  5
155DE
  8
0
 10
3770.2364851303568685
 20
148.8330555491087068
 30
0.0
 40
0.0549699601762193
 50
66.9538347030295142
 51
246.0144735997413079
  0
ARC
  5
155DF
  8
0
 10
3770.2372785273969384
 20
148.834186478187803
 30
0.0
 40
0.0629921259999971
 50
90.0000008186252956
 51
270.0002308295656235
  0
ARC
  5
155E0
  8
0
 10
3770.2372785273969384
 20
148.834186478187803
 30
0.0
 40
0.0629921260000011
 50
270.0
 51
90.0000008186252956
  0
ARC
  5
155E1
  8
0
 10
3770.2416647646928141
 20
148.5785872028351946
 30
0.0
 40
0.0215442699834854
 50
242.0190285083685069
 51
72.892193583189453
  0
ARC
  5
155E2
  8
0
 10
3770.2411577647330887
 20
148.578797669424489
 30
0.0
 40
0.021499206874961
 50
71.4356581112157158
 51
243.475563980363404
  0
ARC
  5
155E3
  8
0
 10
3770.2368416984199939
 20
148.5809317786811903
 30
0.0
 40
0.0549745272467264
 50
245.6089165875494871
 51
67.359391715221463
  0
ARC
  5
155E4
  8
0
 10
3770.2364848799779793
 20
148.5810870451092001
 30
0.0
 40
0.0549699601762193
 50
66.9538347030295142
 51
246.0144735997413079
  0
ARC
  5
155E5
  8
0
 10
3770.2372782770189588
 20
148.582217974188211
 30
0.0
 40
0.0629921259999971
 50
90.0000008186252956
 51
270.0002308295656235
  0
ARC
  5
155E6
  8
0
 10
3770.2372782770189588
 20
148.582217974188211
 30
0.0
 40
0.0629921260000011
 50
270.0
 51
90.0000008186252956
  0
ARC
  5
155E7
  8
0
 10
3770.2416457237382019
 20
148.3254150524533941
 30
0.0
 40
0.0215442699834854
 50
242.0190285083685069
 51
72.892193583189453
  0
ARC
  5
155E8
  8
0
 10
3770.2411387237780218
 20
148.3256255190426884
 30
0.0
 40
0.021499206874961
 50
71.4356581112157158
 51
243.475563980363404
  0
ARC
  5
155E9
  8
0
 10
3770.2368419488011568
 20
148.3289632747807048
 30
0.0
 40
0.0549745272467264
 50
245.6089165875494871
 51
67.359391715221463
  0
ARC
  5
155EA
  8
0
 10
3770.2364851303591422
 20
148.3291185412086861
 30
0.0
 40
0.0549699601762193
 50
66.9538347030295142
 51
246.0144735997413079
  0
ARC
  5
155EB
  8
0
 10
3770.2372785273992122
 20
148.3302494702878107
 30
0.0
 40
0.0629921259999971
 50
90.0000008186252956
 51
270.0002308295656235
  0
ARC
  5
155EC
  8
0
 10
3770.2372785273992122
 20
148.3302494702878107
 30
0.0
 40
0.0629921260000011
 50
270.0
 51
90.0000008186252956
  0
ARC
  5
155ED
  8
0
 10
3770.2416643129140539
 20
148.0722360268848092
 30
0.0
 40
0.0215442699834854
 50
242.0190285083685069
 51
72.892193583189453
  0
ARC
  5
155EE
  8
0
 10
3770.2411573129538738
 20
148.0724464934741036
 30
0.0
 40
0.021499206874961
 50
71.4356581112157158
 51
243.475563980363404
  0
ARC
  5
155EF
  8
0
 10
3770.2368416984199939
 20
148.076994770781198
 30
0.0
 40
0.0549745272467264
 50
245.6089165875494871
 51
67.359391715221463
  0
ARC
  5
155F0
  8
0
 10
3770.2364848799779793
 20
148.0771500372092078
 30
0.0
 40
0.0549699601762193
 50
66.9538347030295142
 51
246.0144735997413079
  0
ARC
  5
155F1
  8
0
 10
3770.2372782770189588
 20
148.0782809662883039
 30
0.0
 40
0.0629921259999971
 50
90.0000008186252956
 51
270.0002308295656235
  0
ARC
  5
155F2
  8
0
 10
3770.2372782770189588
 20
148.0782809662883039
 30
0.0
 40
0.0629921260000011
 50
270.0
 51
90.0000008186252956
  0
ARC
  5
155F3
  8
0
 10
3770.3632625290188116
 20
150.7239502576881875
 30
0.0
 40
0.0629921259999994
 50
89.3803277874318951
 51
269.9999993632914084
  0
ARC
  5
155F4
  8
0
 10
3770.3632625272180121
 20
150.7239502576881875
 30
0.0
 40
0.0629921259999994
 50
270.0000006367085916
 51
90.6196722125681049
  0
ARC
  5
155F5
  8
0
 10
3770.3689043528938782
 20
150.4768180434807903
 30
0.0
 40
0.021194983503527
 50
48.3472198621126168
 51
224.3198928263252867
  0
ARC
  5
155F6
  8
0
 10
3770.3694665183488723
 20
150.476281456061713
 30
0.0
 40
0.0212364976877109
 50
222.2239906946458063
 51
50.4431219937842883
  0
ARC
  5
155F7
  8
0
 10
3770.3575165921170083
 20
150.4682233330503891
 30
0.0
 40
0.0557757634196622
 50
274.7773281119345938
 51
41.8892164948772674
  0
ARC
  5
155F8
  8
0
 10
3770.3565339658680386
 20
150.4704668841785065
 30
0.0
 40
0.055058430514739
 50
39.4676902669878302
 51
85.77742863304168
  0
ARC
  5
155F9
  8
0
 10
3770.3618993737250094
 20
150.4690159229791107
 30
0.0
 40
0.0563751931227946
 50
91.3329311108573165
 51
270.2667068025456274
  0
ARC
  5
155FA
  8
0
 10
3770.3633396300410823
 20
150.4706778165655123
 30
0.0
 40
0.0629921259999994
 50
89.3803277874318951
 51
269.9999993632914084
  0
ARC
  5
155FB
  8
0
 10
3770.3633396282421018
 20
150.4706778165655123
 30
0.0
 40
0.0629921259999994
 50
270.0000006367085916
 51
90.6196722125681049
  0
ARC
  5
155FC
  8
0
 10
3770.3689686811758293
 20
150.2233954350857061
 30
0.0
 40
0.021194983503527
 50
48.3472198621126168
 51
224.3198928263252867
  0
ARC
  5
155FD
  8
0
 10
3770.3695308466299139
 20
150.2228588476664868
 30
0.0
 40
0.0212364976877109
 50
222.2239906946458063
 51
50.4431219937842883
  0
ARC
  5
155FE
  8
0
 10
3770.3582711995500176
 20
150.2137813864459019
 30
0.0
 40
0.0547058008899325
 50
274.1457806827717718
 51
16.0828269172153213
  0
ARC
  5
155FF
  8
0
 10
3770.3558877915361336
 20
150.2156143278384093
 30
0.0
 40
0.0565400306445852
 50
13.62823753899095
 51
85.1660677693843979
  0
ARC
  5
15600
  8
0
 10
3770.3619637020060509
 20
150.2155933145839981
 30
0.0
 40
0.0563751931227946
 50
91.3329311108573165
 51
270.2667068025456274
  0
ARC
  5
15601
  8
0
 10
3770.3634039583230333
 20
150.2172552081703998
 30
0.0
 40
0.0629921259999994
 50
89.3803277874318951
 51
269.9999993632914084
  0
ARC
  5
15602
  8
0
 10
3770.3634039565231433
 20
150.2172552081703998
 30
0.0
 40
0.0629921259999994
 50
270.0000006367085916
 51
90.6196722125681049
  0
ARC
  5
15603
  8
0
 10
3770.3690346875819159
 20
149.9699665368312935
 30
0.0
 40
0.021194983503527
 50
48.3472198621126168
 51
224.3198928263252867
  0
ARC
  5
15604
  8
0
 10
3770.36959685303691
 20
149.9694299494121026
 30
0.0
 40
0.0212364976877109
 50
222.2239906946458063
 51
50.4431219937842883
  0
ARC
  5
15605
  8
0
 10
3770.3575216639769678
 20
149.961552065010892
 30
0.0
 40
0.0559659159330765
 50
274.8897543981025819
 51
41.8490108727268932
  0
ARC
  5
15606
  8
0
 10
3770.3562031652199948
 20
149.9621217924718906
 30
0.0
 40
0.0565829971291237
 50
40.5284107549249981
 51
85.4231091998307335
  0
ARC
  5
15607
  8
0
 10
3770.3620297084121376
 20
149.9621644163296139
 30
0.0
 40
0.0563751931227946
 50
91.3329311108573165
 51
270.2667068025456274
  0
ARC
  5
15608
  8
0
 10
3770.36346996472912
 20
149.9638263099159872
 30
0.0
 40
0.0629921259999994
 50
89.3803277874318951
 51
269.9999993632914084
  0
ARC
  5
15609
  8
0
 10
3770.3634699629287752
 20
149.9638263099159872
 30
0.0
 40
0.0629921259999994
 50
270.0000006367085916
 51
90.6196722125681049
  0
ARC
  5
1560A
  8
0
 10
3770.3694919040849527
 20
148.210409127106999
 30
0.0
 40
0.021194983503527
 50
48.3472198621126168
 51
224.3198928263252867
  0
ARC
  5
1560B
  8
0
 10
3770.3700540695408563
 20
148.2098725396878081
 30
0.0
 40
0.0212364976877109
 50
222.2239906946458063
 51
50.4431219937842883
  0
ARC
  5
1560C
  8
0
 10
3770.3583446799088961
 20
148.2014924372547
 30
0.0
 40
0.0554352786209101
 50
274.5572974116633986
 51
41.8578335125691225
  0
ARC
  5
1560D
  8
0
 10
3770.3576648352391203
 20
148.2060320243687954
 30
0.0
 40
0.0530512089885479
 50
37.7126571786258324
 51
86.2056469331776469
  0
ARC
  5
1560E
  8
0
 10
3770.3624869249151743
 20
148.202607006605291
 30
0.0
 40
0.0563751931227946
 50
91.3329311108573165
 51
270.2667068025456274
  0
ARC
  5
1560F
  8
0
 10
3770.3639271812330662
 20
148.2042689001916926
 30
0.0
 40
0.0629921259999994
 50
89.3803277874318951
 51
269.9999993632914084
  0
ARC
  5
15610
  8
0
 10
3770.363927179431812
 20
148.2042689001916926
 30
0.0
 40
0.0629921259999994
 50
270.0000006367085916
 51
90.6196722125681049
  0
ARC
  5
15611
  8
0
 10
3770.3694901077228678
 20
148.4623776306075058
 30
0.0
 40
0.021194983503527
 50
48.3472198621126168
 51
224.3198928263252867
  0
ARC
  5
15612
  8
0
 10
3770.3700522731778619
 20
148.4618410431882864
 30
0.0
 40
0.0212364976877109
 50
222.2239906946458063
 51
50.4431219937842883
  0
ARC
  5
15613
  8
0
 10
3770.3582790807899983
 20
148.4535464761671903
 30
0.0
 40
0.055525642170506
 50
274.6159130704726863
 51
41.9383005923962386
  0
ARC
  5
15614
  8
0
 10
3770.3575321929461097
 20
148.4575259061136876
 30
0.0
 40
0.0535335409934182
 50
38.2332779736525907
 51
86.0995279858498606
  0
ARC
  5
15615
  8
0
 10
3770.3624851285530895
 20
148.4545755101057978
 30
0.0
 40
0.0563751931227946
 50
91.3329311108573165
 51
270.2667068025456274
  0
ARC
  5
15616
  8
0
 10
3770.3639253848700719
 20
148.4562374036921995
 30
0.0
 40
0.0629921259999994
 50
89.3803277874318951
 51
269.9999993632914084
  0
ARC
  5
15617
  8
0
 10
3770.3639253830701819
 20
148.4562374036921995
 30
0.0
 40
0.0629921259999994
 50
270.0000006367085916
 51
90.6196722125681049
  0
ARC
  5
15618
  8
0
 10
3770.3694878758778941
 20
148.7143461338156101
 30
0.0
 40
0.021194983503527
 50
48.3472198621126168
 51
224.3198928263252867
  0
ARC
  5
15619
  8
0
 10
3770.3700500413328882
 20
148.7138095463963907
 30
0.0
 40
0.0212364976877109
 50
222.2239906946458063
 51
50.4431219937842883
  0
ARC
  5
1561A
  8
0
 10
3770.35741211470895
 20
148.7066884253111994
 30
0.0
 40
0.0567700605247946
 50
275.3905396312877087
 51
39.0072337988741324
  0
ARC
  5
1561B
  8
0
 10
3770.3551144834618754
 20
148.7009774114237075
 30
0.0
 40
0.0622220525898098
 50
41.763104702025089
 51
84.413685420976222
  0
ARC
  5
1561C
  8
0
 10
3770.3624828967081157
 20
148.706544013313902
 30
0.0
 40
0.0563751931227946
 50
91.3329311108573165
 51
270.2667068025456274
  0
ARC
  5
1561D
  8
0
 10
3770.3639231530250981
 20
148.7082059069003037
 30
0.0
 40
0.0629921259999994
 50
89.3803277874318951
 51
269.9999993632914084
  0
ARC
  5
1561E
  8
0
 10
3770.3639231512252081
 20
148.7082059069003037
 30
0.0
 40
0.0629921259999994
 50
270.0000006367085916
 51
90.6196722125681049
  0
ARC
  5
1561F
  8
0
 10
3770.3694850283500273
 20
148.9663146367180104
 30
0.0
 40
0.021194983503527
 50
48.3472198621126168
 51
224.3198928263252867
  0
ARC
  5
15620
  8
0
 10
3770.3700471938050214
 20
148.9657780492987911
 30
0.0
 40
0.0212364976877109
 50
222.2239906946458063
 51
50.4431219937842883
  0
ARC
  5
15621
  8
0
 10
3770.3580012454481221
 20
148.9578542788823938
 30
0.0
 40
0.0559177101650287
 50
274.8639097691014967
 51
42.6619871148814482
  0
ARC
  5
15622
  8
0
 10
3770.3568479166187899
 20
148.9590770972257019
 30
0.0
 40
0.0559624039134827
 50
40.9408855801234708
 51
85.571909847374215
  0
ARC
  5
15623
  8
0
 10
3770.3624800491797942
 20
148.9585125162163024
 30
0.0
 40
0.0563751931227946
 50
91.3329311108573165
 51
270.2667068025456274
  0
ARC
  5
15624
  8
0
 10
3770.3639203054967766
 20
148.9601744098027041
 30
0.0
 40
0.0629921259999994
 50
89.3803277874318951
 51
269.9999993632914084
  0
ARC
  5
15625
  8
0
 10
3770.3639203036968865
 20
148.9601744098027041
 30
0.0
 40
0.0629921259999994
 50
270.0000006367085916
 51
90.6196722125681049
  0
ARC
  5
15626
  8
0
 10
3770.3695092355560519
 20
149.2182831452599885
 30
0.0
 40
0.021194983503527
 50
48.3472198621126168
 51
224.3198928263252867
  0
ARC
  5
15627
  8
0
 10
3770.370071401011046
 20
149.2177465578409112
 30
0.0
 40
0.0212364976877109
 50
222.2239906946458063
 51
50.4431219937842883
  0
ARC
  5
15628
  8
0
 10
3770.3573648326459988
 20
149.2107185064695898
 30
0.0
 40
0.0568691983375292
 50
275.4505815067972208
 51
42.7200416515879411
  0
ARC
  5
15629
  8
0
 10
3770.3544003501679072
 20
149.2023172379911955
 30
0.0
 40
0.064880268815797
 50
46.3972047238388612
 51
83.9905207483282368
  0
ARC
  5
1562A
  8
0
 10
3770.3625042563858187
 20
149.2104810247583941
 30
0.0
 40
0.0563751931227946
 50
91.3329311108573165
 51
270.2667068025456274
  0
ARC
  5
1562B
  8
0
 10
3770.3639445127028011
 20
149.2121429183447106
 30
0.0
 40
0.0629921259999994
 50
89.3803277874318951
 51
269.9999993632914084
  0
ARC
  5
1562C
  8
0
 10
3770.3639445109029111
 20
149.2121429183447106
 30
0.0
 40
0.0629921259999994
 50
270.0000006367085916
 51
90.6196722125681049
  0
ARC
  5
1562D
  8
0
 10
3770.3694760789690008
 20
149.4702516406447046
 30
0.0
 40
0.021194983503527
 50
48.3472198621126168
 51
224.3198928263252867
  0
ARC
  5
1562E
  8
0
 10
3770.3700382444239949
 20
149.4697150532255137
 30
0.0
 40
0.0212364976877109
 50
222.2239906946458063
 51
50.4431219937842883
  0
ARC
  5
1562F
  8
0
 10
3770.3576010360220607
 20
149.4623217830514932
 30
0.0
 40
0.0564805275949119
 50
275.2137602025168803
 51
42.6958308137942666
  0
ARC
  5
15630
  8
0
 10
3770.3555152280541733
 20
149.4583396915834044
 30
0.0
 40
0.0607326337440489
 50
44.1226920343498108
 51
84.6672487912044573
  0
ARC
  5
15631
  8
0
 10
3770.3624710998001319
 20
149.4624495201429966
 30
0.0
 40
0.0563751931227946
 50
91.3329311108573165
 51
270.2667068025456274
  0
ARC
  5
15632
  8
0
 10
3770.3639113561162048
 20
149.4641114137293982
 30
0.0
 40
0.0629921259999994
 50
89.3803277874318951
 51
269.9999993632914084
  0
ARC
  5
15633
  8
0
 10
3770.3639113543158601
 20
149.4641114137293982
 30
0.0
 40
0.0629921259999994
 50
270.0000006367085916
 51
90.6196722125681049
  0
ARC
  5
15634
  8
0
 10
3770.3694684456650066
 20
149.7222201401509949
 30
0.0
 40
0.021194983503527
 50
48.3472198621126168
 51
224.3198928263252867
  0
ARC
  5
15635
  8
0
 10
3770.3700306111200007
 20
149.721683552731804
 30
0.0
 40
0.0212364976877109
 50
222.2239906946458063
 51
50.4431219937842883
  0
ARC
  5
15636
  8
0
 10
3770.3575359138530985
 20
149.7143682303471053
 30
0.0
 40
0.0565633992446311
 50
275.2645775355236992
 51
39.4312217974913324
  0
ARC
  5
15637
  8
0
 10
3770.3554995680569846
 20
149.710279847100395
 30
0.0
 40
0.0607616012880337
 50
41.1895797675977704
 51
84.6621967228948051
  0
ARC
  5
15638
  8
0
 10
3770.362463466493864
 20
149.7144180196492869
 30
0.0
 40
0.0563751931227946
 50
91.3329311108573165
 51
270.2667068025456274
  0
ARC
  5
15639
  8
0
 10
3770.3639037228122106
 20
149.7160799132356885
 30
0.0
 40
0.0629921259999994
 50
89.3803277874318951
 51
269.9999993632914084
  0
ARC
  5
1563A
  8
0
 10
3770.3639037210118659
 20
149.7160799132356885
 30
0.0
 40
0.0629921259999994
 50
270.0000006367085916
 51
90.6196722125681049
  0
LINE
  5
1563C
  8
0
 10
3757.0013316141180439
 20
144.630745533288291
 30
0.0
 11
3757.0013316141180439
 21
144.7699108875883098
 31
0.0
  0
LINE
  5
1563D
  8
0
 10
3757.005267146641927
 20
144.7693170868853088
 30
0.0
 11
3757.005267146641927
 21
144.6227455338975005
 31
0.0
  0
LINE
  5
1563E
  8
0
 10
3753.3005442124181172
 20
144.7699108874174954
 30
0.0
 11
3753.3005442124181172
 21
144.6307455334589918
 31
0.0
  0
ENDSEC
  0
EOF
