  0
SECTION
  2
HEADER
  9
$ACADVER
  1
AC1009
  9
$INSBASE
 10
1001.1955735430490222
 20
133.7983721997022997
 30
0.0
  9
$EXTMIN
 10
998.3934562844043512
 20
124.939509204804807
 30
-0.000000000000013
  9
$EXTMAX
 10
1003.9849364145079562
 20
133.8006119300287082
 30
0.0000000000000023
  9
$LIMMIN
 10
0.0
 20
0.0
  9
$LIMMAX
 10
11.6929133858000007
 20
8.2677165353999982
  9
$ORTHOMODE
 70
     0
  9
$REGENMODE
 70
     1
  9
$FILLMODE
 70
     1
  9
$QTEXTMODE
 70
     0
  9
$MIRRTEXT
 70
     0
  9
$DRAGMODE
 70
     2
  9
$LTSCALE
 40
0.6431102362
  9
$OSMODE
 70
  4095
  9
$ATTMODE
 70
     1
  9
$TEXTSIZE
 40
0.2
  9
$TRACEWID
 40
0.05
  9
$TEXTSTYLE
  7
STANDARD
  9
$CLAYER
  8
0
  9
$CELTYPE
  6
BYLAYER
  9
$CECOLOR
 62
   256
  9
$DIMSCALE
 40
1.0
  9
$DIMASZ
 40
0.1875
  9
$DIMEXO
 40
0.0625
  9
$DIMDLI
 40
0.4443307087
  9
$DIMRND
 40
0.0
  9
$DIMDLE
 40
0.0
  9
$DIMEXE
 40
0.125
  9
$DIMTP
 40
0.01
  9
$DIMTM
 40
0.01
  9
$DIMTXT
 40
1.0
  9
$DIMCEN
 40
0.1052362205
  9
$DIMTSZ
 40
0.0
  9
$DIMTOL
 70
     1
  9
$DIMLIM
 70
     0
  9
$DIMTIH
 70
     0
  9
$DIMTOH
 70
     1
  9
$DIMSE1
 70
     0
  9
$DIMSE2
 70
     0
  9
$DIMTAD
 70
     0
  9
$DIMZIN
 70
     0
  9
$DIMBLK
  1

  9
$DIMASO
 70
     1
  9
$DIMSHO
 70
     1
  9
$DIMPOST
  1
\X
  9
$DIMAPOST
  1

  9
$DIMALT
 70
     1
  9
$DIMALTD
 70
     2
  9
$DIMALTF
 40
25.3999999999999986
  9
$DIMLFAC
 40
1.0
  9
$DIMTOFL
 70
     0
  9
$DIMTVP
 40
0.0
  9
$DIMTIX
 70
     0
  9
$DIMSOXD
 70
     0
  9
$DIMSAH
 70
     0
  9
$DIMBLK1
  1

  9
$DIMBLK2
  1

  9
$DIMSTYLE
  2
STANDARD
  9
$DIMCLRD
 70
     0
  9
$DIMCLRE
 70
     0
  9
$DIMCLRT
 70
     0
  9
$DIMTFAC
 40
1.0
  9
$DIMGAP
 40
0.09
  9
$LUNITS
 70
     2
  9
$LUPREC
 70
     4
  9
$SKETCHINC
 40
0.1
  9
$FILLETRAD
 40
0.0
  9
$AUNITS
 70
     0
  9
$AUPREC
 70
     0
  9
$MENU
  1
.
  9
$ELEVATION
 40
0.0
  9
$PELEVATION
 40
0.0
  9
$THICKNESS
 40
0.0
  9
$LIMCHECK
 70
     0
  9
$BLIPMODE
 70
     0
  9
$CHAMFERA
 40
0.0
  9
$CHAMFERB
 40
0.0
  9
$SKPOLY
 70
     0
  9
$TDCREATE
 40
2458172.5207638889551163
  9
$TDUPDATE
 40
2459124.742881943937391
  9
$TDINDWG
 40
0.4482067361
  9
$TDUSRTIMER
 40
0.4482067361
  9
$USRTIMER
 70
     1
  9
$ANGBASE
 50
0.0
  9
$ANGDIR
 70
     0
  9
$PDMODE
 70
     0
  9
$PDSIZE
 40
0.3125
  9
$PLINEWID
 40
0.0
  9
$COORDS
 70
     1
  9
$SPLFRAME
 70
     0
  9
$SPLINETYPE
 70
     6
  9
$SPLINESEGS
 70
     8
  9
$ATTDIA
 70
     1
  9
$ATTREQ
 70
     1
  9
$HANDLING
 70
     1
  9
$HANDSEED
  5
B7CC
  9
$SURFTAB1
 70
     6
  9
$SURFTAB2
 70
     6
  9
$SURFTYPE
 70
     6
  9
$SURFU
 70
     6
  9
$SURFV
 70
     6
  9
$UCSNAME
  2

  9
$UCSORG
 10
0.0
 20
0.0
 30
0.0
  9
$UCSXDIR
 10
1.0
 20
0.0
 30
0.0
  9
$UCSYDIR
 10
0.0
 20
1.0
 30
0.0
  9
$PUCSNAME
  2

  9
$PUCSORG
 10
0.0
 20
0.0
 30
0.0
  9
$PUCSXDIR
 10
1.0
 20
0.0
 30
0.0
  9
$PUCSYDIR
 10
0.0
 20
1.0
 30
0.0
  9
$USERI1
 70
     0
  9
$USERI2
 70
     0
  9
$USERI3
 70
     0
  9
$USERI4
 70
     0
  9
$USERI5
 70
     0
  9
$USERR1
 40
0.0
  9
$USERR2
 40
0.0
  9
$USERR3
 40
0.0
  9
$USERR4
 40
0.0
  9
$USERR5
 40
0.0
  9
$WORLDVIEW
 70
     1
  9
$SHADEDGE
 70
     3
  9
$SHADEDIF
 70
    70
  9
$TILEMODE
 70
     1
  9
$MAXACTVP
 70
    64
  9
$PLIMCHECK
 70
     0
  9
$PEXTMIN
 10
1.0000000000000000E+20
 20
1.0000000000000000E+20
 30
1.0000000000000000E+20
  9
$PEXTMAX
 10
-1.0000000000000000E+20
 20
-1.0000000000000000E+20
 30
-1.0000000000000000E+20
  9
$PLIMMIN
 10
0.0
 20
0.0
  9
$PLIMMAX
 10
12.0
 20
9.0
  9
$UNITMODE
 70
     0
  9
$VISRETAIN
 70
     1
  9
$PLINEGEN
 70
     0
  9
$PSLTSCALE
 70
     1
  0
ENDSEC
  0
SECTION
  2
TABLES
  0
TABLE
  2
VPORT
 70
     1
  0
VPORT
  2
*ACTIVE
 70
     0
 10
0.0
 20
0.0
 11
1.0
 21
1.0
 12
534.44699464162602
 22
40.2369134474869483
 13
0.0
 23
0.0
 14
1.0
 24
1.0
 15
0.0
 25
0.0
 16
0.0
 26
0.0
 36
24.1179433675886514
 17
466.74220170783002
 27
89.133147119929788
 37
0.0
 40
8.9166002370729274
 41
2.005224660397074
 42
50.0
 43
0.0
 44
0.0
 50
0.0
 51
0.0
 71
     0
 72
   100
 73
     1
 74
     1
 75
     0
 76
     0
 77
     0
 78
     0
  0
ENDTAB
  0
TABLE
  2
LTYPE
 70
     3
  0
LTYPE
  2
CONTINUOUS
 70
     0
  3
Solid line
 72
    65
 73
     0
 40
0.0
  0
LTYPE
  2
PHANTOM2
 70
     0
  3
___ _ _ ___ _ _ ___ _ _ ___ _ _
 72
    65
 73
     6
 40
1.25
 49
0.625
 49
-0.125
 49
0.125
 49
-0.125
 49
0.125
 49
-0.125
  0
ENDTAB
  0
TABLE
  2
LAYER
 70
     2
  0
LAYER
  2
0
 70
     0
 62
   255
  6
CONTINUOUS
  0
LAYER
  2
DEFPOINTS
 70
     0
 62
     7
  6
CONTINUOUS
  0
ENDTAB
  0
TABLE
  2
STYLE
 70
     1
  0
STYLE
  2
STANDARD
 70
     0
 40
0.0
 41
0.8
 50
0.0
 71
     0
 42
0.2
  3
txt
  4

  0
ENDTAB
  0
TABLE
  2
VIEW
 70
     0
  0
ENDTAB
  0
TABLE
  2
UCS
 70
     0
  0
ENDTAB
  0
TABLE
  2
APPID
 70
    11
  0
APPID
  2
ACAD
 70
     0
  0
APPID
  2
ACAD_MLEADERVER
 70
     0
  0
APPID
  2
ACAD_EXEMPT_FROM_CAD_STANDARDS
 70
     0
  0
APPID
  2
ACAD_DSTYLE_DIMJAG
 70
     0
  0
APPID
  2
ACAD_DSTYLE_DIMTALN
 70
     0
  0
APPID
  2
ACAD_NAV_VCDISPLAY
 70
     0
  0
APPID
  2
ACAECLAYERSTANDARD
 70
     0
  0
APPID
  2
ACCMTRANSPARENCY
 70
     0
  0
APPID
  2
DCO15
 70
     0
  0
APPID
  2
ACDBATTR
 70
     0
  0
APPID
  2
ACADANNOTATIVE
 70
     0
  0
ENDTAB
  0
TABLE
  2
DIMSTYLE
 70
     2
  0
DIMSTYLE
  2
STANDARD
 70
     0
  3

  4

  5

  6

  7

 40
1.0
 41
0.1875
 42
0.0625
 43
0.38
 44
0.125
 45
0.0
 46
0.0
 47
0.01
 48
0.01
140
0.15625
141
0.09
142
0.0
143
25.3999999999999986
144
1.0
145
0.0
146
1.0
147
0.09
 71
     1
 72
     0
 73
     1
 74
     1
 75
     0
 76
     0
 77
     0
 78
     4
170
     0
171
     2
172
     0
173
     0
174
     0
175
     0
176
     0
177
     0
178
     0
  0
ENDTAB
  0
ENDSEC
  0
SECTION
  2
BLOCKS
  0
BLOCK
  8
0
  2
$MODEL_SPACE
 70
     0
 10
0.0
 20
0.0
 30
0.0
  3
$MODEL_SPACE
  1

  0
ENDBLK
  5
21
  8
0
  0
BLOCK
 67
     1
  8
0
  2
$PAPER_SPACE
 70
     0
 10
0.0
 20
0.0
 30
0.0
  3
$PAPER_SPACE
  1

  0
ENDBLK
  5
1D
 67
     1
  8
0
  0
ENDSEC
  0
SECTION
  2
ENTITIES
  0
ATTDEF
  5
829
  8
DEFPOINTS
 10
1001.1914441219139462
 20
133.796133767773199
 30
0.0
 40
0.001
  1
K-99860T
  3

  2
MODELNUMBER
 70
     0
1001
ACDBATTR
1070
     0
1070
     1
  0
ATTDEF
  5
82A
  8
DEFPOINTS
 10
1001.1914441219139462
 20
133.7944671011065054
 30
0.0
 40
0.001
  1
BEITOU
  3

  2
TRADENAME
 70
     0
1001
ACDBATTR
1070
     0
1070
     1
  0
ATTDEF
  5
82B
  8
DEFPOINTS
 10
1001.1914441219139462
 20
133.7928004344398119
 30
0.0
 40
0.001
  1
BATH SPOUT
  3

  2
PRODUCT
 70
     0
1001
ACDBATTR
1070
     0
1070
     1
  0
LINE
  5
B653
  8
0
 10
998.4790702466036691
 20
133.7983721997022997
 30
0.0
 11
1003.9120768394949437
 21
133.7983721997022997
 31
0.0
  0
LINE
  5
B654
  8
0
 10
998.4790702466036691
 20
124.9401044832023047
 30
0.0
 11
1003.9120768394949437
 21
124.9401044832023047
 31
0.0
  0
LINE
  5
B655
  8
0
 10
998.4396702466036686
 20
133.7589721997022991
 30
0.0
 11
998.4396702466036686
 21
124.9795044832023052
 31
0.0
  0
ARC
  5
B656
  8
0
 10
998.4790702466036691
 20
133.7589721997022991
 30
0.0
 40
0.0394
 50
89.9999999999934914
 51
180.0000000000104876
  0
ARC
  5
B657
  8
0
 10
998.4790702466036691
 20
124.9795044832023052
 30
0.0
 40
0.0394
 50
180.0000000000023874
 51
270.0
  0
LINE
  5
B658
  8
0
 10
999.3451820577034823
 20
132.5187573304621935
 30
0.0
 11
999.3451820577034823
 21
133.7786721997022994
 31
0.0
  0
LINE
  5
B659
  8
0
 10
999.3412450498035469
 20
132.3089699977795135
 30
0.0
 11
999.3412450498035469
 21
133.7786721997022994
 31
0.0
  0
LINE
  5
B65A
  8
0
 10
1000.2694397251630107
 20
131.7314430659023117
 30
0.0
 11
1002.1217073609350336
 21
131.7314430659023117
 31
0.0
  0
ARC
  5
B65B
  8
0
 10
1000.2454471219880361
 20
133.4393618355315141
 30
0.0
 40
1.7085013844841841
 50
255.8932456436824054
 51
263.8040557233549066
  0
ARC
  5
B65C
  8
0
 10
999.9600343190335252
 20
132.3745308137661141
 30
0.0
 40
0.6064647785174248
 50
208.6192149465925922
 51
257.5255344394183226
  0
ARC
  5
B65D
  8
0
 10
1000.2284740632250077
 20
132.4461999942469106
 30
0.0
 40
0.8788922950376193
 50
187.300959242154704
 51
204.3343872346042929
  0
ARC
  5
B65E
  8
0
 10
1000.9180485208539721
 20
132.5246622627587101
 30
0.0
 40
1.572877547396043
 50
180.2151016105524093
 51
186.9437560970800973
  0
ARC
  5
B65F
  8
0
 10
999.4339590456308997
 20
132.3069591689533127
 30
0.0
 40
0.0927357992084677
 50
178.7575287566918973
 51
192.055472980986508
  0
ARC
  5
B660
  8
0
 10
999.3579429610858824
 20
132.290724512645312
 30
0.0
 40
0.0150054372190746
 50
192.0554729809904018
 51
210.1785695271937016
  0
ARC
  5
B661
  8
0
 10
999.3471934576153899
 20
132.2844735336765041
 30
0.0
 40
0.0025705442590386
 50
210.1785695272338046
 51
323.8583293853631062
  0
ARC
  5
B662
  8
0
 10
999.323391392725739
 20
132.3018568281258922
 30
0.0
 40
0.0320445534693703
 50
323.858329385368279
 51
337.7792252792053773
  0
ARC
  5
B663
  8
0
 10
999.711858242993344
 20
131.8941460761137989
 30
0.0
 40
0.5340713467845521
 50
130.8979479966909878
 51
132.2080252663124895
  0
ARC
  5
B664
  8
0
 10
999.3648820577035394
 20
133.7786721997022994
 30
0.0
 40
0.0197
 50
90.0
 51
180.0
  0
ARC
  5
B665
  8
0
 10
999.3215450498036034
 20
133.7786721997022994
 30
0.0
 40
0.0197
 50
0.0
 51
90.0
  0
ARC
  5
B666
  8
0
 10
1000.2896110413339557
 20
134.4939816766161016
 30
0.0
 40
2.76261225250312
 50
265.2542919025665924
 51
269.5816490163753087
  0
LINE
  5
B667
  8
0
 10
1003.9514768394949442
 20
133.7589721997022991
 30
0.0
 11
1003.9514768394949442
 21
124.9795044832023052
 31
0.0
  0
ARC
  5
B668
  8
0
 10
1003.9120768394949437
 20
133.7589721997022991
 30
0.0
 40
0.0394
 50
359.9999999999894271
 51
90.0000000000065086
  0
ARC
  5
B669
  8
0
 10
1003.9120768394949437
 20
124.9795044832023052
 30
0.0
 40
0.0394
 50
270.0
 51
359.9999999999976126
  0
LINE
  5
B66A
  8
0
 10
1003.0459650283950168
 20
132.5187573304621935
 30
0.0
 11
1003.0459650283950168
 21
133.7786721997022994
 31
0.0
  0
LINE
  5
B66B
  8
0
 10
1003.0499020362949523
 20
132.3089699977795135
 30
0.0
 11
1003.0499020362949523
 21
133.7786721997022994
 31
0.0
  0
ARC
  5
B66C
  8
0
 10
1002.1456999641100083
 20
133.4393618355315141
 30
0.0
 40
1.7085013844841841
 50
276.1959442766450934
 51
284.1067543563175946
  0
ARC
  5
B66D
  8
0
 10
1002.4311127670649739
 20
132.3745308137661141
 30
0.0
 40
0.6064647785174248
 50
282.4744655605816774
 51
331.3807850534074078
  0
ARC
  5
B66E
  8
0
 10
1002.1626730228739461
 20
132.4461999942469106
 30
0.0
 40
0.8788922950376193
 50
335.6656127653956787
 51
352.699040757845296
  0
ARC
  5
B66F
  8
0
 10
1001.4730985652439585
 20
132.5246622627587101
 30
0.0
 40
1.572877547396043
 50
353.056243902919789
 51
359.7848983894476191
  0
ARC
  5
B670
  8
0
 10
1002.957188040467031
 20
132.3069591689533127
 30
0.0
 40
0.0927357992084677
 50
347.944527019013492
 51
1.242471243308086
  0
ARC
  5
B671
  8
0
 10
1003.0332041250129578
 20
132.290724512645312
 30
0.0
 40
0.0150054372190746
 50
329.8214304728062984
 51
347.9445270190087172
  0
ARC
  5
B672
  8
0
 10
1003.0439536284829956
 20
132.2844735336765041
 30
0.0
 40
0.0025705442590386
 50
216.1416706146362117
 51
329.8214304727662238
  0
ARC
  5
B673
  8
0
 10
1003.0677556933729875
 20
132.3018568281258922
 30
0.0
 40
0.0320445534693703
 50
202.2207747207937985
 51
216.1416706146316926
  0
ARC
  5
B674
  8
0
 10
1002.6792888431050415
 20
131.8941460761137989
 30
0.0
 40
0.5340713467845521
 50
47.7919747336874465
 51
49.1020520033089412
  0
ARC
  5
B675
  8
0
 10
1003.0262650283949597
 20
133.7786721997022994
 30
0.0
 40
0.0197
 50
0.0
 51
90.0
  0
ARC
  5
B676
  8
0
 10
1003.0696020362950094
 20
133.7786721997022994
 30
0.0
 40
0.0197
 50
90.0
 51
180.0
  0
ARC
  5
B677
  8
0
 10
1002.101536044763975
 20
134.4939816766161016
 30
0.0
 40
2.76261225250312
 50
270.4183509836246913
 51
274.7457080974334076
  0
ENDSEC
  0
EOF
