  0
SECTION
  2
HEADER
  9
$ACADVER
  1
AC1009
  9
$INSBASE
 10
81.8640786292782252
 20
-16.5136384401971483
 30
0.0
  9
$EXTMIN
 10
79.79089101608497
 20
-22.1847882252632012
 30
-0.0000000349181948
  9
$EXTMAX
 10
86.4953423583578456
 20
-15.6076085116734902
 30
0.0000000814935746
  9
$LIMMIN
 10
0.0
 20
0.0
  9
$LIMMAX
 10
11.6929133858000007
 20
8.2677165353999982
  9
$ORTHOMODE
 70
     0
  9
$REGENMODE
 70
     1
  9
$FILLMODE
 70
     1
  9
$QTEXTMODE
 70
     0
  9
$MIRRTEXT
 70
     0
  9
$DRAGMODE
 70
     2
  9
$LTSCALE
 40
0.6431102362
  9
$OSMODE
 70
  4095
  9
$ATTMODE
 70
     1
  9
$TEXTSIZE
 40
0.2
  9
$TRACEWID
 40
0.05
  9
$TEXTSTYLE
  7
STANDARD
  9
$CLAYER
  8
0
  9
$CELTYPE
  6
BYLAYER
  9
$CECOLOR
 62
   256
  9
$DIMSCALE
 40
1.0
  9
$DIMASZ
 40
0.1875
  9
$DIMEXO
 40
0.0625
  9
$DIMDLI
 40
0.4443307087
  9
$DIMRND
 40
0.0
  9
$DIMDLE
 40
0.0
  9
$DIMEXE
 40
0.125
  9
$DIMTP
 40
0.01
  9
$DIMTM
 40
0.01
  9
$DIMTXT
 40
1.0
  9
$DIMCEN
 40
0.1052362205
  9
$DIMTSZ
 40
0.0
  9
$DIMTOL
 70
     1
  9
$DIMLIM
 70
     0
  9
$DIMTIH
 70
     1
  9
$DIMTOH
 70
     1
  9
$DIMSE1
 70
     0
  9
$DIMSE2
 70
     0
  9
$DIMTAD
 70
     0
  9
$DIMZIN
 70
     0
  9
$DIMBLK
  1

  9
$DIMASO
 70
     1
  9
$DIMSHO
 70
     1
  9
$DIMPOST
  1
\X
  9
$DIMAPOST
  1

  9
$DIMALT
 70
     1
  9
$DIMALTD
 70
     2
  9
$DIMALTF
 40
25.3999999999999986
  9
$DIMLFAC
 40
1.0
  9
$DIMTOFL
 70
     0
  9
$DIMTVP
 40
0.0
  9
$DIMTIX
 70
     0
  9
$DIMSOXD
 70
     0
  9
$DIMSAH
 70
     0
  9
$DIMBLK1
  1

  9
$DIMBLK2
  1

  9
$DIMSTYLE
  2
STANDARD
  9
$DIMCLRD
 70
     0
  9
$DIMCLRE
 70
     0
  9
$DIMCLRT
 70
     0
  9
$DIMTFAC
 40
1.0
  9
$DIMGAP
 40
0.09
  9
$LUNITS
 70
     2
  9
$LUPREC
 70
     4
  9
$SKETCHINC
 40
0.1
  9
$FILLETRAD
 40
0.0
  9
$AUNITS
 70
     0
  9
$AUPREC
 70
     0
  9
$MENU
  1
.
  9
$ELEVATION
 40
0.0
  9
$PELEVATION
 40
0.0
  9
$THICKNESS
 40
0.0
  9
$LIMCHECK
 70
     0
  9
$BLIPMODE
 70
     0
  9
$CHAMFERA
 40
0.0
  9
$CHAMFERB
 40
0.0
  9
$SKPOLY
 70
     0
  9
$TDCREATE
 40
2458172.4620254631154239
  9
$TDUPDATE
 40
2459150.8120254632085562
  9
$TDINDWG
 40
0.1276795486
  9
$TDUSRTIMER
 40
0.1276795486
  9
$USRTIMER
 70
     1
  9
$ANGBASE
 50
0.0
  9
$ANGDIR
 70
     0
  9
$PDMODE
 70
     0
  9
$PDSIZE
 40
0.3125
  9
$PLINEWID
 40
0.0
  9
$COORDS
 70
     1
  9
$SPLFRAME
 70
     0
  9
$SPLINETYPE
 70
     6
  9
$SPLINESEGS
 70
     8
  9
$ATTDIA
 70
     1
  9
$ATTREQ
 70
     1
  9
$HANDLING
 70
     1
  9
$HANDSEED
  5
FEC4
  9
$SURFTAB1
 70
     6
  9
$SURFTAB2
 70
     6
  9
$SURFTYPE
 70
     6
  9
$SURFU
 70
     6
  9
$SURFV
 70
     6
  9
$UCSNAME
  2

  9
$UCSORG
 10
0.0
 20
0.0
 30
0.0
  9
$UCSXDIR
 10
1.0
 20
0.0
 30
0.0
  9
$UCSYDIR
 10
0.0
 20
1.0
 30
0.0
  9
$PUCSNAME
  2

  9
$PUCSORG
 10
0.0
 20
0.0
 30
0.0
  9
$PUCSXDIR
 10
1.0
 20
0.0
 30
0.0
  9
$PUCSYDIR
 10
0.0
 20
1.0
 30
0.0
  9
$USERI1
 70
     0
  9
$USERI2
 70
     0
  9
$USERI3
 70
     0
  9
$USERI4
 70
     0
  9
$USERI5
 70
     0
  9
$USERR1
 40
0.0
  9
$USERR2
 40
0.0
  9
$USERR3
 40
0.0
  9
$USERR4
 40
0.0
  9
$USERR5
 40
0.0
  9
$WORLDVIEW
 70
     1
  9
$SHADEDGE
 70
     3
  9
$SHADEDIF
 70
    70
  9
$TILEMODE
 70
     1
  9
$MAXACTVP
 70
    64
  9
$PLIMCHECK
 70
     0
  9
$PEXTMIN
 10
1.0000000000000000E+20
 20
1.0000000000000000E+20
 30
1.0000000000000000E+20
  9
$PEXTMAX
 10
-1.0000000000000000E+20
 20
-1.0000000000000000E+20
 30
-1.0000000000000000E+20
  9
$PLIMMIN
 10
0.0
 20
0.0
  9
$PLIMMAX
 10
12.0
 20
9.0
  9
$UNITMODE
 70
     0
  9
$VISRETAIN
 70
     1
  9
$PLINEGEN
 70
     0
  9
$PSLTSCALE
 70
     1
  0
ENDSEC
  0
SECTION
  2
TABLES
  0
TABLE
  2
VPORT
 70
     1
  0
VPORT
  2
*ACTIVE
 70
     0
 10
0.0
 20
0.0
 11
1.0
 21
1.0
 12
-41.468041912851227
 22
-24.2084725388461699
 13
0.0
 23
0.0
 14
1.0
 24
1.0
 15
0.0
 25
0.0
 16
0.0
 26
0.0
 36
30.6214257250603907
 17
124.6111586000725993
 27
5.3122741703778242
 37
0.0
 40
6.6642946766836104
 41
2.9225663716814161
 42
50.0
 43
0.0
 44
0.0
 50
0.0
 51
0.0
 71
     0
 72
   100
 73
     1
 74
     1
 75
     0
 76
     0
 77
     0
 78
     1
  0
ENDTAB
  0
TABLE
  2
LTYPE
 70
     2
  0
LTYPE
  2
CONTINUOUS
 70
     0
  3
Solid line
 72
    65
 73
     0
 40
0.0
  0
LTYPE
  2
PHANTOM2
 70
     0
  3
___ _ _ ___ _ _ ___ _ _ ___ _ _
 72
    65
 73
     6
 40
1.25
 49
0.625
 49
-0.125
 49
0.125
 49
-0.125
 49
0.125
 49
-0.125
  0
ENDTAB
  0
TABLE
  2
LAYER
 70
     2
  0
LAYER
  2
0
 70
     0
 62
   255
  6
CONTINUOUS
  0
LAYER
  2
DEFPOINTS
 70
     0
 62
     7
  6
CONTINUOUS
  0
ENDTAB
  0
TABLE
  2
STYLE
 70
     1
  0
STYLE
  2
STANDARD
 70
     0
 40
0.0
 41
0.8
 50
0.0
 71
     0
 42
0.2
  3
txt
  4

  0
ENDTAB
  0
TABLE
  2
VIEW
 70
     0
  0
ENDTAB
  0
TABLE
  2
UCS
 70
     0
  0
ENDTAB
  0
TABLE
  2
APPID
 70
     9
  0
APPID
  2
ACAD
 70
     0
  0
APPID
  2
ACAD_MLEADERVER
 70
     0
  0
APPID
  2
ACAD_EXEMPT_FROM_CAD_STANDARDS
 70
     0
  0
APPID
  2
ACAD_DSTYLE_DIMJAG
 70
     0
  0
APPID
  2
ACAD_DSTYLE_DIMTALN
 70
     0
  0
APPID
  2
ACAD_NAV_VCDISPLAY
 70
     0
  0
APPID
  2
ACAECLAYERSTANDARD
 70
     0
  0
APPID
  2
ACCMTRANSPARENCY
 70
     0
  0
APPID
  2
ACDBATTR
 70
     0
  0
ENDTAB
  0
TABLE
  2
DIMSTYLE
 70
     1
  0
DIMSTYLE
  2
STANDARD
 70
     0
  3

  4

  5

  6

  7

 40
1.0
 41
0.1875
 42
0.0625
 43
0.38
 44
0.125
 45
0.0
 46
0.0
 47
0.01
 48
0.01
140
0.15625
141
0.09
142
0.0
143
25.3999999999999986
144
1.0
145
0.0
146
1.0
147
0.09
 71
     1
 72
     0
 73
     1
 74
     1
 75
     0
 76
     0
 77
     0
 78
     4
170
     0
171
     2
172
     0
173
     0
174
     0
175
     0
176
     0
177
     0
178
     0
  0
ENDTAB
  0
ENDSEC
  0
SECTION
  2
BLOCKS
  0
BLOCK
  8
0
  2
$MODEL_SPACE
 70
     0
 10
0.0
 20
0.0
 30
0.0
  3
$MODEL_SPACE
  1

  0
ENDBLK
  5
21
  8
0
  0
BLOCK
 67
     1
  8
0
  2
$PAPER_SPACE
 70
     0
 10
0.0
 20
0.0
 30
0.0
  3
$PAPER_SPACE
  1

  0
ENDBLK
  5
1D
 67
     1
  8
0
  0
BLOCK
  8
0
  2
_FILLED
 70
     0
 10
0.0
 20
0.0
 30
0.0
  3
_FILLED
  1

  0
SOLID
  5
FCD5
  8
0
  6
BYBLOCK
 62
     0
 10
0.0
 20
0.0
 30
0.0
 11
-1.0
 21
0.1666666667
 31
0.0
 12
-1.0
 22
-0.1666666667
 32
0.0
 13
-1.0
 23
-0.1666666667
 33
0.0
  0
ENDBLK
  5
FCD6
  8
0
  6
BYBLOCK
 62
     0
  0
ENDSEC
  0
SECTION
  2
ENTITIES
  0
ATTDEF
  5
F633
  8
DEFPOINTS
 10
81.8642446751529889
 20
-16.5100269931556802
 30
0.0
 40
0.001
  1
K-99856IN-4
  3

  2
MODELNUMBER
 70
     0
1001
ACDBATTR
1070
     0
1070
     1
  0
ATTDEF
  5
F634
  8
DEFPOINTS
 10
81.8642446751529889
 20
-16.5116936598223383
 30
0.0
 40
0.001
  1
BEITOU
  3

  2
TRADENAME
 70
     0
1001
ACDBATTR
1070
     0
1070
     1
  0
ATTDEF
  5
F635
  8
DEFPOINTS
 10
81.8642446751529889
 20
-16.5133603264890105
 30
0.0
 40
0.001
  1
BATHROOM SINK FAUCET
  3

  2
PRODUCT
 70
     0
1001
ACDBATTR
1070
     0
1070
     1
  0
LINE
  5
FD0A
  8
0
 10
79.836519539474196
 20
-15.6081266291471596
 30
0.0
 11
83.8916376496741947
 21
-15.6081266291471508
 31
0.0
  0
ARC
  5
FD0B
  8
0
 10
83.891638351242193
 20
-15.6474950140127707
 30
0.0
 40
0.0393683848718722
 50
359.997506309723974
 51
90.0010210448228349
  0
LINE
  5
FD0C
  8
0
 10
83.9310067360767817
 20
-15.6474967274471606
 30
0.0
 11
83.9310067360767817
 21
-22.1435596801467405
 31
0.0
  0
ARC
  5
FD0D
  8
0
 10
83.8916327619612048
 20
-22.1435558047489103
 30
0.0
 40
0.0393739743062948
 50
270.0071670163707722
 51
359.9943606419116122
  0
LINE
  5
FD0E
  8
0
 10
83.891637687174196
 20
-22.1829297787471589
 30
0.0
 11
79.8365196379742059
 21
-22.1829297787471589
 31
0.0
  0
ARC
  5
FD0F
  8
0
 10
79.8365195394744092
 20
-22.1435597000470707
 30
0.0
 40
0.0393700787002125
 50
180.0000000005350955
 51
270.0001433480036894
  0
LINE
  5
FD10
  8
0
 10
79.7971494607741931
 20
-22.1435597000474296
 30
0.0
 11
79.7971494607284768
 21
-15.6474967078471607
 31
0.0
  0
ARC
  5
FD11
  8
0
 10
79.8365195394282097
 20
-15.6474967078468801
 30
0.0
 40
0.0393700786997258
 50
89.9999999330603657
 51
180.0000000004029914
  0
LINE
  5
FD12
  8
0
 10
80.6396690884737808
 20
-15.6081266291471508
 30
0.0
 11
80.6406227586908955
 21
-16.4323046024828585
 31
0.0
  0
ARC
  5
FD13
  8
0
 10
84.4170674256104121
 20
-16.4279348147404711
 30
0.0
 40
3.7764471950961811
 50
180.0662978820948013
 51
184.311743479780489
  0
ARC
  5
FD14
  8
0
 10
80.702661271774204
 20
-15.6278116685471602
 30
0.0
 40
0.0196850393999988
 50
89.9999999999918572
 51
180.0
  0
LINE
  5
FD15
  8
0
 10
80.6829762323742017
 20
-15.6278116685471602
 30
0.0
 11
80.6829762323742017
 21
-16.5136325135204309
 31
0.0
  0
ARC
  5
FD16
  8
0
 10
82.1706309692425378
 20
-16.521172466839559
 30
0.0
 40
1.4876738142768531
 50
179.7098357359882925
 51
186.6065884205893042
  0
ARC
  5
FD17
  8
0
 10
81.5068720074957866
 20
-16.5980493472453183
 30
0.0
 40
0.8194777247641439
 50
186.6065884205893042
 51
199.5174731605349052
  0
ARC
  5
FD18
  8
0
 10
81.1290171075918636
 20
-16.7319844813588716
 30
0.0
 40
0.4185875334007172
 50
199.5174731605345073
 51
231.5662491285683018
  0
ARC
  5
FD19
  8
0
 10
81.2101131061885155
 20
-16.5745985400689904
 30
0.0
 40
0.5932750919588898
 50
234.8813926946639867
 51
263.2648636532338173
  0
ARC
  5
FD1A
  8
0
 10
81.4167642991454557
 20
-15.1999552779815499
 30
0.0
 40
1.9831561602311121
 50
261.9933372782476795
 51
270.7755173258004788
  0
LINE
  5
FD1B
  8
0
 10
81.4436061540741889
 20
-17.1829297787471589
 30
0.0
 11
82.2845510355743102
 21
-17.1829297787471589
 31
0.0
  0
ARC
  5
FD1C
  8
0
 10
80.6396691462122988
 20
-15.6474967076090099
 30
0.0
 40
0.0393700782619015
 50
0.0000003810854108
 51
90.0000840269977971
  0
LINE
  5
FD1D
  8
0
 10
80.6790392244741952
 20
-15.64749670734715
 30
0.0
 11
80.6790392311114459
 21
-16.6453977030189115
 31
0.0
  0
ARC
  5
FD1E
  8
0
 10
80.5855291043989155
 20
-16.6453977703962792
 30
0.0
 40
0.0935101267125585
 50
314.7042307603255153
 51
0.0000412836486187
  0
LINE
  5
FD1F
  8
0
 10
80.6513085399741954
 20
-16.7118598622471488
 30
0.0
 11
80.6928359897741956
 21
-16.6923313881471493
 31
0.0
  0
LINE
  5
FD20
  8
0
 10
83.0884881011746188
 20
-15.6081266291471508
 30
0.0
 11
83.0875344309575041
 21
-16.4323046024828585
 31
0.0
  0
ARC
  5
FD21
  8
0
 10
79.3110897640379733
 20
-16.4279348147404711
 30
0.0
 40
3.7764471950961811
 50
355.688256520219511
 51
359.9337021179049998
  0
ARC
  5
FD22
  8
0
 10
83.0254959178741956
 20
-15.6278116685471602
 30
0.0
 40
0.0196850393999988
 50
0.0
 51
90.0000000000073328
  0
LINE
  5
FD23
  8
0
 10
83.0451809572741979
 20
-15.6278116685471602
 30
0.0
 11
83.0451809572741979
 21
-16.5136325135204309
 31
0.0
  0
ARC
  5
FD24
  8
0
 10
81.5575262204058475
 20
-16.521172466839559
 30
0.0
 40
1.4876738142768531
 50
353.3934115794106106
 51
0.2901642640116909
  0
ARC
  5
FD25
  8
0
 10
82.2212851821526129
 20
-16.5980493472453183
 30
0.0
 40
0.8194777247641439
 50
340.4825268394648106
 51
353.3934115794106106
  0
ARC
  5
FD26
  8
0
 10
82.599140082056536
 20
-16.7319844813588716
 30
0.0
 40
0.4185875334007172
 50
308.4337508714316982
 51
340.4825268394649811
  0
ARC
  5
FD27
  8
0
 10
82.5180440834598841
 20
-16.5745985400689904
 30
0.0
 40
0.5932750919588898
 50
276.7351363467661827
 51
305.1186073053360133
  0
ARC
  5
FD28
  8
0
 10
82.3113928905029439
 20
-15.1999552779815499
 30
0.0
 40
1.9831561602311121
 50
269.2244826741994075
 51
278.0066627217522068
  0
ARC
  5
FD29
  8
0
 10
83.0884880434360866
 20
-15.6474967076090099
 30
0.0
 40
0.0393700782619015
 50
89.9999159730022029
 51
179.9999996189145861
  0
LINE
  5
FD2A
  8
0
 10
83.0491179651742044
 20
-15.64749670734715
 30
0.0
 11
83.0491179585369537
 21
-16.6453977030189115
 31
0.0
  0
ARC
  5
FD2B
  8
0
 10
83.1426280852494841
 20
-16.6453977703962792
 30
0.0
 40
0.0935101267125585
 50
179.9999587163513866
 51
225.2957692396745131
  0
LINE
  5
FD2C
  8
0
 10
83.0768486496742042
 20
-16.7118598622471488
 30
0.0
 11
83.035321199874204
 21
-16.6923313881471493
 31
0.0
  0
ARC
  5
FD2D
  8
0
 10
81.8640744189859788
 20
-15.1913637941488702
 30
0.0
 40
2.0219571520026078
 50
260.0591518313182178
 51
279.9451325878965804
  0
ARC
  5
FD2E
  8
0
 10
83.9703785089275669
 20
-16.2852902892661788
 30
0.0
 40
0.0393717728872305
 50
180.0024654571226108
 51
269.9989787732881155
  0
LINE
  5
FD2F
  8
0
 10
83.9703778071742022
 20
-16.3246620621471514
 30
0.0
 11
86.4703778071742022
 21
-16.3246620621470413
 31
0.0
  0
ARC
  5
FD30
  8
0
 10
86.4703777407350032
 20
-16.3443472619454084
 30
0.0
 40
0.0196851997984788
 50
0.0004668554562009
 51
89.9998066220099275
  0
LINE
  5
FD31
  8
0
 10
86.4900629405328374
 20
-16.3443471015471609
 30
0.0
 11
86.4900629405328374
 21
-16.6829297787471589
 31
0.0
  0
ARC
  5
FD32
  8
0
 10
86.470377740731621
 20
-16.6829296183453906
 30
0.0
 40
0.019685199801881
 50
270.0001933878909881
 51
359.9995331343118892
  0
LINE
  5
FD33
  8
0
 10
86.4703778071742022
 20
-16.7026148181471612
 30
0.0
 11
83.9703778071742022
 21
-16.7026148184059196
 31
0.0
  0
ARC
  5
FD34
  8
0
 10
83.9703785089321855
 20
-16.7419865912915284
 30
0.0
 40
0.0393717728918629
 50
90.0010212334381521
 51
179.9975341594534939
  0
ENDSEC
  0
EOF
